  0
SECTION
  2
HEADER
  9
$ACADVER
  1
AC1027
  9
$ACADMAINTVER
 70
   105
  9
$DWGCODEPAGE
  3
ANSI_1252
  9
$REQUIREDVERSIONS
160
                 0
  9
$LASTSAVEDBY
  1
matthias.ochs
  9
$INSBASE
 10
0.0
 20
0.0
 30
0.0
  9
$EXTMIN
 10
-74.2975367516435
 20
-55.26066659846532
 30
0.0
  9
$EXTMAX
 10
96.05664387479688
 20
49.95442207561481
 30
0.0
  9
$LIMMIN
 10
-56.757202118
 20
-40.766149102
  9
$LIMMAX
 10
76.072380035
 20
41.853850997
  9
$ORTHOMODE
 70
     0
  9
$REGENMODE
 70
     1
  9
$FILLMODE
 70
     1
  9
$QTEXTMODE
 70
     0
  9
$MIRRTEXT
 70
     1
  9
$LTSCALE
 40
1.0
  9
$ATTMODE
 70
     1
  9
$TEXTSIZE
 40
0.2
  9
$TRACEWID
 40
0.05
  9
$TEXTSTYLE
  7
Standard
  9
$CLAYER
  8
3
  9
$CELTYPE
  6
ByLayer
  9
$CECOLOR
 62
   256
  9
$CELTSCALE
 40
1.0
  9
$DISPSILH
 70
     0
  9
$DIMSCALE
 40
1.0
  9
$DIMASZ
 40
0.18
  9
$DIMEXO
 40
0.0625
  9
$DIMDLI
 40
0.38
  9
$DIMRND
 40
0.0
  9
$DIMDLE
 40
0.0
  9
$DIMEXE
 40
0.18
  9
$DIMTP
 40
0.0
  9
$DIMTM
 40
0.0
  9
$DIMTXT
 40
0.18
  9
$DIMCEN
 40
0.09
  9
$DIMTSZ
 40
0.0
  9
$DIMTOL
 70
     0
  9
$DIMLIM
 70
     0
  9
$DIMTIH
 70
     1
  9
$DIMTOH
 70
     1
  9
$DIMSE1
 70
     0
  9
$DIMSE2
 70
     0
  9
$DIMTAD
 70
     0
  9
$DIMZIN
 70
     0
  9
$DIMBLK
  1

  9
$DIMASO
 70
     1
  9
$DIMSHO
 70
     1
  9
$DIMPOST
  1

  9
$DIMAPOST
  1

  9
$DIMALT
 70
     0
  9
$DIMALTD
 70
     2
  9
$DIMALTF
 40
25.4
  9
$DIMLFAC
 40
1.0
  9
$DIMTOFL
 70
     0
  9
$DIMTVP
 40
0.0
  9
$DIMTIX
 70
     0
  9
$DIMSOXD
 70
     0
  9
$DIMSAH
 70
     0
  9
$DIMBLK1
  1

  9
$DIMBLK2
  1

  9
$DIMSTYLE
  2
Standard
  9
$DIMCLRD
 70
     0
  9
$DIMCLRE
 70
     0
  9
$DIMCLRT
 70
     0
  9
$DIMTFAC
 40
1.0
  9
$DIMGAP
 40
0.09
  9
$DIMJUST
 70
     0
  9
$DIMSD1
 70
     0
  9
$DIMSD2
 70
     0
  9
$DIMTOLJ
 70
     1
  9
$DIMTZIN
 70
     0
  9
$DIMALTZ
 70
     0
  9
$DIMALTTZ
 70
     0
  9
$DIMUPT
 70
     0
  9
$DIMDEC
 70
     4
  9
$DIMTDEC
 70
     4
  9
$DIMALTU
 70
     2
  9
$DIMALTTD
 70
     2
  9
$DIMTXSTY
  7
Standard
  9
$DIMAUNIT
 70
     0
  9
$DIMADEC
 70
     0
  9
$DIMALTRND
 40
0.0
  9
$DIMAZIN
 70
     0
  9
$DIMDSEP
 70
    46
  9
$DIMATFIT
 70
     3
  9
$DIMFRAC
 70
     0
  9
$DIMLDRBLK
  1

  9
$DIMLUNIT
 70
     2
  9
$DIMLWD
 70
    -2
  9
$DIMLWE
 70
    -2
  9
$DIMTMOVE
 70
     2
  9
$DIMFXL
 40
1.0
  9
$DIMFXLON
 70
     0
  9
$DIMJOGANG
 40
0.7853981633974483
  9
$DIMTFILL
 70
     0
  9
$DIMTFILLCLR
 70
     0
  9
$DIMARCSYM
 70
     0
  9
$DIMLTYPE
  6

  9
$DIMLTEX1
  6

  9
$DIMLTEX2
  6

  9
$DIMTXTDIRECTION
 70
     0
  9
$LUNITS
 70
     2
  9
$LUPREC
 70
     4
  9
$SKETCHINC
 40
0.1
  9
$FILLETRAD
 40
0.5
  9
$AUNITS
 70
     2
  9
$AUPREC
 70
     0
  9
$MENU
  1
.
  9
$ELEVATION
 40
0.0
  9
$PELEVATION
 40
0.0
  9
$THICKNESS
 40
0.0
  9
$LIMCHECK
 70
     0
  9
$CHAMFERA
 40
0.5
  9
$CHAMFERB
 40
0.5
  9
$CHAMFERC
 40
1.0
  9
$CHAMFERD
 40
0.0
  9
$SKPOLY
 70
     0
  9
$TDCREATE
 40
2458327.544387685
  9
$TDUCREATE
 40
2458327.461054352
  9
$TDUPDATE
 40
2458639.632206319
  9
$TDUUPDATE
 40
2458639.548872986
  9
$TDINDWG
 40
0.0090728704
  9
$TDUSRTIMER
 40
0.0093523727
  9
$USRTIMER
 70
     1
  9
$ANGBASE
 50
0.0
  9
$ANGDIR
 70
     0
  9
$PDMODE
 70
     0
  9
$PDSIZE
 40
0.0
  9
$PLINEWID
 40
0.0
  9
$SPLFRAME
 70
     0
  9
$SPLINETYPE
 70
     6
  9
$SPLINESEGS
 70
     8
  9
$HANDSEED
  5
314
  9
$SURFTAB1
 70
     6
  9
$SURFTAB2
 70
     6
  9
$SURFTYPE
 70
     6
  9
$SURFU
 70
     6
  9
$SURFV
 70
     6
  9
$UCSBASE
  2

  9
$UCSNAME
  2

  9
$UCSORG
 10
0.0
 20
0.0
 30
0.0
  9
$UCSXDIR
 10
1.0
 20
0.0
 30
0.0
  9
$UCSYDIR
 10
0.0
 20
1.0
 30
0.0
  9
$UCSORTHOREF
  2

  9
$UCSORTHOVIEW
 70
     0
  9
$UCSORGTOP
 10
0.0
 20
0.0
 30
0.0
  9
$UCSORGBOTTOM
 10
0.0
 20
0.0
 30
0.0
  9
$UCSORGLEFT
 10
0.0
 20
0.0
 30
0.0
  9
$UCSORGRIGHT
 10
0.0
 20
0.0
 30
0.0
  9
$UCSORGFRONT
 10
0.0
 20
0.0
 30
0.0
  9
$UCSORGBACK
 10
0.0
 20
0.0
 30
0.0
  9
$PUCSBASE
  2

  9
$PUCSNAME
  2

  9
$PUCSORG
 10
0.0
 20
0.0
 30
0.0
  9
$PUCSXDIR
 10
1.0
 20
0.0
 30
0.0
  9
$PUCSYDIR
 10
0.0
 20
1.0
 30
0.0
  9
$PUCSORTHOREF
  2

  9
$PUCSORTHOVIEW
 70
     0
  9
$PUCSORGTOP
 10
0.0
 20
0.0
 30
0.0
  9
$PUCSORGBOTTOM
 10
0.0
 20
0.0
 30
0.0
  9
$PUCSORGLEFT
 10
0.0
 20
0.0
 30
0.0
  9
$PUCSORGRIGHT
 10
0.0
 20
0.0
 30
0.0
  9
$PUCSORGFRONT
 10
0.0
 20
0.0
 30
0.0
  9
$PUCSORGBACK
 10
0.0
 20
0.0
 30
0.0
  9
$USERI1
 70
     0
  9
$USERI2
 70
     0
  9
$USERI3
 70
     0
  9
$USERI4
 70
     0
  9
$USERI5
 70
     0
  9
$USERR1
 40
0.0
  9
$USERR2
 40
0.0
  9
$USERR3
 40
0.0
  9
$USERR4
 40
0.0
  9
$USERR5
 40
0.0
  9
$WORLDVIEW
 70
     1
  9
$SHADEDGE
 70
     3
  9
$SHADEDIF
 70
    70
  9
$TILEMODE
 70
     1
  9
$MAXACTVP
 70
    64
  9
$PINSBASE
 10
0.0
 20
0.0
 30
0.0
  9
$PLIMCHECK
 70
     0
  9
$PEXTMIN
 10
1.000000000000000E+20
 20
1.000000000000000E+20
 30
1.000000000000000E+20
  9
$PEXTMAX
 10
-1.000000000000000E+20
 20
-1.000000000000000E+20
 30
-1.000000000000000E+20
  9
$PLIMMIN
 10
0.0
 20
0.0
  9
$PLIMMAX
 10
0.0
 20
0.0
  9
$UNITMODE
 70
     0
  9
$VISRETAIN
 70
     1
  9
$PLINEGEN
 70
     0
  9
$PSLTSCALE
 70
     1
  9
$TREEDEPTH
 70
  3020
  9
$CMLSTYLE
  2
Standard
  9
$CMLJUST
 70
     0
  9
$CMLSCALE
 40
1.0
  9
$PROXYGRAPHICS
 70
     1
  9
$MEASUREMENT
 70
     0
  9
$CELWEIGHT
370
    -1
  9
$ENDCAPS
280
     0
  9
$JOINSTYLE
280
     0
  9
$LWDISPLAY
290
     0
  9
$INSUNITS
 70
     0
  9
$HYPERLINKBASE
  1

  9
$STYLESHEET
  1

  9
$XEDIT
290
     1
  9
$CEPSNTYPE
380
     0
  9
$PSTYLEMODE
290
     1
  9
$FINGERPRINTGUID
  2
{20578786-341D-4EF6-B69C-92765E19AA2A}
  9
$VERSIONGUID
  2
{FAEB1C32-E019-11D5-929B-00C0DF256EC4}
  9
$EXTNAMES
290
     1
  9
$PSVPSCALE
 40
0.0
  9
$OLESTARTUP
290
     0
  9
$SORTENTS
280
   127
  9
$INDEXCTL
280
     0
  9
$HIDETEXT
280
     1
  9
$XCLIPFRAME
280
     2
  9
$HALOGAP
280
     0
  9
$OBSCOLOR
 70
   257
  9
$OBSLTYPE
280
     0
  9
$INTERSECTIONDISPLAY
280
     0
  9
$INTERSECTIONCOLOR
 70
   257
  9
$DIMASSOC
280
     2
  9
$PROJECTNAME
  1

  9
$CAMERADISPLAY
290
     0
  9
$LENSLENGTH
 40
50.0
  9
$CAMERAHEIGHT
 40
0.0
  9
$STEPSPERSEC
 40
2.0
  9
$STEPSIZE
 40
6.0
  9
$3DDWFPREC
 40
2.0
  9
$PSOLWIDTH
 40
0.25
  9
$PSOLHEIGHT
 40
4.0
  9
$LOFTANG1
 40
1.570796326794897
  9
$LOFTANG2
 40
1.570796326794897
  9
$LOFTMAG1
 40
0.0
  9
$LOFTMAG2
 40
0.0
  9
$LOFTPARAM
 70
     7
  9
$LOFTNORMALS
280
     1
  9
$LATITUDE
 40
37.795
  9
$LONGITUDE
 40
-122.394
  9
$NORTHDIRECTION
 40
0.0
  9
$TIMEZONE
 70
 -8000
  9
$LIGHTGLYPHDISPLAY
280
     1
  9
$TILEMODELIGHTSYNCH
280
     1
  9
$SOLIDHIST
280
     0
  9
$SHOWHIST
280
     1
  9
$DWFFRAME
280
     2
  9
$DGNFRAME
280
     2
  9
$REALWORLDSCALE
290
     1
  9
$INTERFERECOLOR
 62
   256
  9
$CSHADOW
280
     0
  9
$SHADOWPLANELOCATION
 40
0.0
  0
ENDSEC
  0
SECTION
  2
CLASSES
  0
CLASS
  1
ACDBDICTIONARYWDFLT
  2
AcDbDictionaryWithDefault
  3
ObjectDBX Classes
 90
        0
 91
        6
280
     0
281
     0
  0
CLASS
  1
SCALE
  2
AcDbScale
  3
ObjectDBX Classes
 90
     1153
 91
        6
280
     0
281
     0
  0
CLASS
  1
VISUALSTYLE
  2
AcDbVisualStyle
  3
ObjectDBX Classes
 90
     4095
 91
        6
280
     0
281
     0
  0
CLASS
  1
MATERIAL
  2
AcDbMaterial
  3
ObjectDBX Classes
 90
     1153
 91
        6
280
     0
281
     0
  0
CLASS
  1
DICTIONARYVAR
  2
AcDbDictionaryVar
  3
ObjectDBX Classes
 90
        0
 91
        6
280
     0
281
     0
  0
CLASS
  1
ACDBPLACEHOLDER
  2
AcDbPlaceHolder
  3
ObjectDBX Classes
 90
        0
 91
        1
280
     0
281
     0
  0
CLASS
  1
LAYOUT
  2
AcDbLayout
  3
ObjectDBX Classes
 90
        0
 91
        1
280
     0
281
     0
  0
CLASS
  1
TABLESTYLE
  2
AcDbTableStyle
  3
ObjectDBX Classes
 90
     4095
 91
        5
280
     0
281
     0
  0
CLASS
  1
MLEADERSTYLE
  2
AcDbMLeaderStyle
  3
ACDB_MLEADERSTYLE_CLASS
 90
     4095
 91
        5
280
     0
281
     0
  0
CLASS
  1
SUN
  2
AcDbSun
  3
SCENEOE
 90
     1153
 91
        6
280
     0
281
     0
  0
CLASS
  1
SORTENTSTABLE
  2
AcDbSortentsTable
  3
ObjectDBX Classes
 90
        0
 91
        5
280
     0
281
     0
  0
CLASS
  1
CELLSTYLEMAP
  2
AcDbCellStyleMap
  3
ObjectDBX Classes
 90
     1152
 91
        4
280
     0
281
     0
  0
ENDSEC
  0
SECTION
  2
TABLES
  0
TABLE
  2
VPORT
  5
8
330
0
100
AcDbSymbolTable
 70
     1
  0
VPORT
  5
116
330
8
100
AcDbSymbolTableRecord
100
AcDbViewportTableRecord
  2
*Active
 70
     0
 10
0.0
 20
0.0
 11
1.0
 21
1.0
 12
-8257894645.904098
 22
1029069381.091358
 13
0.0
 23
0.0
 14
0.5
 24
0.5
 15
0.5
 25
0.5
 16
0.0
 26
0.0
 36
176468415425796.8
 17
8257894675.916012
 27
-1029069363.94995
 37
0.0
 40
314.4281051100843
 41
1.708624708624709
 42
50.0
 43
0.0
 44
0.0
 50
0.0
 51
0.0
 71
    16
 72
   100
 73
     1
 74
     3
 75
     0
 76
     0
 77
     0
 78
     0
281
     0
 65
     1
110
0.0
120
0.0
130
0.0
111
1.0
121
0.0
131
0.0
112
0.0
122
1.0
132
0.0
 79
     0
146
0.0
348
148
 60
     3
 61
     5
292
     1
282
     1
141
0.0
142
0.0
 63
   256
361
1FA
  0
ENDTAB
  0
TABLE
  2
LTYPE
  5
5
330
0
100
AcDbSymbolTable
 70
     8
  0
LTYPE
  5
14
330
5
100
AcDbSymbolTableRecord
100
AcDbLinetypeTableRecord
  2
ByBlock
 70
     0
  3

 72
    65
 73
     0
 40
0.0
  0
LTYPE
  5
15
330
5
100
AcDbSymbolTableRecord
100
AcDbLinetypeTableRecord
  2
ByLayer
 70
     0
  3

 72
    65
 73
     0
 40
0.0
  0
LTYPE
  5
16
330
5
100
AcDbSymbolTableRecord
100
AcDbLinetypeTableRecord
  2
Continuous
 70
     0
  3
Solid line
 72
    65
 73
     0
 40
0.0
  0
LTYPE
  5
20
330
5
100
AcDbSymbolTableRecord
100
AcDbLinetypeTableRecord
  2
PUNKT
 70
     0
  3
..............
 72
    65
 73
     2
 40
1.5
 49
0.7
 74
     0
 49
-0.8
 74
     0
  0
LTYPE
  5
21
330
5
100
AcDbSymbolTableRecord
100
AcDbLinetypeTableRecord
  2
GESTRICHELT
 70
     0
  3
-- -- -- -- --
 72
    65
 73
     7
 40
2.8
 49
0.9
 74
     0
 49
0.0
 74
     0
 49
0.9
 74
     0
 49
0.0
 74
     0
 49
0.2
 74
     0
 49
0.0
 74
     0
 49
-0.8
 74
     0
  0
LTYPE
  5
22
330
5
100
AcDbSymbolTableRecord
100
AcDbLinetypeTableRecord
  2
STRICHPUNKT
 70
     0
  3
--.--.--.--.--
 72
    65
 73
     4
 40
8.8
 49
5.5
 74
     0
 49
-1.3
 74
     0
 49
0.7
 74
     0
 49
-1.3
 74
     0
  0
LTYPE
  5
25
330
5
100
AcDbSymbolTableRecord
100
AcDbLinetypeTableRecord
  2
PHANTOM
 70
     0
  3
--..--..--..--
 72
    65
 73
     6
 40
14.2
 49
7.0
 74
     0
 49
-1.8
 74
     0
 49
0.9
 74
     0
 49
-1.8
 74
     0
 49
0.9
 74
     0
 49
-1.8
 74
     0
  0
LTYPE
  5
190
330
5
100
AcDbSymbolTableRecord
100
AcDbLinetypeTableRecord
  2
DASH
 70
     0
  3
DASH _ _ _ _ _
 72
    65
 73
     2
 40
0.75
 49
0.4
 74
     0
 49
-0.35
 74
     0
  0
LTYPE
  5
191
330
5
100
AcDbSymbolTableRecord
100
AcDbLinetypeTableRecord
  2
LONGDASH_DASH
 70
     0
  3
LONGDASH_DASH __ . __ . __
 72
    65
 73
     4
 40
0.85
 49
0.4
 74
     0
 49
-0.2
 74
     0
 49
0.05
 74
     0
 49
-0.2
 74
     0
  0
LTYPE
  5
192
330
5
100
AcDbSymbolTableRecord
100
AcDbLinetypeTableRecord
  2
LONGDASH_DASH_DASH
 70
     0
  3
LONGDASH_DASH_DASH __ . . __ . . __
 72
    65
 73
     6
 40
1.1
 49
0.4
 74
     0
 49
-0.2
 74
     0
 49
0.05
 74
     0
 49
-0.2
 74
     0
 49
0.05
 74
     0
 49
-0.2
 74
     0
  0
ENDTAB
  0
TABLE
  2
LAYER
  5
2
102
{ACAD_XDICTIONARY
360
1AF
102
}
330
0
100
AcDbSymbolTable
 70
    17
  0
LAYER
  5
159
330
2
100
AcDbSymbolTableRecord
100
AcDbLayerTableRecord
  2
200
 70
     0
 62
     2
  6
Continuous
370
    50
390
F
347
157
348
0
  0
LAYER
  5
193
330
2
100
AcDbSymbolTableRecord
100
AcDbLayerTableRecord
  2
0
 70
     0
 62
     1
  6
Continuous
370
    -3
390
F
347
157
348
0
  0
LAYER
  5
194
330
2
100
AcDbSymbolTableRecord
100
AcDbLayerTableRecord
  2
1
 70
     0
 62
     4
  6
Continuous
370
    50
390
F
347
157
348
0
  0
LAYER
  5
195
330
2
100
AcDbSymbolTableRecord
100
AcDbLayerTableRecord
  2
2
 70
     0
 62
     7
  6
Continuous
370
    25
390
F
347
157
348
0
  0
LAYER
  5
196
330
2
100
AcDbSymbolTableRecord
100
AcDbLayerTableRecord
  2
3
 70
     0
 62
     1
  6
DASH
370
    35
390
F
347
157
348
0
  0
LAYER
  5
197
330
2
100
AcDbSymbolTableRecord
100
AcDbLayerTableRecord
  2
4
 70
     0
 62
     2
  6
LONGDASH_DASH
370
    25
390
F
347
157
348
0
  0
LAYER
  5
198
330
2
100
AcDbSymbolTableRecord
100
AcDbLayerTableRecord
  2
6
 70
     0
 62
     5
  6
Continuous
370
    -3
390
F
347
157
348
0
  0
LAYER
  5
199
330
2
100
AcDbSymbolTableRecord
100
AcDbLayerTableRecord
  2
CUT
 70
     0
 62
     1
  6
Continuous
370
    25
390
F
347
157
348
0
  0
LAYER
  5
19A
330
2
100
AcDbSymbolTableRecord
100
AcDbLayerTableRecord
  2
NOCUT
 70
     0
 62
     7
  6
Continuous
370
    25
390
F
347
157
348
0
  0
LAYER
  5
19B
330
2
100
AcDbSymbolTableRecord
100
AcDbLayerTableRecord
  2
SK1
 70
     0
 62
     4
  6
Continuous
370
    50
390
F
347
157
348
0
  0
LAYER
  5
19C
330
2
100
AcDbSymbolTableRecord
100
AcDbLayerTableRecord
  2
SK2
 70
     0
 62
     7
  6
Continuous
370
    25
390
F
347
157
348
0
  0
LAYER
  5
19D
330
2
100
AcDbSymbolTableRecord
100
AcDbLayerTableRecord
  2
SK3
 70
     0
 62
     1
  6
DASH
370
    35
390
F
347
157
348
0
  0
LAYER
  5
19E
330
2
100
AcDbSymbolTableRecord
100
AcDbLayerTableRecord
  2
SK4
 70
     0
 62
     2
  6
LONGDASH_DASH
370
    25
390
F
347
157
348
0
  0
LAYER
  5
19F
330
2
100
AcDbSymbolTableRecord
100
AcDbLayerTableRecord
  2
SK6
 70
     0
 62
     5
  6
Continuous
370
    -3
390
F
347
157
348
0
  0
LAYER
  5
1A0
330
2
100
AcDbSymbolTableRecord
100
AcDbLayerTableRecord
  2
INFTOTAL
 70
     0
 62
     9
  6
Continuous
370
    18
390
F
347
157
348
0
  0
LAYER
  5
257
330
2
100
AcDbSymbolTableRecord
100
AcDbLayerTableRecord
  2
11
 70
     0
 62
     4
  6
Continuous
370
    50
390
F
347
157
348
0
1001
AcAecLayerStandard
1000

1000

  0
LAYER
  5
2B4
330
2
100
AcDbSymbolTableRecord
100
AcDbLayerTableRecord
  2
7
 70
     0
 62
     5
  6
Continuous
370
    18
390
F
347
157
348
0
1001
AcAecLayerStandard
1000

1000

  0
ENDTAB
  0
TABLE
  2
STYLE
  5
3
330
0
100
AcDbSymbolTable
 70
     3
  0
STYLE
  5
11
330
3
100
AcDbSymbolTableRecord
100
AcDbTextStyleTableRecord
  2
Standard
 70
     0
 40
0.0
 41
1.0
 50
0.0
 71
     0
 42
0.2
  3
txt
  4

  0
STYLE
  5
158
330
3
100
AcDbSymbolTableRecord
100
AcDbTextStyleTableRecord
  2
BMG_Text
 70
     0
 40
3.5
 41
1.0
 50
0.0
 71
     0
 42
0.2
  3
monos.ttf
  4

1001
ACAD
1000
Monospac821 BT
1071
       49
  0
STYLE
  5
2BB
330
3
100
AcDbSymbolTableRecord
100
AcDbTextStyleTableRecord
  2
SLDTEXTSTYLE0
 70
     0
 40
0.0
 41
0.605
 50
0.0
 71
     0
 42
0.2
  3
TXT
  4

  0
ENDTAB
  0
TABLE
  2
VIEW
  5
6
330
0
100
AcDbSymbolTable
 70
     0
  0
ENDTAB
  0
TABLE
  2
UCS
  5
7
330
0
100
AcDbSymbolTable
 70
     0
  0
ENDTAB
  0
TABLE
  2
APPID
  5
9
330
0
100
AcDbSymbolTable
 70
     3
  0
APPID
  5
12
330
9
100
AcDbSymbolTableRecord
100
AcDbRegAppTableRecord
  2
ACAD
 70
     0
  0
APPID
  5
258
330
9
100
AcDbSymbolTableRecord
100
AcDbRegAppTableRecord
  2
AcAecLayerStandard
 70
     0
  0
APPID
  5
2BE
330
9
100
AcDbSymbolTableRecord
100
AcDbRegAppTableRecord
  2
PE_URL
 70
     0
  0
ENDTAB
  0
TABLE
  2
DIMSTYLE
  5
A
330
0
100
AcDbSymbolTable
 70
     6
100
AcDbDimStyleTable
  0
DIMSTYLE
105
28
330
A
100
AcDbSymbolTableRecord
100
AcDbDimStyleTableRecord
  2
Standard
 70
     0
178
     0
340
11
  0
DIMSTYLE
105
2B7
330
A
100
AcDbSymbolTableRecord
100
AcDbDimStyleTableRecord
  2
ISO-25
 70
     0
 41
2.5
 42
0.625
 43
3.75
 44
1.25
 73
     0
 74
     0
 77
     1
 78
     8
140
2.5
141
2.5
143
0.03937007874016
147
0.625
171
     3
172
     1
178
     0
271
     2
272
     2
274
     3
278
    44
283
     0
284
     8
340
11
  0
DIMSTYLE
105
2B9
330
A
100
AcDbSymbolTableRecord
100
AcDbDimStyleTableRecord
  2
Matthias
 70
     0
 41
3.0
 44
2.0
 73
     0
 77
     1
140
3.0
147
2.0
178
     0
340
11
  0
DIMSTYLE
105
2BA
330
A
100
AcDbSymbolTableRecord
100
AcDbDimStyleTableRecord
  2
SLDDIMSTYLE0
 70
     0
 41
3.5
 44
0.0
 45
0.000000001
 73
     0
 74
     0
 77
     1
 78
    12
 79
     3
140
3.5
147
0.875
173
     1
178
     0
271
     0
272
     3
276
     2
284
    12
340
2BB
  0
DIMSTYLE
105
2BC
330
A
100
AcDbSymbolTableRecord
100
AcDbDimStyleTableRecord
  2
SLDDIMSTYLE1
 70
     0
 41
3.5
 44
0.0
 45
0.000000001
 73
     0
 74
     0
 77
     1
 78
    12
 79
     3
140
3.5
147
0.875
172
     1
173
     1
178
     0
271
     2
272
     3
276
     2
284
    12
289
     0
340
2BB
  0
DIMSTYLE
105
2BD
330
A
100
AcDbSymbolTableRecord
100
AcDbDimStyleTableRecord
  2
SLDDIMSTYLE2
 70
     0
 41
3.5
 44
0.0
 45
0.000000001
 47
1.0
 48
1.0
 71
     1
 73
     0
 74
     0
 77
     1
 78
    12
 79
     3
140
3.5
147
0.875
173
     1
178
     0
271
     2
272
     0
276
     2
284
     8
340
2BB
  0
ENDTAB
  0
TABLE
  2
BLOCK_RECORD
  5
1
330
0
100
AcDbSymbolTable
 70
     2
  0
BLOCK_RECORD
  5
1D
102
{ACAD_XDICTIONARY
360
2E5
102
}
330
1
100
AcDbSymbolTableRecord
100
AcDbBlockTableRecord
  2
*Model_Space
340
1E
 70
     0
280
     1
281
     0
  0
BLOCK_RECORD
  5
1B
330
1
100
AcDbSymbolTableRecord
100
AcDbBlockTableRecord
  2
*Paper_Space
340
1C
 70
     0
280
     1
281
     0
  0
ENDTAB
  0
ENDSEC
  0
SECTION
  2
BLOCKS
  0
BLOCK
  5
141
330
1D
100
AcDbEntity
  8
0
100
AcDbBlockBegin
  2
*Model_Space
 70
     0
 10
0.0
 20
0.0
 30
0.0
  3
*Model_Space
  1

  0
ENDBLK
  5
142
330
1D
100
AcDbEntity
  8
0
100
AcDbBlockEnd
  0
BLOCK
  5
13F
330
1B
100
AcDbEntity
 67
     1
  8
0
100
AcDbBlockBegin
  2
*Paper_Space
 70
     0
 10
0.0
 20
0.0
 30
0.0
  3
*Paper_Space
  1

  0
ENDBLK
  5
140
330
1B
100
AcDbEntity
 67
     1
  8
0
100
AcDbBlockEnd
  0
ENDSEC
  0
SECTION
  2
ENTITIES
  0
ARC
  5
29
330
1D
100
AcDbEntity
  8
3
100
AcDbCircle
 10
22.364952749
 20
-28.5
 30
0.0
 40
10.0
100
AcDbArc
 50
90.0
 51
156.42180562
  0
LINE
  5
2A
330
1D
100
AcDbEntity
  8
3
100
AcDbLine
 10
22.364952749
 20
-18.5
 30
0.0
 11
32.499994273
 21
-18.5
 31
0.0
  0
LINE
  5
2B
330
1D
100
AcDbEntity
  8
3
100
AcDbLine
 10
18.133944851
 20
-13.710385624
 30
0.0
 11
28.891594872
 21
-18.5
 31
0.0
  0
LINE
  5
2C
330
1D
100
AcDbEntity
  8
4
100
AcDbLine
 10
22.417063449
 20
-21.365460977
 30
0.0
 11
12.812058741
 21
-17.08814667
 31
0.0
  0
LINE
  5
2D
330
1D
100
AcDbEntity
  8
3
100
AcDbLine
 10
18.133944851
 20
-13.710385624
 30
0.0
 11
13.964894259
 21
-23.074226565
 31
0.0
  0
LINE
  5
2E
330
1D
100
AcDbEntity
  8
3
100
AcDbLine
 10
7.570076056
 20
-20.227070062
 30
0.0
 11
13.964894259
 21
-23.074226565
 31
0.0
  0
LINE
  5
2F
330
1D
100
AcDbEntity
  8
3
100
AcDbLine
 10
18.03226069
 20
-13.938771988
 30
0.0
 11
11.637442486
 21
-11.091615487
 31
0.0
  0
LINE
  5
30
330
1D
100
AcDbEntity
  8
3
100
AcDbLine
 10
7.570076056
 20
-20.227070062
 30
0.0
 11
11.637442486
 21
-11.091615487
 31
0.0
  0
LINE
  5
31
330
1D
100
AcDbEntity
  8
3
100
AcDbLine
 10
7.570076056
 20
-20.227070062
 30
0.0
 11
6.966580692
 21
-14.485195223
 31
0.0
  0
LINE
  5
32
330
1D
100
AcDbEntity
  8
3
100
AcDbLine
 10
11.637442486
 20
-11.091615487
 30
0.0
 11
6.966580692
 21
-14.485195223
 31
0.0
  0
LINE
  5
33
330
1D
100
AcDbEntity
  8
3
100
AcDbLine
 10
7.294438569
 20
-14.246992532
 30
0.0
 11
0.04884884
 21
-5.299434377
 31
0.0
  0
LINE
  5
34
330
1D
100
AcDbEntity
  8
4
100
AcDbLine
 10
12.812058741
 20
-17.08814667
 30
0.0
 11
0.0000000000000018
 21
-1.266571761081282
 31
0.0
  0
LINE
  5
35
330
1D
100
AcDbEntity
  8
3
100
AcDbLine
 10
11.345074797
 20
-11.304033047
 30
0.0
 11
2.726718105
 21
-0.661248873
 31
0.0
  0
LINE
  5
36
330
1D
100
AcDbEntity
  8
SK1
100
AcDbLine
 10
-1.112243652
 20
14.0
 30
0.0
 11
-25.5
 21
14.0
 31
0.0
  0
LINE
  5
37
330
1D
100
AcDbEntity
  8
SK1
100
AcDbLine
 10
-25.5
 20
14.0
 30
0.0
 11
-27.519973755
 21
13.716125488
 31
0.0
  0
LINE
  5
38
330
1D
100
AcDbEntity
  8
SK1
100
AcDbLine
 10
-27.519973755
 20
13.716125488
 30
0.0
 11
-29.061080242
 21
13.987857967
 31
0.0
  0
ARC
  5
39
330
1D
100
AcDbEntity
  8
SK1
100
AcDbCircle
 10
-29.199996948
 20
13.200012207
 30
0.0
 40
0.799999246
100
AcDbArc
 50
80.000123978
 51
180.0
  0
LINE
  5
3A
330
1D
100
AcDbEntity
  8
SK1
100
AcDbLine
 10
-30.0
 20
13.200012207
 30
0.0
 11
-29.999996194
 21
-13.200012207
 31
0.0
  0
ARC
  5
3B
330
1D
100
AcDbEntity
  8
SK1
100
AcDbCircle
 10
-29.199996948
 20
-13.200012207
 30
0.0
 40
0.799999246
100
AcDbArc
 50
180.0
 51
279.99987659
  0
LINE
  5
3C
330
1D
100
AcDbEntity
  8
SK1
100
AcDbLine
 10
-29.061080933
 20
-13.987854004
 30
0.0
 11
-27.519973755
 21
-13.716125488
 31
0.0
  0
LINE
  5
3D
330
1D
100
AcDbEntity
  8
SK1
100
AcDbLine
 10
-27.519973755
 20
-13.716125488
 30
0.0
 11
-25.5
 21
-14.0
 31
0.0
  0
LINE
  5
3E
330
1D
100
AcDbEntity
  8
SK1
100
AcDbLine
 10
-25.5
 20
-14.0
 30
0.0
 11
-25.5
 21
14.0
 31
0.0
  0
ARC
  5
3F
330
1D
100
AcDbEntity
  8
SK1
100
AcDbCircle
 10
-0.300003052
 20
-14.299987793
 30
0.0
 40
0.5
100
AcDbArc
 50
53.129400015
 51
104.99978409
  0
LINE
  5
40
330
1D
100
AcDbEntity
  8
SK1
100
AcDbLine
 10
-0.429412842
 20
-13.817016602
 30
0.0
 11
-1.112182617
 21
-14.0
 31
0.0
  0
LINE
  5
41
330
1D
100
AcDbEntity
  8
SK1
100
AcDbLine
 10
-1.112182617
 20
-14.0
 30
0.0
 11
-1.112213135
 21
14.0
 31
0.0
  0
LINE
  5
42
330
1D
100
AcDbEntity
  8
SK1
100
AcDbLine
 10
-1.112213135
 20
14.0
 30
0.0
 11
-0.429414624
 21
13.817025429
 31
0.0
  0
ARC
  5
43
330
1D
100
AcDbEntity
  8
SK1
100
AcDbCircle
 10
-0.300003052
 20
14.299987793
 30
0.0
 40
0.5
100
AcDbArc
 50
254.9997568129999
 51
306.870599985
  0
LINE
  5
44
330
1D
100
AcDbEntity
  8
1
100
AcDbLine
 10
32.499994273
 20
24.5
 30
0.0
 11
32.499994273
 21
-24.5
 31
0.0
  0
LINE
  5
45
330
1D
100
AcDbEntity
  8
1
100
AcDbLine
 10
32.499994273
 20
-24.5
 30
0.0
 11
0.5
 21
-24.5
 31
0.0
  0
LINE
  5
46
330
1D
100
AcDbEntity
  8
1
100
AcDbLine
 10
0.5
 20
-24.5
 30
0.0
 11
0.0
 21
-24.0
 31
0.0
  0
LINE
  5
47
330
1D
100
AcDbEntity
  8
1
100
AcDbLine
 10
0.0
 20
-24.0
 30
0.0
 11
0.0
 21
24.0
 31
0.0
  0
LINE
  5
48
330
1D
100
AcDbEntity
  8
1
100
AcDbLine
 10
0.0
 20
24.0
 30
0.0
 11
0.5
 21
24.5
 31
0.0
  0
LINE
  5
49
330
1D
100
AcDbEntity
  8
1
100
AcDbLine
 10
0.5
 20
24.5
 30
0.0
 11
32.499994273
 21
24.5
 31
0.0
  0
LINE
  5
4B
330
1D
100
AcDbEntity
  8
SK1
100
AcDbLine
 10
-25.5
 20
-14.0
 30
0.0
 11
-1.112213135
 21
-14.0
 31
0.0
  0
LINE
  5
4C
330
1D
100
AcDbEntity
  8
4
100
AcDbLine
 10
0.0
 20
0.0
 30
0.0
 11
57.12368738219921
 21
0.0
 31
0.0
  0
LINE
  5
4D
330
1D
100
AcDbEntity
  8
3
100
AcDbLine
 10
29.999996185
 20
-24.5
 30
0.0
 11
29.999996185
 21
18.5
 31
0.0
  0
LINE
  5
4E
330
1D
100
AcDbEntity
  8
1
100
AcDbLine
 10
29.999996185
 20
18.5
 30
0.0
 11
29.999996185
 21
24.5
 31
0.0
  0
LINE
  5
4F
330
1D
100
AcDbEntity
  8
1
100
AcDbLine
 10
32.499994273
 20
-16.939899621
 30
0.0
 11
29.499996185
 21
-13.834802322
 31
0.0
  0
LINE
  5
50
330
1D
100
AcDbEntity
  8
1
100
AcDbLine
 10
29.499996185
 20
13.298898392
 30
0.0
 11
32.499994273
 21
16.40399569
 31
0.0
  0
CIRCLE
  5
51
330
1D
100
AcDbEntity
  8
SK1
100
AcDbCircle
 10
-12.5
 20
0.0
 30
0.0
 40
4.0
  0
LINE
  5
52
330
1D
100
AcDbEntity
  8
1
100
AcDbLine
 10
29.499996185
 20
13.298898392
 30
0.0
 11
29.499996185
 21
-13.834802322
 31
0.0
  0
LINE
  5
53
330
1D
100
AcDbEntity
  8
SK1
100
AcDbLine
 10
-3.962982178
 20
-16.5
 30
0.0
 11
-11.037010193
 21
-16.5
 31
0.0
  0
LINE
  5
54
330
1D
100
AcDbEntity
  8
SK1
100
AcDbLine
 10
-3.962989807
 20
16.5
 30
0.0
 11
-11.037010193
 21
16.5
 31
0.0
  0
LINE
  5
55
330
1D
100
AcDbEntity
  8
SK1
100
AcDbLine
 10
-12.866020203
 20
-14.332061768
 30
0.0
 11
-11.903030396
 21
-16.0
 31
0.0
  0
LINE
  5
56
330
1D
100
AcDbEntity
  8
SK1
100
AcDbLine
 10
-2.133972168
 20
-14.332042694
 30
0.0
 11
-3.096961975
 21
-16.000011444
 31
0.0
  0
LINE
  5
57
330
1D
100
AcDbEntity
  8
SK1
100
AcDbLine
 10
-12.866027832
 20
14.332065582
 30
0.0
 11
-11.903030396
 21
16.0
 31
0.0
  0
LINE
  5
58
330
1D
100
AcDbEntity
  8
SK1
100
AcDbLine
 10
-2.133972168
 20
14.332042694
 30
0.0
 11
-3.096969604
 21
16.0
 31
0.0
  0
ARC
  5
59
330
1D
100
AcDbEntity
  8
SK1
100
AcDbCircle
 10
-11.037010193
 20
-15.5
 30
0.0
 40
1.0
100
AcDbArc
 50
210.00015378
 51
270.0
  0
ARC
  5
5A
330
1D
100
AcDbEntity
  8
SK1
100
AcDbCircle
 10
-12.0
 20
-13.832054138
 30
0.0
 40
0.999999285
100
AcDbArc
 50
189.668415526
 51
210.000534058
  0
ARC
  5
5B
330
1D
100
AcDbEntity
  8
SK1
100
AcDbCircle
 10
-3.962982178
 20
-15.5
 30
0.0
 40
1.0
100
AcDbArc
 50
270.0
 51
329.9992829559999
  0
ARC
  5
5C
330
1D
100
AcDbEntity
  8
SK1
100
AcDbCircle
 10
-3.0
 20
-13.832046509
 30
0.0
 40
1.000000119
100
AcDbArc
 50
330.000259399
 51
350.331149188
  0
ARC
  5
5D
330
1D
100
AcDbEntity
  8
SK1
100
AcDbCircle
 10
-3.0
 20
13.832046509
 30
0.0
 40
1.0
100
AcDbArc
 50
9.668851975000003
 51
29.999724627
  0
ARC
  5
5E
330
1D
100
AcDbEntity
  8
SK1
100
AcDbCircle
 10
-3.962989807
 20
15.5
 30
0.0
 40
0.99999547
100
AcDbArc
 50
30.000152588
 51
89.999998808
  0
ARC
  5
5F
330
1D
100
AcDbEntity
  8
SK1
100
AcDbCircle
 10
-11.037010193
 20
15.5
 30
0.0
 40
1.0
100
AcDbArc
 50
90.0
 51
149.999851584
  0
ARC
  5
60
330
1D
100
AcDbEntity
  8
SK1
100
AcDbCircle
 10
-12.0
 20
13.832057953
 30
0.0
 40
1.000005841
100
AcDbArc
 50
149.999687195
 51
170.331870187
  0
LINE
  5
61
330
1D
100
AcDbEntity
  8
SK4
100
AcDbLine
 10
-7.5
 20
16.566681278
 30
0.0
 11
-7.5
 21
13.412818205
 31
0.0
  0
LINE
  5
62
330
1D
100
AcDbEntity
  8
SK4
100
AcDbLine
 10
-7.5
 20
-16.566681278
 30
0.0
 11
-7.5
 21
-13.412818205
 31
0.0
  0
LINE
  5
63
330
1D
100
AcDbEntity
  8
SK3
100
AcDbLine
 10
-27.499998097
 20
-7.249938965
 30
0.0
 11
-26.922636037
 21
-6.249938965
 31
0.0
  0
LINE
  5
64
330
1D
100
AcDbEntity
  8
SK3
100
AcDbLine
 10
-26.922636037
 20
6.250061035
 30
0.0
 11
-27.499998097
 21
7.250061035
 31
0.0
  0
LINE
  5
65
330
1D
100
AcDbEntity
  8
SK3
100
AcDbLine
 10
-27.499998097
 20
7.250061035
 30
0.0
 11
-27.499998097
 21
-7.249938965
 31
0.0
  0
LINE
  5
67
330
1D
100
AcDbEntity
  8
3
100
AcDbLine
 10
3.108491977
 20
0.0
 30
0.0
 11
0.0000000000000009
 21
5.384042683958846
 31
0.0
  0
LINE
  5
68
330
1D
100
AcDbEntity
  8
11
100
AcDbLine
 10
-27.355649953
 20
7.000061035
 30
0.0
 11
-12.999998097
 21
7.000061035
 31
0.0
  0
LINE
  5
69
330
1D
100
AcDbEntity
  8
SK3
100
AcDbLine
 10
-12.999998097
 20
7.000061035
 30
0.0
 11
-12.999998097
 21
-6.999938965
 31
0.0
  0
LINE
  5
6A
330
1D
100
AcDbEntity
  8
11
100
AcDbLine
 10
-12.999998097
 20
-6.999938965
 30
0.0
 11
-27.355649953
 21
-6.999938965
 31
0.0
  0
LINE
  5
6B
330
1D
100
AcDbEntity
  8
SK3
100
AcDbLine
 10
-29.999998097
 20
-7.5
 30
0.0
 11
-29.566984181
 21
-7.249938965
 31
0.0
  0
LINE
  5
6C
330
1D
100
AcDbEntity
  8
SK3
100
AcDbLine
 10
-29.566984181
 20
-7.249938965
 30
0.0
 11
-29.566953664
 21
7.250061035
 31
0.0
  0
LINE
  5
6D
330
1D
100
AcDbEntity
  8
SK3
100
AcDbLine
 10
-29.566953664
 20
7.250061035
 30
0.0
 11
-29.999998097
 21
7.500061035
 31
0.0
  0
LINE
  5
6E
330
1D
100
AcDbEntity
  8
3
100
AcDbLine
 10
-0.0000000000000001
 20
-5.383965189749137
 30
0.0
 11
3.108437949
 21
0.0
 31
0.0
  0
LINE
  5
6F
330
1D
100
AcDbEntity
  8
SK3
100
AcDbLine
 10
-26.922636037
 20
-6.249938965
 30
0.0
 11
-0.499998097
 21
-6.249938965
 31
0.0
  0
LINE
  5
70
330
1D
100
AcDbEntity
  8
SK3
100
AcDbLine
 10
-0.499998097
 20
-6.249938965
 30
0.0
 11
-0.499998097
 21
6.250061035
 31
0.0
  0
LINE
  5
71
330
1D
100
AcDbEntity
  8
SK3
100
AcDbLine
 10
-0.499998097
 20
6.250061035
 30
0.0
 11
-26.922636037
 21
6.250061035
 31
0.0
  0
LINE
  5
72
330
1D
100
AcDbEntity
  8
SK3
100
AcDbLine
 10
-26.922636037
 20
6.250061035
 30
0.0
 11
-26.922636037
 21
-6.249938965
 31
0.0
  0
LINE
  5
73
330
1D
100
AcDbEntity
  8
SK3
100
AcDbLine
 10
-27.499998097
 20
-7.249938965
 30
0.0
 11
-29.566953664
 21
-7.249938965
 31
0.0
  0
LINE
  5
74
330
1D
100
AcDbEntity
  8
SK3
100
AcDbLine
 10
-29.566953664
 20
-7.249938965
 30
0.0
 11
-29.566953664
 21
7.250061035
 31
0.0
  0
LINE
  5
75
330
1D
100
AcDbEntity
  8
SK3
100
AcDbLine
 10
-29.566953664
 20
7.250061035
 30
0.0
 11
-27.499998097
 21
7.250061035
 31
0.0
  0
LINE
  5
76
330
1D
100
AcDbEntity
  8
SK3
100
AcDbLine
 10
-27.499998097
 20
7.250061035
 30
0.0
 11
-27.499998097
 21
-7.249938965
 31
0.0
  0
LINE
  5
77
330
1D
100
AcDbEntity
  8
SK3
100
AcDbLine
 10
-12.999998097
 20
-6.999938965
 30
0.0
 11
-10.200959991
 21
-6.249938965
 31
0.0
  0
LINE
  5
78
330
1D
100
AcDbEntity
  8
SK3
100
AcDbLine
 10
-12.999998097
 20
7.000061035
 30
0.0
 11
-10.200959991
 21
6.250061035
 31
0.0
  0
LINE
  5
79
330
1D
100
AcDbEntity
  8
1
100
AcDbLine
 10
56.709996185
 20
13.64094954729005
 30
0.0
 11
56.709996185
 21
7.232050516
 31
0.0
  0
LINE
  5
7A
330
1D
100
AcDbEntity
  8
1
100
AcDbLine
 10
55.709996185
 20
5.499999709
 30
0.0
 11
50.209998063
 21
0.0
 31
0.0
  0
LINE
  5
7B
330
1D
100
AcDbEntity
  8
1
100
AcDbLine
 10
32.499994273
 20
24.499740597
 30
0.0
 11
44.375972748
 21
24.499740597
 31
0.0
  0
LINE
  5
7C
330
1D
100
AcDbEntity
  8
1
100
AcDbLine
 10
44.375972748
 20
24.499740597
 30
0.0
 11
44.485072775
 21
24.252131139
 31
0.0
  0
LINE
  5
7D
330
1D
100
AcDbEntity
  8
1
100
AcDbLine
 10
44.299983978
 20
15.560638895
 30
0.0
 11
43.499996185
 21
14.60724791138266
 31
0.0
  0
ARC
  5
7E
330
1D
100
AcDbEntity
  8
1
100
AcDbCircle
 10
45.304897308
 20
12.713363644
 30
0.0
 40
2.599999418
100
AcDbArc
 50
226.037063781
 51
320.00047287
  0
LINE
  5
7F
330
1D
100
AcDbEntity
  8
1
100
AcDbLine
 10
47.296611786
 20
11.042144772
 30
0.0
 11
48.283364763
 21
12.218135037
 31
0.0
  0
LINE
  5
80
330
1D
100
AcDbEntity
  8
1
100
AcDbLine
 10
55.709996185
 20
5.499999709
 30
0.0
 11
56.709996185
 21
7.232050516
 31
0.0
  0
ARC
  5
82
330
1D
100
AcDbEntity
  8
1
100
AcDbCircle
 10
45.099971771
 20
12.471546313
 30
0.0
 40
0.799999097
100
AcDbArc
 50
180.0
 51
279.999686827
  0
LINE
  5
84
330
1D
100
AcDbEntity
  8
1
100
AcDbLine
 10
56.999996185
 20
14.428775927
 30
0.0
 11
57.000007489
 21
25.700000948
 31
0.0
  0
ARC
  5
85
330
1D
100
AcDbEntity
  8
1
100
AcDbCircle
 10
56.200008392
 20
14.428791186
 30
0.0
 40
0.799995075
100
AcDbArc
 50
279.999881843
 51
359.998907153
  0
ARC
  5
86
330
1D
100
AcDbEntity
  8
1
100
AcDbCircle
 10
56.200008392
 20
25.700000903
 30
0.0
 40
0.799999097
100
AcDbArc
 50
0.000003188
 51
100.001649448
  0
LINE
  5
87
330
1D
100
AcDbEntity
  8
1
100
AcDbLine
 10
56.061061859
 20
26.487873217
 30
0.0
 11
44.961042993
 21
24.530599474
 31
0.0
  0
ARC
  5
8B
330
1D
100
AcDbEntity
  8
1
100
AcDbCircle
 10
45.099971771
 20
23.74275603
 30
0.0
 40
0.799999061
100
AcDbArc
 50
100.000756243
 51
180.0
  0
LINE
  5
8C
330
1D
100
AcDbEntity
  8
1
100
AcDbLine
 10
56.709996185
 20
-13.780114328
 30
0.0
 11
56.709996185
 21
-7.232050516
 31
0.0
  0
LINE
  5
8D
330
1D
100
AcDbEntity
  8
1
100
AcDbLine
 10
55.709996185
 20
-5.499999709
 30
0.0
 11
46.428927354
 21
3.781071799
 31
0.0
  0
ARC
  5
8E
330
1D
100
AcDbEntity
  8
1
100
AcDbCircle
 10
53.499996185
 20
10.852138591
 30
0.0
 40
10.0
100
AcDbArc
 50
180.0
 51
224.99999174
  0
LINE
  5
8F
330
1D
100
AcDbEntity
  8
1
100
AcDbLine
 10
43.499996185
 20
10.852138591
 30
0.0
 11
43.499996185
 21
18.500000003
 31
0.0
  0
LINE
  5
90
330
1D
100
AcDbEntity
  8
1
100
AcDbLine
 10
43.499996185
 20
18.500000003
 30
0.0
 11
32.499994273
 21
18.500000003
 31
0.0
  0
LINE
  5
91
330
1D
100
AcDbEntity
  8
1
100
AcDbLine
 10
32.499994273
 20
-24.499740597
 30
0.0
 11
44.375972748
 21
-24.499740597
 31
0.0
  0
LINE
  5
92
330
1D
100
AcDbEntity
  8
1
100
AcDbLine
 10
44.375972748
 20
-24.499740597
 30
0.0
 11
44.560165012
 21
-24.081704527
 31
0.0
  0
LINE
  5
93
330
1D
100
AcDbEntity
  8
1
100
AcDbLine
 10
55.709996185
 20
-5.499999709
 30
0.0
 11
56.709996185
 21
-7.232050516
 31
0.0
  0
LINE
  5
94
330
1D
100
AcDbEntity
  8
1
100
AcDbLine
 10
56.196979323
 20
-24.743030539
 30
0.0
 11
56.196987152
 21
-13.864318845
 31
0.0
  0
LINE
  5
95
330
1D
100
AcDbEntity
  8
1
100
AcDbLine
 10
56.196987152
 20
-13.864318845
 30
0.0
 11
56.709996185
 21
-13.780609128
 31
0.0
  0
LINE
  5
96
330
1D
100
AcDbEntity
  8
1
100
AcDbLine
 10
44.560165012
 20
-24.081704527
 30
0.0
 11
47.039583255
 21
-24.081730363
 31
0.0
  0
LINE
  5
97
330
1D
100
AcDbEntity
  8
1
100
AcDbLine
 10
47.039583255
 20
-24.081730363
 30
0.0
 11
55.258068085
 21
-25.530872336
 31
0.0
  0
ARC
  5
98
330
1D
100
AcDbEntity
  8
1
100
AcDbCircle
 10
55.3969841
 20
-24.743030539
 30
0.0
 40
0.799995223
100
AcDbArc
 50
260.00012341
 51
0.0
  0
LINE
  5
9E
330
1D
100
AcDbEntity
  8
3
100
AcDbLine
 10
11.345074797
 20
11.304033047
 30
0.0
 11
2.726718105
 21
0.661248874
 31
0.0
  0
LINE
  5
9F
330
1D
100
AcDbEntity
  8
3
100
AcDbLine
 10
7.294438569
 20
14.246992532
 30
0.0
 11
0.04884884
 21
5.299434378
 31
0.0
  0
LINE
  5
A0
330
1D
100
AcDbEntity
  8
3
100
AcDbLine
 10
11.637442486
 20
11.091615487
 30
0.0
 11
6.966580692
 21
14.485195223
 31
0.0
  0
LINE
  5
A1
330
1D
100
AcDbEntity
  8
3
100
AcDbLine
 10
7.570076056
 20
20.227070063
 30
0.0
 11
11.637442486
 21
11.091615487
 31
0.0
  0
LINE
  5
A2
330
1D
100
AcDbEntity
  8
3
100
AcDbLine
 10
18.133944851
 20
13.710385624
 30
0.0
 11
13.964894259
 21
23.074226565
 31
0.0
  0
LINE
  5
A3
330
1D
100
AcDbEntity
  8
3
100
AcDbLine
 10
18.133944851
 20
13.710385624
 30
0.0
 11
28.891594872
 21
18.5
 31
0.0
  0
ARC
  5
A4
330
1D
100
AcDbEntity
  8
1
100
AcDbCircle
 10
22.364952749
 20
28.5
 30
0.0
 40
10.0
100
AcDbArc
 50
203.57819438
 51
270.0
  0
LINE
  5
A5
330
1D
100
AcDbEntity
  8
4
100
AcDbLine
 10
22.417063449
 20
21.365460978
 30
0.0
 11
12.812058741
 21
17.08814667
 31
0.0
  0
LINE
  5
A6
330
1D
100
AcDbEntity
  8
4
100
AcDbLine
 10
12.812058741
 20
17.08814667
 30
0.0
 11
0.2114382628970013
 21
1.527676270720415
 31
0.0
  0
LINE
  5
A7
330
1D
100
AcDbEntity
  8
1
100
AcDbLine
 10
22.364952749
 20
18.5
 30
0.0
 11
32.499994273
 21
18.5
 31
0.0
  0
LINE
  5
A8
330
1D
100
AcDbEntity
  8
3
100
AcDbLine
 10
18.03226069
 20
13.938771989
 30
0.0
 11
11.637442486
 21
11.091615487
 31
0.0
  0
LINE
  5
A9
330
1D
100
AcDbEntity
  8
3
100
AcDbLine
 10
6.966580692
 20
14.485195223
 30
0.0
 11
7.570076056
 21
20.227070063
 31
0.0
  0
LINE
  5
AA
330
1D
100
AcDbEntity
  8
3
100
AcDbLine
 10
7.570076056
 20
20.227070063
 30
0.0
 11
13.964894259
 21
23.074226565
 31
0.0
  0
LINE
  5
AB
330
1D
100
AcDbEntity
  8
2
100
AcDbLine
 10
0.0
 20
38.043850899
 30
0.0
 11
0.0
 21
24.0
 31
0.0
  0
LINE
  5
AC
330
1D
100
AcDbEntity
  8
2
100
AcDbLine
 10
0.0
 20
36.043850899
 30
0.0
 11
3.499999999
 21
36.49385091
 31
0.0
  0
LINE
  5
AD
330
1D
100
AcDbEntity
  8
2
100
AcDbLine
 10
3.499999999
 20
36.49385091
 30
0.0
 11
3.500000001
 21
35.59385091
 31
0.0
  0
LINE
  5
AE
330
1D
100
AcDbEntity
  8
2
100
AcDbLine
 10
3.500000001
 20
35.59385091
 30
0.0
 11
0.0
 21
36.043850899
 31
0.0
  0
LINE
  5
AF
330
1D
100
AcDbEntity
  8
2
100
AcDbLine
 10
3.4
 20
36.04385091
 30
0.0
 11
0.1
 21
36.043850899
 31
0.0
  0
LINE
  5
B0
330
1D
100
AcDbEntity
  8
2
100
AcDbLine
 10
3.400000001
 20
35.84385091
 30
0.0
 11
1.655555556
 21
35.843850904
 31
0.0
  0
LINE
  5
B1
330
1D
100
AcDbEntity
  8
2
100
AcDbLine
 10
3.399999999
 20
36.24385091
 30
0.0
 11
1.655555555
 21
36.243850904
 31
0.0
  0
LINE
  5
B2
330
1D
100
AcDbEntity
  8
2
100
AcDbLine
 10
3.400000001
 20
35.64385091
 30
0.0
 11
3.211111112
 21
35.643850909
 31
0.0
  0
LINE
  5
B3
330
1D
100
AcDbEntity
  8
2
100
AcDbLine
 10
3.399999999
 20
36.44385091
 30
0.0
 11
3.21111111
 21
36.443850909
 31
0.0
  0
LINE
  5
B4
330
1D
100
AcDbEntity
  8
2
100
AcDbLine
 10
57.000007489
 20
38.043851084
 30
0.0
 11
57.000007489
 21
25.700000948
 31
0.0
  0
LINE
  5
B5
330
1D
100
AcDbEntity
  8
2
100
AcDbLine
 10
57.000007489
 20
36.043851084
 30
0.0
 11
53.50000749
 21
35.593851072
 31
0.0
  0
LINE
  5
B6
330
1D
100
AcDbEntity
  8
2
100
AcDbLine
 10
53.50000749
 20
35.593851072
 30
0.0
 11
53.500007488
 21
36.493851072
 31
0.0
  0
LINE
  5
B7
330
1D
100
AcDbEntity
  8
2
100
AcDbLine
 10
53.500007488
 20
36.493851072
 30
0.0
 11
57.000007489
 21
36.043851084
 31
0.0
  0
LINE
  5
B8
330
1D
100
AcDbEntity
  8
2
100
AcDbLine
 10
53.600007489
 20
36.043851073
 30
0.0
 11
56.900007489
 21
36.043851083
 31
0.0
  0
LINE
  5
B9
330
1D
100
AcDbEntity
  8
2
100
AcDbLine
 10
53.600007488
 20
36.243851073
 30
0.0
 11
55.344451933
 21
36.243851078
 31
0.0
  0
LINE
  5
BA
330
1D
100
AcDbEntity
  8
2
100
AcDbLine
 10
53.60000749
 20
35.843851073
 30
0.0
 11
55.344451934
 21
35.843851078
 31
0.0
  0
LINE
  5
BB
330
1D
100
AcDbEntity
  8
2
100
AcDbLine
 10
53.600007488
 20
36.443851073
 30
0.0
 11
53.788896377
 21
36.443851073
 31
0.0
  0
LINE
  5
BC
330
1D
100
AcDbEntity
  8
2
100
AcDbLine
 10
53.60000749
 20
35.643851073
 30
0.0
 11
53.788896379
 21
35.643851073
 31
0.0
  0
LINE
  5
BD
330
1D
100
AcDbEntity
  8
2
100
AcDbLine
 10
3.5
 20
36.04385091
 30
0.0
 11
53.500007489
 21
36.043851072
 31
0.0
  0
TEXT
  5
BE
330
1D
100
AcDbEntity
  8
2
100
AcDbText
 10
26.944690603
 20
37.543850986
 30
0.0
 40
3.5
  1
57
 50
0.000000186
  7
BMG_Text
100
AcDbText
  0
LINE
  5
BF
330
1D
100
AcDbEntity
  8
2
100
AcDbLine
 10
-47.842411041
 20
-24.5
 30
0.0
 11
0.5
 21
-24.5
 31
0.0
  0
LINE
  5
C0
330
1D
100
AcDbEntity
  8
2
100
AcDbLine
 10
-45.842411041
 20
-24.5
 30
0.0
 11
-46.292411041
 21
-21.0
 31
0.0
  0
LINE
  5
C1
330
1D
100
AcDbEntity
  8
2
100
AcDbLine
 10
-46.292411041
 20
-21.0
 30
0.0
 11
-45.392411041
 21
-21.0
 31
0.0
  0
LINE
  5
C2
330
1D
100
AcDbEntity
  8
2
100
AcDbLine
 10
-45.392411041
 20
-21.0
 30
0.0
 11
-45.842411041
 21
-24.5
 31
0.0
  0
LINE
  5
C3
330
1D
100
AcDbEntity
  8
2
100
AcDbLine
 10
-45.842411041
 20
-21.1
 30
0.0
 11
-45.842411041
 21
-24.4
 31
0.0
  0
LINE
  5
C4
330
1D
100
AcDbEntity
  8
2
100
AcDbLine
 10
-45.642411041
 20
-21.1
 30
0.0
 11
-45.642411041
 21
-22.844444444
 31
0.0
  0
LINE
  5
C5
330
1D
100
AcDbEntity
  8
2
100
AcDbLine
 10
-46.042411041
 20
-21.1
 30
0.0
 11
-46.042411041
 21
-22.844444444
 31
0.0
  0
LINE
  5
C6
330
1D
100
AcDbEntity
  8
2
100
AcDbLine
 10
-45.442411041
 20
-21.1
 30
0.0
 11
-45.442411041
 21
-21.288888889
 31
0.0
  0
LINE
  5
C7
330
1D
100
AcDbEntity
  8
2
100
AcDbLine
 10
-46.242411041
 20
-21.1
 30
0.0
 11
-46.242411041
 21
-21.288888889
 31
0.0
  0
LINE
  5
C8
330
1D
100
AcDbEntity
  8
2
100
AcDbLine
 10
-47.842411041
 20
24.5
 30
0.0
 11
0.5
 21
24.5
 31
0.0
  0
LINE
  5
C9
330
1D
100
AcDbEntity
  8
2
100
AcDbLine
 10
-45.842411041
 20
24.5
 30
0.0
 11
-45.392411041
 21
21.0
 31
0.0
  0
LINE
  5
CA
330
1D
100
AcDbEntity
  8
2
100
AcDbLine
 10
-45.392411041
 20
21.0
 30
0.0
 11
-46.292411041
 21
21.0
 31
0.0
  0
LINE
  5
CB
330
1D
100
AcDbEntity
  8
2
100
AcDbLine
 10
-46.292411041
 20
21.0
 30
0.0
 11
-45.842411041
 21
24.5
 31
0.0
  0
LINE
  5
CC
330
1D
100
AcDbEntity
  8
2
100
AcDbLine
 10
-45.842411041
 20
21.1
 30
0.0
 11
-45.842411041
 21
24.4
 31
0.0
  0
LINE
  5
CD
330
1D
100
AcDbEntity
  8
2
100
AcDbLine
 10
-46.042411041
 20
21.1
 30
0.0
 11
-46.042411041
 21
22.844444444
 31
0.0
  0
LINE
  5
CE
330
1D
100
AcDbEntity
  8
2
100
AcDbLine
 10
-45.642411041
 20
21.1
 30
0.0
 11
-45.642411041
 21
22.844444444
 31
0.0
  0
LINE
  5
CF
330
1D
100
AcDbEntity
  8
2
100
AcDbLine
 10
-46.242411041
 20
21.1
 30
0.0
 11
-46.242411041
 21
21.288888889
 31
0.0
  0
LINE
  5
D0
330
1D
100
AcDbEntity
  8
2
100
AcDbLine
 10
-45.442411041
 20
21.1
 30
0.0
 11
-45.442411041
 21
21.288888889
 31
0.0
  0
LINE
  5
D1
330
1D
100
AcDbEntity
  8
2
100
AcDbLine
 10
-45.842411041
 20
-21.0
 30
0.0
 11
-45.842411041
 21
21.0
 31
0.0
  0
TEXT
  5
D2
330
1D
100
AcDbEntity
  8
2
100
AcDbText
 10
-47.342411041
 20
0.139999452
 30
0.0
 40
3.5
  1
49
 50
90.0
  7
BMG_Text
100
AcDbText
  0
CIRCLE
  5
D3
330
1D
100
AcDbEntity
  8
2
100
AcDbCircle
 10
-48.592411041
 20
-2.110000548
 30
0.0
 40
1.25
  0
LINE
  5
D4
330
1D
100
AcDbEntity
  8
2
100
AcDbLine
 10
-47.342411041
 20
-3.360000548
 30
0.0
 11
-49.842411041
 21
-0.860000548
 31
0.0
  0
LINE
  5
D5
330
1D
100
AcDbEntity
  8
SK2
100
AcDbLine
 10
-39.842411041
 20
-14.0
 30
0.0
 11
-25.5
 21
-14.0
 31
0.0
  0
LINE
  5
D6
330
1D
100
AcDbEntity
  8
SK2
100
AcDbLine
 10
-37.842411041
 20
-14.0
 30
0.0
 11
-38.292411041
 21
-10.5
 31
0.0
  0
LINE
  5
D7
330
1D
100
AcDbEntity
  8
SK2
100
AcDbLine
 10
-38.292411041
 20
-10.5
 30
0.0
 11
-37.392411041
 21
-10.5
 31
0.0
  0
LINE
  5
D8
330
1D
100
AcDbEntity
  8
SK2
100
AcDbLine
 10
-37.392411041
 20
-10.5
 30
0.0
 11
-37.842411041
 21
-14.0
 31
0.0
  0
LINE
  5
D9
330
1D
100
AcDbEntity
  8
SK2
100
AcDbLine
 10
-37.842411041
 20
-10.6
 30
0.0
 11
-37.842411041
 21
-13.9
 31
0.0
  0
LINE
  5
DA
330
1D
100
AcDbEntity
  8
SK2
100
AcDbLine
 10
-37.642411041
 20
-10.6
 30
0.0
 11
-37.642411041
 21
-12.344444444
 31
0.0
  0
LINE
  5
DB
330
1D
100
AcDbEntity
  8
SK2
100
AcDbLine
 10
-38.042411041
 20
-10.6
 30
0.0
 11
-38.042411041
 21
-12.344444444
 31
0.0
  0
LINE
  5
DC
330
1D
100
AcDbEntity
  8
SK2
100
AcDbLine
 10
-37.442411041
 20
-10.6
 30
0.0
 11
-37.442411041
 21
-10.788888889
 31
0.0
  0
LINE
  5
DD
330
1D
100
AcDbEntity
  8
SK2
100
AcDbLine
 10
-38.242411041
 20
-10.6
 30
0.0
 11
-38.242411041
 21
-10.788888889
 31
0.0
  0
LINE
  5
DE
330
1D
100
AcDbEntity
  8
SK2
100
AcDbLine
 10
-39.842411041
 20
14.0
 30
0.0
 11
-25.5
 21
14.0
 31
0.0
  0
LINE
  5
DF
330
1D
100
AcDbEntity
  8
SK2
100
AcDbLine
 10
-37.842411041
 20
14.0
 30
0.0
 11
-37.392411041
 21
10.5
 31
0.0
  0
LINE
  5
E0
330
1D
100
AcDbEntity
  8
SK2
100
AcDbLine
 10
-37.392411041
 20
10.5
 30
0.0
 11
-38.292411041
 21
10.5
 31
0.0
  0
LINE
  5
E1
330
1D
100
AcDbEntity
  8
SK2
100
AcDbLine
 10
-38.292411041
 20
10.5
 30
0.0
 11
-37.842411041
 21
14.0
 31
0.0
  0
LINE
  5
E2
330
1D
100
AcDbEntity
  8
SK2
100
AcDbLine
 10
-37.842411041
 20
10.6
 30
0.0
 11
-37.842411041
 21
13.9
 31
0.0
  0
LINE
  5
E3
330
1D
100
AcDbEntity
  8
SK2
100
AcDbLine
 10
-38.042411041
 20
10.6
 30
0.0
 11
-38.042411041
 21
12.344444444
 31
0.0
  0
LINE
  5
E4
330
1D
100
AcDbEntity
  8
SK2
100
AcDbLine
 10
-37.642411041
 20
10.6
 30
0.0
 11
-37.642411041
 21
12.344444444
 31
0.0
  0
LINE
  5
E5
330
1D
100
AcDbEntity
  8
SK2
100
AcDbLine
 10
-38.242411041
 20
10.6
 30
0.0
 11
-38.242411041
 21
10.788888889
 31
0.0
  0
LINE
  5
E6
330
1D
100
AcDbEntity
  8
SK2
100
AcDbLine
 10
-37.442411041
 20
10.6
 30
0.0
 11
-37.442411041
 21
10.788888889
 31
0.0
  0
LINE
  5
E7
330
1D
100
AcDbEntity
  8
SK2
100
AcDbLine
 10
-37.842411041
 20
-10.5
 30
0.0
 11
-37.842411041
 21
10.5
 31
0.0
  0
TEXT
  5
E8
330
1D
100
AcDbEntity
  8
SK2
100
AcDbText
 10
-39.342411041
 20
0.085312187
 30
0.0
 40
3.5
  1
28
 50
90.0
  7
BMG_Text
100
AcDbText
  0
CIRCLE
  5
E9
330
1D
100
AcDbEntity
  8
SK2
100
AcDbCircle
 10
-40.592411041
 20
-2.164687813
 30
0.0
 40
1.25
  0
LINE
  5
EA
330
1D
100
AcDbEntity
  8
SK2
100
AcDbLine
 10
-39.342411041
 20
-3.414687813
 30
0.0
 11
-41.842411041
 21
-0.914687813
 31
0.0
  0
LINE
  5
EB
330
1D
100
AcDbEntity
  8
2
100
AcDbLine
 10
0.0
 20
-41.956149101
 30
0.0
 11
0.0
 21
-24.0
 31
0.0
  0
LINE
  5
EC
330
1D
100
AcDbEntity
  8
2
100
AcDbLine
 10
0.0
 20
-39.956149101
 30
0.0
 11
3.5
 21
-39.506149101
 31
0.0
  0
LINE
  5
ED
330
1D
100
AcDbEntity
  8
2
100
AcDbLine
 10
3.5
 20
-39.506149101
 30
0.0
 11
3.5
 21
-40.406149101
 31
0.0
  0
LINE
  5
EE
330
1D
100
AcDbEntity
  8
2
100
AcDbLine
 10
3.5
 20
-40.406149101
 30
0.0
 11
0.0
 21
-39.956149101
 31
0.0
  0
LINE
  5
EF
330
1D
100
AcDbEntity
  8
2
100
AcDbLine
 10
3.4
 20
-39.956149101
 30
0.0
 11
0.1
 21
-39.956149101
 31
0.0
  0
LINE
  5
F0
330
1D
100
AcDbEntity
  8
2
100
AcDbLine
 10
3.4
 20
-40.156149101
 30
0.0
 11
1.655555556
 21
-40.156149101
 31
0.0
  0
LINE
  5
F1
330
1D
100
AcDbEntity
  8
2
100
AcDbLine
 10
3.4
 20
-39.756149101
 30
0.0
 11
1.655555556
 21
-39.756149101
 31
0.0
  0
LINE
  5
F2
330
1D
100
AcDbEntity
  8
2
100
AcDbLine
 10
3.4
 20
-40.356149101
 30
0.0
 11
3.211111111
 21
-40.356149101
 31
0.0
  0
LINE
  5
F3
330
1D
100
AcDbEntity
  8
2
100
AcDbLine
 10
3.4
 20
-39.556149101
 30
0.0
 11
3.211111111
 21
-39.556149101
 31
0.0
  0
LINE
  5
F4
330
1D
100
AcDbEntity
  8
2
100
AcDbLine
 10
32.499994273
 20
-41.956149101
 30
0.0
 11
32.499994273
 21
-24.5
 31
0.0
  0
LINE
  5
F5
330
1D
100
AcDbEntity
  8
2
100
AcDbLine
 10
32.499994273
 20
-39.956149101
 30
0.0
 11
28.999994273
 21
-40.406149101
 31
0.0
  0
LINE
  5
F6
330
1D
100
AcDbEntity
  8
2
100
AcDbLine
 10
28.999994273
 20
-40.406149101
 30
0.0
 11
28.999994273
 21
-39.506149101
 31
0.0
  0
LINE
  5
F7
330
1D
100
AcDbEntity
  8
2
100
AcDbLine
 10
28.999994273
 20
-39.506149101
 30
0.0
 11
32.499994273
 21
-39.956149101
 31
0.0
  0
LINE
  5
F8
330
1D
100
AcDbEntity
  8
2
100
AcDbLine
 10
29.099994273
 20
-39.956149101
 30
0.0
 11
32.399994273
 21
-39.956149101
 31
0.0
  0
LINE
  5
F9
330
1D
100
AcDbEntity
  8
2
100
AcDbLine
 10
29.099994273
 20
-39.756149101
 30
0.0
 11
30.844438717
 21
-39.756149101
 31
0.0
  0
LINE
  5
FA
330
1D
100
AcDbEntity
  8
2
100
AcDbLine
 10
29.099994273
 20
-40.156149101
 30
0.0
 11
30.844438717
 21
-40.156149101
 31
0.0
  0
LINE
  5
FB
330
1D
100
AcDbEntity
  8
2
100
AcDbLine
 10
29.099994273
 20
-39.556149101
 30
0.0
 11
29.288883162
 21
-39.556149101
 31
0.0
  0
LINE
  5
FC
330
1D
100
AcDbEntity
  8
2
100
AcDbLine
 10
29.099994273
 20
-40.356149101
 30
0.0
 11
29.288883162
 21
-40.356149101
 31
0.0
  0
LINE
  5
FD
330
1D
100
AcDbEntity
  8
2
100
AcDbLine
 10
3.5
 20
-39.956149101
 30
0.0
 11
28.999994273
 21
-39.956149101
 31
0.0
  0
TEXT
  5
FE
330
1D
100
AcDbEntity
  8
2
100
AcDbText
 10
13.272809273
 20
-38.456149101
 30
0.0
 40
3.5
  1
32.5
  7
BMG_Text
100
AcDbText
  0
LINE
  5
FF
330
1D
100
AcDbEntity
  8
2
100
AcDbLine
 10
72.157588958
 20
-26.5
 30
0.0
 11
56.200008392
 21
-26.5
 31
0.0
  0
LINE
  5
100
330
1D
100
AcDbEntity
  8
2
100
AcDbLine
 10
70.157588958
 20
-26.5
 30
0.0
 11
69.707588958
 21
-23.0
 31
0.0
  0
LINE
  5
101
330
1D
100
AcDbEntity
  8
2
100
AcDbLine
 10
69.707588958
 20
-23.0
 30
0.0
 11
70.607588958
 21
-23.0
 31
0.0
  0
LINE
  5
102
330
1D
100
AcDbEntity
  8
2
100
AcDbLine
 10
70.607588958
 20
-23.0
 30
0.0
 11
70.157588958
 21
-26.5
 31
0.0
  0
LINE
  5
103
330
1D
100
AcDbEntity
  8
2
100
AcDbLine
 10
70.157588958
 20
-23.1
 30
0.0
 11
70.157588958
 21
-26.4
 31
0.0
  0
LINE
  5
104
330
1D
100
AcDbEntity
  8
2
100
AcDbLine
 10
70.357588958
 20
-23.1
 30
0.0
 11
70.357588958
 21
-24.844444444
 31
0.0
  0
LINE
  5
105
330
1D
100
AcDbEntity
  8
2
100
AcDbLine
 10
69.957588958
 20
-23.1
 30
0.0
 11
69.957588958
 21
-24.844444444
 31
0.0
  0
LINE
  5
106
330
1D
100
AcDbEntity
  8
2
100
AcDbLine
 10
70.557588958
 20
-23.1
 30
0.0
 11
70.557588958
 21
-23.288888889
 31
0.0
  0
LINE
  5
107
330
1D
100
AcDbEntity
  8
2
100
AcDbLine
 10
69.757588958
 20
-23.1
 30
0.0
 11
69.757588958
 21
-23.288888889
 31
0.0
  0
LINE
  5
108
330
1D
100
AcDbEntity
  8
2
100
AcDbLine
 10
72.157588958
 20
26.5
 30
0.0
 11
56.200008392
 21
26.5
 31
0.0
  0
LINE
  5
109
330
1D
100
AcDbEntity
  8
2
100
AcDbLine
 10
70.157588958
 20
26.5
 30
0.0
 11
70.607588958
 21
23.0
 31
0.0
  0
LINE
  5
10A
330
1D
100
AcDbEntity
  8
2
100
AcDbLine
 10
70.607588958
 20
23.0
 30
0.0
 11
69.707588958
 21
23.0
 31
0.0
  0
LINE
  5
10B
330
1D
100
AcDbEntity
  8
2
100
AcDbLine
 10
69.707588958
 20
23.0
 30
0.0
 11
70.157588958
 21
26.5
 31
0.0
  0
LINE
  5
10C
330
1D
100
AcDbEntity
  8
2
100
AcDbLine
 10
70.157588958
 20
23.1
 30
0.0
 11
70.157588958
 21
26.4
 31
0.0
  0
LINE
  5
10D
330
1D
100
AcDbEntity
  8
2
100
AcDbLine
 10
69.957588958
 20
23.1
 30
0.0
 11
69.957588958
 21
24.844444444
 31
0.0
  0
LINE
  5
10E
330
1D
100
AcDbEntity
  8
2
100
AcDbLine
 10
70.357588958
 20
23.1
 30
0.0
 11
70.357588958
 21
24.844444444
 31
0.0
  0
LINE
  5
10F
330
1D
100
AcDbEntity
  8
2
100
AcDbLine
 10
69.757588958
 20
23.1
 30
0.0
 11
69.757588958
 21
23.288888889
 31
0.0
  0
LINE
  5
110
330
1D
100
AcDbEntity
  8
2
100
AcDbLine
 10
70.557588958
 20
23.1
 30
0.0
 11
70.557588958
 21
23.288888889
 31
0.0
  0
LINE
  5
111
330
1D
100
AcDbEntity
  8
2
100
AcDbLine
 10
70.157588958
 20
-23.0
 30
0.0
 11
70.157588958
 21
23.0
 31
0.0
  0
CIRCLE
  5
112
330
1D
100
AcDbEntity
  8
2
100
AcDbCircle
 10
67.407588958
 20
-5.117813092
 30
0.0
 40
1.25
  0
LINE
  5
113
330
1D
100
AcDbEntity
  8
2
100
AcDbLine
 10
68.657588958
 20
-6.367813092
 30
0.0
 11
66.157588958
 21
-3.867813092
 31
0.0
  0
TEXT
  5
114
330
1D
100
AcDbEntity
  8
2
100
AcDbText
 10
68.657588958
 20
-2.867813092
 30
0.0
 40
3.5
  1
53-70
 50
90.0
  7
BMG_Text
100
AcDbText
  0
TEXT
  5
115
330
1D
100
AcDbEntity
  8
SK6
100
AcDbText
 10
-34.06195648312586
 20
-35.50472922666314
 30
0.0
 40
3.5
  1
315.501
  7
BMG_Text
100
AcDbText
  0
LINE
  5
1B4
330
1D
100
AcDbEntity
  8
1
100
AcDbLine
 10
48.283364763
 20
12.218135037
 30
0.0
 11
56.33892445420694
 21
13.64094954729005
 31
0.0
  0
LINE
  5
1B5
330
1D
100
AcDbEntity
  8
1
100
AcDbLine
 10
56.33892445420694
 20
13.64094954729005
 30
0.0
 11
56.709996185
 21
13.64094954729005
 31
0.0
  0
LINE
  5
1B6
330
1D
100
AcDbEntity
  8
1
100
AcDbLine
 10
44.299983978
 20
15.560638895
 30
0.0
 11
44.299983978
 21
23.74482406456983
 31
0.0
  0
LINE
  5
1B7
330
1D
100
AcDbEntity
  8
1
100
AcDbLine
 10
44.299983978
 20
23.74482406456983
 30
0.0
 11
44.375972748
 21
24.499740597
 31
0.0
  0
LINE
  5
1BF
330
1D
100
AcDbEntity
  8
1
100
AcDbLine
 10
45.23888585004349
 20
11.6837002405694
 30
0.0
 11
56.33892445420694
 21
13.64094954729005
 31
0.0
  0
LINE
  5
1C0
330
1D
100
AcDbEntity
  8
1
100
AcDbLine
 10
44.299972674
 20
12.471546313
 30
0.0
 11
44.299983978
 21
23.74482406456983
 31
0.0
  0
LINE
  5
1C5
330
1D
100
AcDbEntity
  8
3
100
AcDbLine
 10
56.33892445420694
 20
13.64094954729005
 30
0.0
 11
56.200008392
 21
14.428791186
 31
0.0
  0
LINE
  5
1C6
330
1D
100
AcDbEntity
  8
3
100
AcDbLine
 10
56.200008392
 20
14.428791186
 30
0.0
 11
56.200008392
 21
25.700000903
 31
0.0
  0
LINE
  5
1C7
330
1D
100
AcDbEntity
  8
3
100
AcDbLine
 10
56.200008392
 20
25.700000903
 30
0.0
 11
45.099971771
 21
23.74275603
 31
0.0
  0
LINE
  5
1C8
330
1D
100
AcDbEntity
  8
3
100
AcDbLine
 10
45.099971771
 20
23.74275603
 30
0.0
 11
44.485072775
 21
24.252131139
 31
0.0
  0
LINE
  5
1EA
330
1D
100
AcDbEntity
  8
NOCUT
100
AcDbLine
 10
0.0
 20
0.0
 30
0.0
 11
0.0
 21
24.0
 31
0.0
  0
LINE
  5
1EB
330
1D
100
AcDbEntity
  8
NOCUT
100
AcDbLine
 10
0.0
 20
24.0
 30
0.0
 11
0.5
 21
24.5
 31
0.0
  0
LINE
  5
1EC
330
1D
100
AcDbEntity
  8
NOCUT
100
AcDbLine
 10
0.5
 20
24.5
 30
0.0
 11
44.37379738263549
 21
24.5
 31
0.0
  0
LINE
  5
1ED
330
1D
100
AcDbEntity
  8
NOCUT
100
AcDbLine
 10
44.37379738263549
 20
24.5
 30
0.0
 11
44.48438619158072
 21
24.25368938378687
 31
0.0
  0
LINE
  5
1F5
330
1D
100
AcDbEntity
  8
NOCUT
100
AcDbLine
 10
56.709996185
 20
7.232050516
 30
0.0
 11
55.709996185
 21
5.499999709
 31
0.0
  0
LINE
  5
1F6
330
1D
100
AcDbEntity
  8
NOCUT
100
AcDbLine
 10
55.709996185
 20
5.499999709
 30
0.0
 11
50.209998063
 21
0.0
 31
0.0
  0
LINE
  5
1F7
330
1D
100
AcDbEntity
  8
NOCUT
100
AcDbLine
 10
50.209998063
 20
0.0
 30
0.0
 11
0.0
 21
0.0
 31
0.0
  0
LWPOLYLINE
  5
1F9
330
1D
100
AcDbEntity
  8
INFTOTAL
100
AcDbPolyline
 90
        4
 70
     1
 43
0.0
 10
96.05664387479688
 20
49.95442207561481
 10
96.05664387479688
 20
-55.26066659846532
 10
-74.2975367516435
 20
-55.26066659846532
 10
-74.2975367516435
 20
49.95442207561481
  0
LINE
  5
1FC
330
1D
100
AcDbEntity
  8
SK4
100
AcDbLine
 10
-32.88968545
 20
0.0
 30
0.0
 11
57.12368738219921
 21
0.0
 31
0.0
  0
LINE
  5
1FD
330
1D
100
AcDbEntity
  8
SK4
100
AcDbLine
 10
12.812058741
 20
17.08814667
 30
0.0
 11
-1.025649589
 21
0.0
 31
0.0
  0
LINE
  5
1FE
330
1D
100
AcDbEntity
  8
SK4
100
AcDbLine
 10
-1.025649589
 20
0.0
 30
0.0
 11
12.812058741
 21
-17.08814667
 31
0.0
  0
LINE
  5
201
330
1D
100
AcDbEntity
  8
SK3
100
AcDbLine
 10
0.0
 20
5.384042683958846
 30
0.0
 11
-0.499998097
 21
6.250061035
 31
0.0
  0
LINE
  5
202
330
1D
100
AcDbEntity
  8
SK3
100
AcDbLine
 10
-0.499998097
 20
-6.249938965
 30
0.0
 11
0.0000000000000001
 21
-5.383937528171287
 31
0.0
  0
LINE
  5
215
330
1D
100
AcDbEntity
  8
NOCUT
100
AcDbLine
 10
56.709996185
 20
7.232050516
 30
0.0
 11
56.709996185
 21
13.64094954729005
 31
0.0
  0
LINE
  5
216
330
1D
100
AcDbEntity
  8
NOCUT
100
AcDbLine
 10
56.709996185
 20
13.64094954729005
 30
0.0
 11
56.33892445420694
 21
13.64094954729005
 31
0.0
  0
LINE
  5
217
330
1D
100
AcDbEntity
  8
NOCUT
100
AcDbLine
 10
56.33892445420694
 20
13.64094954729005
 30
0.0
 11
56.200008392
 21
14.428791186
 31
0.0
  0
LINE
  5
218
330
1D
100
AcDbEntity
  8
NOCUT
100
AcDbLine
 10
56.200008392
 20
14.428791186
 30
0.0
 11
56.200008392
 21
25.700000903
 31
0.0
  0
LINE
  5
219
330
1D
100
AcDbEntity
  8
NOCUT
100
AcDbLine
 10
56.200008392
 20
25.700000903
 30
0.0
 11
45.099971771
 21
23.74275603
 31
0.0
  0
LINE
  5
21A
330
1D
100
AcDbEntity
  8
NOCUT
100
AcDbLine
 10
45.099971771
 20
23.74275603
 30
0.0
 11
44.48438619158072
 21
24.25368938378687
 31
0.0
  0
LINE
  5
261
330
1D
100
AcDbEntity
  8
SK1
100
AcDbLine
 10
0.0000018512297556
 20
-13.89999147046927
 30
0.0
 11
0.0000018512297557
 21
13.89999147046927
 31
0.0
  0
LINE
  5
278
330
1D
100
AcDbEntity
  8
SK4
100
AcDbLine
 10
12.812058741
 20
17.08814667
 30
0.0
 11
22.417063449
 21
21.365460978
 31
0.0
  0
LINE
  5
279
330
1D
100
AcDbEntity
  8
SK4
100
AcDbLine
 10
22.417063449
 20
-21.365460977
 30
0.0
 11
12.812058741
 21
-17.08814667
 31
0.0
  0
LINE
  5
282
330
1D
100
AcDbEntity
  8
SK4
100
AcDbLine
 10
53.61744171328242
 20
22.60801687603058
 30
0.0
 11
47.68250793271712
 21
15.54349982196959
 31
0.0
  0
LINE
  5
283
330
1D
100
AcDbEntity
  8
SK4
100
AcDbLine
 10
47.11771629596927
 20
22.04322523928273
 30
0.0
 11
54.18223335003044
 21
16.10829145871728
 31
0.0
  0
LINE
  5
285
330
1D
100
AcDbEntity
  8
4
100
AcDbLine
 10
53.61744171328242
 20
22.60801687603058
 30
0.0
 11
47.68250793271712
 21
15.54349982196959
 31
0.0
  0
LINE
  5
286
330
1D
100
AcDbEntity
  8
4
100
AcDbLine
 10
47.11771629596927
 20
22.04322523928273
 30
0.0
 11
54.18223335003044
 21
16.10829145871728
 31
0.0
  0
LINE
  5
29E
330
1D
100
AcDbEntity
  8
1
100
AcDbLine
 10
57.00000346685448
 20
-14.42877592707124
 30
0.0
 11
57.000007489
 21
-25.70000094751283
 31
0.0
  0
ARC
  5
29F
330
1D
100
AcDbEntity
  8
1
100
AcDbCircle
 10
56.200008392
 20
-14.428791186
 30
0.0
 40
0.799995075
100
AcDbArc
 50
0.0010928470001149
 51
53.45375009800034
  0
ARC
  5
2A0
330
1D
100
AcDbEntity
  8
1
100
AcDbCircle
 10
56.200008392
 20
-25.700000903
 30
0.0
 40
0.799999097
100
AcDbArc
 50
259.998350552
 51
359.9999968119997
  0
LINE
  5
2A1
330
1D
100
AcDbEntity
  8
1
100
AcDbLine
 10
56.06106732600233
 20
-26.48784221657796
 30
0.0
 11
44.96104299321929
 21
-24.53059947403266
 31
0.0
  0
ARC
  5
2A2
330
1D
100
AcDbEntity
  8
1
100
AcDbCircle
 10
45.099971771
 20
-23.74275603
 30
0.0
 40
0.799999061
100
AcDbArc
 50
219.692525619
 51
259.9992437570002
  0
LINE
  5
2A3
330
1D
100
AcDbEntity
  8
1
100
AcDbLine
 10
44.48438619162791
 20
-24.25368938384372
 30
0.0
 11
44.560165012
 21
-24.08170452699999
 31
0.0
  0
LINE
  5
2A4
330
1D
100
AcDbEntity
  8
1
100
AcDbLine
 10
44.560165012
 20
-24.08170452699999
 30
0.0
 11
47.039583255
 21
-24.081730363
 31
0.0
  0
LINE
  5
2A5
330
1D
100
AcDbEntity
  8
1
100
AcDbLine
 10
47.039583255
 20
-24.081730363
 30
0.0
 11
55.25806808432445
 21
-25.53087233619766
 31
0.0
  0
ARC
  5
2A6
330
1D
100
AcDbEntity
  8
1
100
AcDbCircle
 10
55.3969841
 20
-24.743030539
 30
0.0
 40
0.7999952229999994
100
AcDbArc
 50
260.0001234099996
 51
0.0
  0
LINE
  5
2A7
330
1D
100
AcDbEntity
  8
1
100
AcDbLine
 10
56.19697932299999
 20
-24.743030539
 30
0.0
 11
56.19698715200001
 21
-13.864318845
 31
0.0
  0
LINE
  5
2A8
330
1D
100
AcDbEntity
  8
1
100
AcDbLine
 10
56.19698715200001
 20
-13.864318845
 30
0.0
 11
56.67638264062531
 21
-13.78609398259008
 31
0.0
  0
ARC
  5
2A9
330
1D
100
AcDbEntity
  8
CUT
100
AcDbCircle
 10
45.099971771
 20
12.471546313
 30
0.0
 40
0.799999097
100
AcDbArc
 50
180.0
 51
279.9996868270002
  0
LINE
  5
2AA
330
1D
100
AcDbEntity
  8
CUT
100
AcDbLine
 10
57.00000346685448
 20
14.42877592707124
 30
0.0
 11
57.000007489
 21
25.70000094751283
 31
0.0
  0
ARC
  5
2AB
330
1D
100
AcDbEntity
  8
CUT
100
AcDbCircle
 10
56.200008392
 20
14.428791186
 30
0.0
 40
0.799995075
100
AcDbArc
 50
279.9998818429995
 51
359.998907153
  0
ARC
  5
2AC
330
1D
100
AcDbEntity
  8
CUT
100
AcDbCircle
 10
56.200008392
 20
25.700000903
 30
0.0
 40
0.799999097
100
AcDbArc
 50
0.0000031880000145
 51
100.001649448
  0
LINE
  5
2AD
330
1D
100
AcDbEntity
  8
CUT
100
AcDbLine
 10
56.06106732600233
 20
26.48784221657796
 30
0.0
 11
44.96104299321929
 21
24.53059947403266
 31
0.0
  0
ARC
  5
2AE
330
1D
100
AcDbEntity
  8
CUT
100
AcDbCircle
 10
45.099971771
 20
23.74275603
 30
0.0
 40
0.799999061
100
AcDbArc
 50
100.0007562429998
 51
180.0
  0
LINE
  5
2AF
330
1D
100
AcDbEntity
  8
CUT
100
AcDbLine
 10
45.23888585004349
 20
11.6837002405694
 30
0.0
 11
56.33892445420693
 21
13.64094954729005
 31
0.0
  0
LINE
  5
2B0
330
1D
100
AcDbEntity
  8
CUT
100
AcDbLine
 10
44.299972674
 20
12.471546313
 30
0.0
 11
44.29997271000001
 21
23.74275603
 31
0.0
  0
CIRCLE
  5
2B1
330
1D
100
AcDbEntity
  8
1
100
AcDbCircle
 10
50.64997482300001
 20
19.075758349
 30
0.0
 40
3.5
  0
HATCH
  5
2F5
330
1D
100
AcDbEntity
  8
7
100
AcDbHatch
 10
0.0
 20
0.0
 30
0.0
210
0.0
220
0.0
230
1.0
  2
ANSI37
 70
     0
 71
     0
 91
        2
 92
        7
 72
     1
 73
     1
 93
        8
 10
45.23888585008797
 20
11.68370024057725
 42
0.0
 10
56.33892613456459
 20
13.64094984358442
 42
0.3639648141759915
 10
57.00000346685448
 20
14.42877592717273
 42
0.0
 10
57.00000748899991
 20
25.70000072751741
 42
0.4663164869824411
 10
56.06106732598147
 20
26.48784221657428
 42
0.0
 10
44.96104299322101
 20
24.53059947403296
 42
0.3639664968060287
 10
44.29997271000001
 20
23.74275603170347
 42
0.0
 10
44.299972674
 20
12.471546313
 42
0.4663059945680608
 97
        0
 92
       22
 72
     1
 73
     1
 93
        2
 10
47.14997482300001
 20
19.075758349
 42
-1.0
 10
54.14997482300001
 20
19.075758349
 42
-1.0
 97
        0
 75
     0
 76
     1
 52
90.0
 41
5.0
 77
     0
 78
     2
 53
135.0
 43
-34.55076320030187
 44
25.7823249103264
 45
-0.4419417382415922
 46
-0.4419417382415922
 79
     0
 53
225.0
 43
-34.55076320030187
 44
25.7823249103264
 45
0.4419417382415922
 46
-0.4419417382415923
 79
     0
 47
0.0
 98
        2
 10
54.29620189149159
 20
13.45003979956491
 10
54.29620189149159
 20
13.45003979956491
1001
ACAD
1010
0.0
1020
0.0
1030
0.0
1001
PE_URL
1000

  0
HATCH
  5
2FC
330
1D
100
AcDbEntity
  8
7
100
AcDbHatch
 10
0.0
 20
0.0
 30
0.0
210
0.0
220
0.0
230
1.0
  2
ANSI37
 70
     0
 71
     0
 91
        1
 92
        7
 72
     1
 73
     1
 93
       11
 10
57.00000748899991
 20
-25.70000072751739
 42
0.0
 10
57.00000346685448
 20
-14.42877592718757
 42
0.237554315930104
 10
56.67638264062531
 20
-13.78609398259008
 42
0.0
 10
56.19698715200001
 20
-13.864318845
 42
0.0
 10
56.19697932299972
 20
-24.74303092281767
 42
-0.4663073261089025
 10
55.25806686890752
 20
-25.53087212188666
 42
0.0
 10
47.03958325499998
 20
-24.081730363
 42
0.0
 10
44.560165012
 20
-24.08170452699999
 42
0.0
 10
44.48438619162791
 20
-24.25368938384372
 42
0.1777072272657203
 10
44.96104299320783
 20
-24.53059947403064
 42
0.0
 10
56.06106732610054
 20
-26.48784221659528
 42
0.4663164869364587
 97
        0
 75
     0
 76
     1
 52
90.0
 41
5.0
 77
     0
 78
     2
 53
135.0
 43
-19.29915305241981
 44
13.87444543080552
 45
-0.4419417382415922
 46
-0.4419417382415922
 79
     0
 53
225.0
 43
-19.29915305241981
 44
13.87444543080552
 45
0.4419417382415922
 46
-0.4419417382415923
 79
     0
 47
0.0
 98
        1
 10
56.20768615507902
 20
-22.89792442988078
1001
ACAD
1010
0.0
1020
0.0
1030
0.0
1001
PE_URL
1000

  0
LINE
  5
2FF
330
1D
100
AcDbEntity
  8
CUT
100
AcDbLine
 10
57.00000346685448
 20
-14.42877592707124
 30
0.0
 11
57.000007489
 21
-25.70000094751283
 31
0.0
  0
LINE
  5
300
330
1D
100
AcDbEntity
  8
CUT
100
AcDbLine
 10
56.06106732600233
 20
-26.48784221657796
 30
0.0
 11
44.96104299321929
 21
-24.53059947403266
 31
0.0
  0
ARC
  5
302
330
1D
100
AcDbEntity
  8
CUT
100
AcDbCircle
 10
45.099971771
 20
-23.74275603
 30
0.0
 40
0.7999990609999958
100
AcDbArc
 50
219.692525619
 51
259.9992437570002
  0
ARC
  5
304
330
1D
100
AcDbEntity
  8
CUT
100
AcDbCircle
 10
56.200008392
 20
-25.700000903
 30
0.0
 40
0.7999990969999997
100
AcDbArc
 50
259.998350552
 51
359.9999968119997
  0
ARC
  5
305
330
1D
100
AcDbEntity
  8
CUT
100
AcDbCircle
 10
56.200008392
 20
-14.428791186
 30
0.0
 40
0.799995075
100
AcDbArc
 50
0.0010928470001149
 51
53.45375009800034
  0
ENDSEC
  0
SECTION
  2
OBJECTS
  0
DICTIONARY
  5
C
330
0
100
AcDbDictionary
281
     1
  3
ACAD_COLOR
350
2C0
  3
ACAD_DETAILVIEWSTYLE
350
1BC
  3
ACAD_GROUP
350
D
  3
ACAD_LAYOUT
350
1A
  3
ACAD_MATERIAL
350
154
  3
ACAD_MLEADERSTYLE
350
162
  3
ACAD_MLINESTYLE
350
17
  3
ACAD_PLOTSETTINGS
350
19
  3
ACAD_PLOTSTYLENAME
350
E
  3
ACAD_SCALELIST
350
11D
  3
ACAD_SECTIONVIEWSTYLE
350
1BD
  3
ACAD_TABLESTYLE
350
1AB
  3
ACAD_VISUALSTYLE
350
143
  3
ACDB_RECOMPOSE_DATA
350
313
  3
AcDbVariableDictionary
350
160
  3
APPDATA
350
1AE
  0
SUN
  5
1FA
330
116
100
AcDbSun
 90
        1
290
     0
 63
     7
421
 16777215
 40
1.0
291
     1
 91
  2455826
 92
 54000000
292
     0
 70
     2
 71
   256
280
     1
  0
DICTIONARY
  5
1AF
330
2
100
AcDbDictionary
280
     1
281
     1
  3
ACAD_LAYERSTATES
360
1B0
  3
ACLYDICTIONARY
360
259
  0
DICTIONARY
  5
2E5
330
1D
100
AcDbDictionary
280
     1
281
     1
  3
ACAD_SORTENTS
360
2E6
  0
DICTIONARY
  5
2C0
102
{ACAD_REACTORS
330
C
102
}
330
C
100
AcDbDictionary
281
     1
  0
DICTIONARY
  5
1BC
102
{ACAD_REACTORS
330
C
102
}
330
C
100
AcDbDictionary
281
     1
  0
DICTIONARY
  5
D
102
{ACAD_REACTORS
330
C
102
}
330
C
100
AcDbDictionary
281
     1
  0
DICTIONARY
  5
1A
102
{ACAD_REACTORS
330
C
102
}
330
C
100
AcDbDictionary
281
     1
  3
Layout1
350
1C
  3
Model
350
1E
  0
DICTIONARY
  5
154
102
{ACAD_REACTORS
330
C
102
}
330
C
100
AcDbDictionary
281
     1
  3
ByBlock
350
156
  3
ByLayer
350
155
  3
Global
350
157
  0
DICTIONARY
  5
162
102
{ACAD_REACTORS
330
C
102
}
330
C
100
AcDbDictionary
281
     1
  3
Standard
350
1AD
  0
DICTIONARY
  5
17
102
{ACAD_REACTORS
330
C
102
}
330
C
100
AcDbDictionary
281
     1
  3
Standard
350
18
  0
DICTIONARY
  5
19
102
{ACAD_REACTORS
330
C
102
}
330
C
100
AcDbDictionary
281
     1
  0
ACDBDICTIONARYWDFLT
  5
E
102
{ACAD_REACTORS
330
C
102
}
330
C
100
AcDbDictionary
281
     1
  3
Normal
350
F
100
AcDbDictionaryWithDefault
340
F
  0
DICTIONARY
  5
11D
102
{ACAD_REACTORS
330
C
102
}
330
C
100
AcDbDictionary
281
     1
  3
A0
350
11E
  3
A1
350
11F
  3
A2
350
120
  3
A3
350
121
  3
A4
350
122
  3
A5
350
123
  3
A6
350
124
  3
A7
350
125
  3
A8
350
126
  3
A9
350
127
  3
B0
350
128
  3
B1
350
129
  3
B2
350
12A
  3
B3
350
12B
  3
B4
350
12C
  3
B5
350
12D
  3
B6
350
12E
  3
B7
350
12F
  3
B8
350
130
  3
B9
350
131
  3
C0
350
132
  3
C1
350
133
  3
C2
350
134
  3
C3
350
135
  3
C4
350
136
  3
C5
350
137
  3
C6
350
138
  3
C7
350
139
  3
C8
350
13A
  3
C9
350
13B
  3
D0
350
13C
  3
D1
350
13D
  3
D2
350
13E
  0
DICTIONARY
  5
1BD
102
{ACAD_REACTORS
330
C
102
}
330
C
100
AcDbDictionary
281
     1
  0
DICTIONARY
  5
1AB
102
{ACAD_REACTORS
330
C
102
}
330
C
100
AcDbDictionary
281
     1
  3
Standard
350
1AC
  0
DICTIONARY
  5
143
102
{ACAD_REACTORS
330
C
102
}
330
C
100
AcDbDictionary
281
     1
  3
2dWireframe
350
148
  3
3D Hidden
350
14A
  3
3dWireframe
350
149
  3
Basic
350
14B
  3
Brighten
350
14F
  3
ColorChange
350
153
  3
Conceptual
350
14D
  3
Dim
350
14E
  3
EdgeColorOff
350
1A5
  3
Facepattern
350
152
  3
Flat
350
144
  3
FlatWithEdges
350
145
  3
Gouraud
350
146
  3
GouraudWithEdges
350
147
  3
Hidden
350
1A2
  3
JitterOff
350
1A3
  3
Linepattern
350
151
  3
OverhangOff
350
1A4
  3
Realistic
350
14C
  3
Shaded
350
1AA
  3
Shaded with edges
350
1A9
  3
Shades of Gray
350
1A6
  3
Sketchy
350
1A7
  3
Thicken
350
150
  3
Wireframe
350
1A1
  3
X-Ray
350
1A8
  0
XRECORD
  5
313
102
{ACAD_REACTORS
330
C
102
}
330
C
100
AcDbXrecord
280
     1
 90
        1
330
1AC
  0
DICTIONARY
  5
160
102
{ACAD_REACTORS
330
C
102
}
330
C
100
AcDbDictionary
281
     1
  3
CANNOSCALE
350
1B9
  3
CMLEADERSTYLE
350
1BB
  3
CTABLESTYLE
350
1BA
  3
DIMASSOC
350
164
  3
HIDETEXT
350
165
  3
MSLTSCALE
350
163
  0
DICTIONARY
  5
1AE
102
{ACAD_REACTORS
330
C
102
}
330
C
100
AcDbDictionary
281
     1
  0
DICTIONARY
  5
1B0
102
{ACAD_REACTORS
330
1AF
102
}
330
1AF
100
AcDbDictionary
281
     1
  0
DICTIONARY
  5
259
102
{ACAD_REACTORS
330
1AF
102
}
330
1AF
100
AcDbDictionary
281
     1
1001
ACAD
1000
<All
  0
SORTENTSTABLE
  5
2E6
102
{ACAD_REACTORS
330
2E5
102
}
330
2E5
100
AcDbSortentsTable
330
1D
331
36
  5
3D
331
37
  5
3E
331
38
  5
3F
331
39
  5
40
331
3A
  5
41
331
3B
  5
42
331
3C
  5
43
331
3D
  5
44
331
3E
  5
45
331
3F
  5
46
331
40
  5
47
331
41
  5
48
331
42
  5
49
331
43
  5
4B
331
44
  5
4D
331
45
  5
4E
331
46
  5
4F
331
47
  5
50
331
48
  5
51
331
49
  5
52
331
4B
  5
53
331
4C
  5
54
331
4D
  5
55
331
4E
  5
56
331
4F
  5
57
331
50
  5
58
331
51
  5
59
331
52
  5
5A
331
53
  5
5B
331
54
  5
5C
331
55
  5
5D
331
56
  5
5E
331
57
  5
5F
331
58
  5
60
331
59
  5
61
331
5A
  5
62
331
5B
  5
63
331
5C
  5
64
331
5D
  5
65
331
5E
  5
67
331
5F
  5
68
331
60
  5
69
331
61
  5
6A
331
62
  5
6B
331
63
  5
6C
331
64
  5
6D
331
65
  5
6E
331
67
  5
6F
331
68
  5
70
331
69
  5
71
331
6A
  5
72
331
6B
  5
73
331
6C
  5
74
331
6D
  5
75
331
6E
  5
76
331
6F
  5
77
331
70
  5
78
331
71
  5
79
331
72
  5
7A
331
73
  5
7B
331
74
  5
7C
331
75
  5
7D
331
76
  5
7E
331
77
  5
7F
331
78
  5
80
331
79
  5
82
331
7A
  5
84
331
7B
  5
85
331
7C
  5
86
331
7D
  5
87
331
7E
  5
88
331
7F
  5
8B
331
80
  5
8C
331
82
  5
8D
331
84
  5
8E
331
85
  5
8F
331
86
  5
90
331
87
  5
91
331
0
  5
92
331
8B
  5
93
331
8C
  5
94
331
8D
  5
95
331
8E
  5
96
331
8F
  5
97
331
90
  5
98
331
91
  5
99
331
92
  5
9A
331
93
  5
9B
331
94
  5
9C
331
95
  5
9D
331
96
  5
9E
331
97
  5
9F
331
98
  5
A0
331
0
  5
A1
331
0
  5
A2
331
0
  5
A3
331
0
  5
A4
331
0
  5
A5
331
9E
  5
A6
331
9F
  5
A7
331
A0
  5
A8
331
A1
  5
A9
331
A2
  5
AA
331
A3
  5
AB
331
A4
  5
AC
331
A5
  5
AD
331
A6
  5
AE
331
A7
  5
AF
331
A8
  5
B0
331
A9
  5
B1
331
AA
  5
B2
331
AB
  5
B3
331
AC
  5
B4
331
AD
  5
B5
331
AE
  5
B6
331
AF
  5
B7
331
B0
  5
B8
331
B1
  5
B9
331
B2
  5
BA
331
B3
  5
BB
331
B4
  5
BC
331
B5
  5
BD
331
B6
  5
BE
331
B7
  5
BF
331
B8
  5
C0
331
B9
  5
C1
331
BA
  5
C2
331
BB
  5
C3
331
BC
  5
C4
331
BD
  5
C5
331
BE
  5
C6
331
BF
  5
C7
331
C0
  5
C8
331
C1
  5
C9
331
C2
  5
CA
331
C3
  5
CB
331
C4
  5
CC
331
C5
  5
CD
331
C6
  5
CE
331
C7
  5
CF
331
C8
  5
D0
331
C9
  5
D1
331
CA
  5
D2
331
CB
  5
D3
331
CC
  5
D4
331
CD
  5
D5
331
CE
  5
D6
331
CF
  5
D7
331
D0
  5
D8
331
D1
  5
D9
331
D2
  5
DA
331
D3
  5
DB
331
D4
  5
DC
331
D5
  5
DD
331
D6
  5
DE
331
D7
  5
DF
331
D8
  5
E0
331
D9
  5
E1
331
DA
  5
E2
331
DB
  5
E3
331
DC
  5
E4
331
DD
  5
E5
331
DE
  5
E6
331
DF
  5
E7
331
E0
  5
E8
331
E1
  5
E9
331
E2
  5
EA
331
E3
  5
EB
331
E4
  5
EC
331
E5
  5
ED
331
E6
  5
EE
331
E7
  5
EF
331
E8
  5
F0
331
E9
  5
F1
331
EA
  5
F2
331
EB
  5
F3
331
EC
  5
F4
331
ED
  5
F5
331
EE
  5
F6
331
EF
  5
F7
331
F0
  5
F8
331
F1
  5
F9
331
F2
  5
FA
331
F3
  5
FB
331
F4
  5
FC
331
F5
  5
FD
331
F6
  5
FE
331
F7
  5
FF
331
F8
  5
100
331
F9
  5
101
331
FA
  5
102
331
FB
  5
103
331
FC
  5
104
331
FD
  5
105
331
FE
  5
106
331
FF
  5
107
331
100
  5
109
331
101
  5
10A
331
102
  5
10B
331
103
  5
10C
331
104
  5
10D
331
105
  5
10E
331
106
  5
10F
331
107
  5
110
331
108
  5
111
331
109
  5
112
331
10A
  5
113
331
10B
  5
114
331
10C
  5
115
331
10D
  5
1B4
331
10E
  5
1B5
331
10F
  5
1B6
331
110
  5
1B7
331
111
  5
1BF
331
112
  5
1C0
331
113
  5
1C1
331
114
  5
1C5
331
115
  5
1C6
331
1B4
  5
1C7
331
1B5
  5
1C8
331
1B6
  5
1EA
331
1B7
  5
1EB
331
1BF
  5
1EC
331
1C0
  5
1ED
331
0
  5
1F5
331
1C5
  5
1F6
331
1C6
  5
1F7
331
1C7
  5
1F9
331
1C8
  5
1FC
331
1EA
  5
1FD
331
1EB
  5
1FE
331
1EC
  5
201
331
1ED
  5
202
331
1F5
  5
215
331
1F6
  5
216
331
1F7
  5
217
331
1F9
  5
218
331
1FC
  5
219
331
1FD
  5
21A
331
1FE
  5
261
331
201
  5
271
331
202
  5
272
331
215
  5
278
331
216
  5
279
331
217
  5
282
331
218
  5
283
331
219
  5
285
331
21A
  5
286
331
261
  5
290
331
0
  5
291
331
0
  5
292
331
278
  5
293
331
279
  5
294
331
282
  5
295
331
283
  5
29E
331
285
  5
29F
331
286
  5
2A0
331
0
  5
2A1
331
0
  5
2A2
331
0
  5
2A3
331
0
  5
2A4
331
0
  5
2A5
331
0
  5
2A6
331
29E
  5
2B1
331
29F
  5
2CA
331
2A0
  5
2CB
331
2A1
  5
2E2
331
2A2
  5
2E3
331
2A3
  5
2E4
331
2A4
  5
2E7
331
2A5
  5
2E8
331
2A6
  5
2E9
331
2A7
  5
2EA
331
2A8
  5
2EB
331
2A9
  5
2F0
331
2AA
  5
2F1
331
2AB
  5
2F2
331
2AC
  5
2F3
331
2AD
  5
2F4
331
2AE
  5
2F5
331
2AF
  5
2F6
331
2B0
  5
2F7
331
2B1
  5
2F8
331
0
  5
2F9
331
0
  5
2FA
331
0
  5
2FB
331
0
  5
2FC
331
0
  5
36
331
0
  5
2EC
331
0
  5
37
331
0
  5
2ED
331
0
  5
38
331
0
  5
2A7
331
0
  5
4C
331
0
  5
2A8
331
0
  5
2A9
331
0
  5
2AA
331
0
  5
39
331
0
  5
2AB
331
0
  5
2AC
331
0
  5
3A
331
0
  5
2EE
331
2F5
  5
2EF
331
0
  5
3B
331
0
  5
2AD
331
0
  5
3C
331
0
  5
2AE
331
0
  5
108
331
0
  5
2AF
331
2FC
  5
2B0
  0
LAYOUT
  5
1C
102
{ACAD_REACTORS
330
1A
102
}
330
1A
100
AcDbPlotSettings
  1

  2
none_device
  4

  6

 40
0.0
 41
0.0
 42
0.0
 43
0.0
 44
0.0
 45
0.0
 46
0.0
 47
0.0
 48
0.0
 49
0.0
140
0.0
141
0.0
142
1.0
143
1.0
 70
   688
 72
     0
 73
     0
 74
     5
  7

 75
    16
 76
     0
 77
     2
 78
   300
147
1.0
148
0.0
149
0.0
100
AcDbLayout
  1
Layout1
 70
     1
 71
     1
 10
0.0
 20
0.0
 11
12.0
 21
9.0
 12
0.0
 22
0.0
 32
0.0
 14
1.000000000000000E+20
 24
1.000000000000000E+20
 34
1.000000000000000E+20
 15
-1.000000000000000E+20
 25
-1.000000000000000E+20
 35
-1.000000000000000E+20
146
0.0
 13
0.0
 23
0.0
 33
0.0
 16
1.0
 26
0.0
 36
0.0
 17
0.0
 27
1.0
 37
0.0
 76
     0
330
1B
  0
LAYOUT
  5
1E
102
{ACAD_REACTORS
330
1A
102
}
330
1A
100
AcDbPlotSettings
  1

  2
none_device
  4

  6

 40
0.0
 41
0.0
 42
0.0
 43
0.0
 44
0.0
 45
0.0
 46
0.0
 47
0.0
 48
0.0
 49
0.0
140
0.0
141
0.0
142
1.0
143
1.0
 70
  1712
 72
     0
 73
     0
 74
     0
  7

 75
     0
 76
     0
 77
     2
 78
   300
147
1.0
148
0.0
149
0.0
100
AcDbLayout
  1
Model
 70
     1
 71
     0
 10
0.0
 20
0.0
 11
12.0
 21
9.0
 12
0.0
 22
0.0
 32
0.0
 14
-74.2975367516435
 24
-55.26066659846532
 34
0.0
 15
96.05664387479688
 25
49.95442207561481
 35
0.0
146
0.0
 13
0.0
 23
0.0
 33
0.0
 16
1.0
 26
0.0
 36
0.0
 17
0.0
 27
1.0
 37
0.0
 76
     0
330
1D
331
116
  0
MATERIAL
  5
156
102
{ACAD_REACTORS
330
154
102
}
330
154
100
AcDbMaterial
  1
ByBlock
 72
     1
 94
      127
  0
MATERIAL
  5
155
102
{ACAD_REACTORS
330
154
102
}
330
154
100
AcDbMaterial
  1
ByLayer
 72
     1
 94
      127
  0
MATERIAL
  5
157
102
{ACAD_REACTORS
330
154
102
}
330
154
100
AcDbMaterial
  1
Global
 72
     1
 94
      127
  0
MLEADERSTYLE
  5
1AD
102
{ACAD_REACTORS
330
162
102
}
330
162
100
AcDbMLeaderStyle
179
     2
170
     2
171
     1
172
     0
 90
        2
 40
0.0
 41
0.0
173
     1
 91
-1056964608
340
14
 92
       -2
290
     1
 42
0.09
291
     1
 43
0.36
  3
Standard
341
0
 44
0.18
300

342
11
174
     1
178
     1
175
     1
176
     0
 93
-1056964608
 45
0.18
292
     0
297
     0
 46
0.18
343
0
 94
-1056964608
 47
1.0
 49
1.0
140
1.0
293
     1
141
0.0
294
     1
177
     0
142
1.0
295
     0
296
     0
143
0.125
271
     0
272
     9
273
     9
298
     0
  0
MLINESTYLE
  5
18
102
{ACAD_REACTORS
330
17
102
}
330
17
100
AcDbMlineStyle
  2
Standard
 70
     0
  3

 62
   256
 51
90.0
 52
90.0
 71
     2
 49
0.5
 62
   256
  6
BYLAYER
 49
-0.5
 62
   256
  6
BYLAYER
  0
ACDBPLACEHOLDER
  5
F
102
{ACAD_REACTORS
330
E
102
}
330
E
  0
SCALE
  5
11E
102
{ACAD_REACTORS
330
11D
102
}
330
11D
100
AcDbScale
 70
     0
300
1:1
140
1.0
141
1.0
290
     1
  0
SCALE
  5
11F
102
{ACAD_REACTORS
330
11D
102
}
330
11D
100
AcDbScale
 70
     0
300
1:2
140
1.0
141
2.0
290
     0
  0
SCALE
  5
120
102
{ACAD_REACTORS
330
11D
102
}
330
11D
100
AcDbScale
 70
     0
300
1:4
140
1.0
141
4.0
290
     0
  0
SCALE
  5
121
102
{ACAD_REACTORS
330
11D
102
}
330
11D
100
AcDbScale
 70
     0
300
1:5
140
1.0
141
5.0
290
     0
  0
SCALE
  5
122
102
{ACAD_REACTORS
330
11D
102
}
330
11D
100
AcDbScale
 70
     0
300
1:8
140
1.0
141
8.0
290
     0
  0
SCALE
  5
123
102
{ACAD_REACTORS
330
11D
102
}
330
11D
100
AcDbScale
 70
     0
300
1:10
140
1.0
141
10.0
290
     0
  0
SCALE
  5
124
102
{ACAD_REACTORS
330
11D
102
}
330
11D
100
AcDbScale
 70
     0
300
1:16
140
1.0
141
16.0
290
     0
  0
SCALE
  5
125
102
{ACAD_REACTORS
330
11D
102
}
330
11D
100
AcDbScale
 70
     0
300
1:20
140
1.0
141
20.0
290
     0
  0
SCALE
  5
126
102
{ACAD_REACTORS
330
11D
102
}
330
11D
100
AcDbScale
 70
     0
300
1:30
140
1.0
141
30.0
290
     0
  0
SCALE
  5
127
102
{ACAD_REACTORS
330
11D
102
}
330
11D
100
AcDbScale
 70
     0
300
1:40
140
1.0
141
40.0
290
     0
  0
SCALE
  5
128
102
{ACAD_REACTORS
330
11D
102
}
330
11D
100
AcDbScale
 70
     0
300
1:50
140
1.0
141
50.0
290
     0
  0
SCALE
  5
129
102
{ACAD_REACTORS
330
11D
102
}
330
11D
100
AcDbScale
 70
     0
300
1:100
140
1.0
141
100.0
290
     0
  0
SCALE
  5
12A
102
{ACAD_REACTORS
330
11D
102
}
330
11D
100
AcDbScale
 70
     0
300
2:1
140
2.0
141
1.0
290
     0
  0
SCALE
  5
12B
102
{ACAD_REACTORS
330
11D
102
}
330
11D
100
AcDbScale
 70
     0
300
4:1
140
4.0
141
1.0
290
     0
  0
SCALE
  5
12C
102
{ACAD_REACTORS
330
11D
102
}
330
11D
100
AcDbScale
 70
     0
300
8:1
140
8.0
141
1.0
290
     0
  0
SCALE
  5
12D
102
{ACAD_REACTORS
330
11D
102
}
330
11D
100
AcDbScale
 70
     0
300
10:1
140
10.0
141
1.0
290
     0
  0
SCALE
  5
12E
102
{ACAD_REACTORS
330
11D
102
}
330
11D
100
AcDbScale
 70
     0
300
100:1
140
100.0
141
1.0
290
     0
  0
SCALE
  5
12F
102
{ACAD_REACTORS
330
11D
102
}
330
11D
100
AcDbScale
 70
     0
300
1/128" = 1'-0"
140
0.0078125
141
12.0
290
     0
  0
SCALE
  5
130
102
{ACAD_REACTORS
330
11D
102
}
330
11D
100
AcDbScale
 70
     0
300
1/64" = 1'-0"
140
0.015625
141
12.0
290
     0
  0
SCALE
  5
131
102
{ACAD_REACTORS
330
11D
102
}
330
11D
100
AcDbScale
 70
     0
300
1/32" = 1'-0"
140
0.03125
141
12.0
290
     0
  0
SCALE
  5
132
102
{ACAD_REACTORS
330
11D
102
}
330
11D
100
AcDbScale
 70
     0
300
1/16" = 1'-0"
140
0.0625
141
12.0
290
     0
  0
SCALE
  5
133
102
{ACAD_REACTORS
330
11D
102
}
330
11D
100
AcDbScale
 70
     0
300
3/32" = 1'-0"
140
0.09375
141
12.0
290
     0
  0
SCALE
  5
134
102
{ACAD_REACTORS
330
11D
102
}
330
11D
100
AcDbScale
 70
     0
300
1/8" = 1'-0"
140
0.125
141
12.0
290
     0
  0
SCALE
  5
135
102
{ACAD_REACTORS
330
11D
102
}
330
11D
100
AcDbScale
 70
     0
300
3/16" = 1'-0"
140
0.1875
141
12.0
290
     0
  0
SCALE
  5
136
102
{ACAD_REACTORS
330
11D
102
}
330
11D
100
AcDbScale
 70
     0
300
1/4" = 1'-0"
140
0.25
141
12.0
290
     0
  0
SCALE
  5
137
102
{ACAD_REACTORS
330
11D
102
}
330
11D
100
AcDbScale
 70
     0
300
3/8" = 1'-0"
140
0.375
141
12.0
290
     0
  0
SCALE
  5
138
102
{ACAD_REACTORS
330
11D
102
}
330
11D
100
AcDbScale
 70
     0
300
1/2" = 1'-0"
140
0.5
141
12.0
290
     0
  0
SCALE
  5
139
102
{ACAD_REACTORS
330
11D
102
}
330
11D
100
AcDbScale
 70
     0
300
3/4" = 1'-0"
140
0.75
141
12.0
290
     0
  0
SCALE
  5
13A
102
{ACAD_REACTORS
330
11D
102
}
330
11D
100
AcDbScale
 70
     0
300
1" = 1'-0"
140
1.0
141
12.0
290
     0
  0
SCALE
  5
13B
102
{ACAD_REACTORS
330
11D
102
}
330
11D
100
AcDbScale
 70
     0
300
1-1/2" = 1'-0"
140
1.5
141
12.0
290
     0
  0
SCALE
  5
13C
102
{ACAD_REACTORS
330
11D
102
}
330
11D
100
AcDbScale
 70
     0
300
3" = 1'-0"
140
3.0
141
12.0
290
     0
  0
SCALE
  5
13D
102
{ACAD_REACTORS
330
11D
102
}
330
11D
100
AcDbScale
 70
     0
300
6" = 1'-0"
140
6.0
141
12.0
290
     0
  0
SCALE
  5
13E
102
{ACAD_REACTORS
330
11D
102
}
330
11D
100
AcDbScale
 70
     0
300
1'-0" = 1'-0"
140
12.0
141
12.0
290
     0
  0
TABLESTYLE
  5
1AC
102
{ACAD_REACTORS
330
1AB
102
}
102
{ACAD_XDICTIONARY
360
311
102
}
330
1AB
100
AcDbTableStyle
  3
Standard
 70
     0
 71
     0
 40
0.06
 41
0.06
280
     0
281
     0
  7
Standard
140
0.18
170
     2
 62
     0
 63
   257
283
     0
 90
        4
 91
        0
  1

274
    -2
284
     1
 64
     0
275
    -2
285
     1
 65
     0
276
    -2
286
     1
 66
     0
277
    -2
287
     1
 67
     0
278
    -2
288
     1
 68
     0
279
    -2
289
     1
 69
     0
  7
Standard
140
0.25
170
     5
 62
     0
 63
   257
283
     0
 90
        4
 91
        0
  1

274
    -2
284
     1
 64
     0
275
    -2
285
     1
 65
     0
276
    -2
286
     1
 66
     0
277
    -2
287
     1
 67
     0
278
    -2
288
     1
 68
     0
279
    -2
289
     1
 69
     0
  7
Standard
140
0.18
170
     5
 62
     0
 63
   257
283
     0
 90
        4
 91
        0
  1

274
    -2
284
     1
 64
     0
275
    -2
285
     1
 65
     0
276
    -2
286
     1
 66
     0
277
    -2
287
     1
 67
     0
278
    -2
288
     1
 68
     0
279
    -2
289
     1
 69
     0
  0
VISUALSTYLE
  5
148
102
{ACAD_REACTORS
330
143
102
}
330
143
100
AcDbVisualStyle
  2
2dWireframe
 70
     4
177
     3
291
     0
 70
    58
 90
        0
176
     1
 90
        2
176
     1
 90
        0
176
     1
 90
        0
176
     1
 40
-0.6
176
     1
 40
-30.0
176
     1
 62
     7
176
     1
 90
        1
176
     1
 90
        4
176
     1
 62
     7
176
     1
 62
   257
176
     1
 90
        1
176
     1
 90
        1
176
     1
 40
1.0
176
     1
 90
        0
176
     1
 62
   257
176
     1
 40
1.0
176
     1
 90
        1
176
     1
 90
        6
176
     1
 90
        2
176
     1
 62
     7
176
     1
 90
        5
176
     1
 90
        0
176
     1
 90
        0
176
     1
290
     0
176
     1
 90
        1
176
     1
 40
0.0
176
     1
 90
        0
176
     1
290
     1
176
     1
290
     1
176
     1
290
     0
176
     1
290
     0
176
     1
290
     0
176
     1
290
     0
176
     1
290
     0
176
     1
290
     0
176
     1
290
     0
176
     1
 90
       50
176
     1
 40
0.0
176
     1
 40
1.0
176
     1
 90
        0
176
     1
 62
    18
420
        0
176
     1
 90
       50
176
     1
 90
        3
176
     1
 62
     5
420
      255
176
     1
290
     0
176
     1
 90
       50
176
     1
 90
       50
176
     1
 90
       50
176
     1
290
     0
176
     1
 90
       50
176
     1
 62
   256
176
     0
 40
1.0
176
     0
 90
        2
176
     1
  1
strokes_ogs.tif
176
     1
290
     0
176
     1
 40
1.0
176
     1
 40
1.0
176
     1
  0
VISUALSTYLE
  5
14A
102
{ACAD_REACTORS
330
143
102
}
330
143
100
AcDbVisualStyle
  2
3D Hidden
 70
     6
177
     3
291
     0
 70
    58
 90
        1
176
     1
 90
        2
176
     1
 90
        2
176
     1
 90
        0
176
     1
 40
-0.6
176
     1
 40
-30.0
176
     1
 62
     7
176
     1
 90
        2
176
     1
 90
        2
176
     1
 62
     7
176
     1
 62
   257
176
     1
 90
        2
176
     1
 90
        1
176
     1
 40
40.0
176
     1
 90
        0
176
     1
 62
   257
176
     1
 40
1.0
176
     1
 90
        1
176
     1
 90
        6
176
     1
 90
        2
176
     1
 62
     7
176
     1
 90
        3
176
     1
 90
        0
176
     1
 90
        0
176
     1
290
     0
176
     1
 90
        1
176
     1
 40
0.0
176
     1
 90
        0
176
     1
290
     0
176
     1
290
     1
176
     1
290
     1
176
     1
290
     0
176
     1
290
     0
176
     1
290
     0
176
     1
290
     0
176
     1
290
     0
176
     1
290
     0
176
     1
 90
       50
176
     1
 40
0.0
176
     1
 40
1.0
176
     1
 90
        0
176
     1
 62
    18
420
        0
176
     1
 90
       50
176
     1
 90
        3
176
     1
 62
     5
420
      255
176
     1
290
     0
176
     1
 90
       50
176
     1
 90
       50
176
     1
 90
       50
176
     1
290
     0
176
     1
 90
       50
176
     1
 62
   256
176
     0
 40
1.0
176
     0
 90
        2
176
     1
  1
strokes_ogs.tif
176
     1
290
     0
176
     1
 40
1.0
176
     1
 40
1.0
176
     1
  0
VISUALSTYLE
  5
149
102
{ACAD_REACTORS
330
143
102
}
330
143
100
AcDbVisualStyle
  2
3dWireframe
 70
     5
177
     3
291
     0
 70
    58
 90
        0
176
     1
 90
        2
176
     1
 90
        0
176
     1
 90
        0
176
     1
 40
-0.6
176
     1
 40
-30.0
176
     1
 62
     7
176
     1
 90
        1
176
     1
 90
        4
176
     1
 62
     7
176
     1
 62
   257
176
     1
 90
        1
176
     1
 90
        1
176
     1
 40
1.0
176
     1
 90
        0
176
     1
 62
   257
176
     1
 40
1.0
176
     1
 90
        1
176
     1
 90
        6
176
     1
 90
        2
176
     1
 62
     7
176
     1
 90
        5
176
     1
 90
        0
176
     1
 90
        0
176
     1
290
     0
176
     1
 90
        1
176
     1
 40
0.0
176
     1
 90
        0
176
     1
290
     0
176
     1
290
     1
176
     1
290
     1
176
     1
290
     0
176
     1
290
     0
176
     1
290
     0
176
     1
290
     0
176
     1
290
     0
176
     1
290
     0
176
     1
 90
       50
176
     1
 40
0.0
176
     1
 40
1.0
176
     1
 90
        0
176
     1
 62
    18
420
        0
176
     1
 90
       50
176
     1
 90
        3
176
     1
 62
     5
420
      255
176
     1
290
     0
176
     1
 90
       50
176
     1
 90
       50
176
     1
 90
       50
176
     1
290
     0
176
     1
 90
       50
176
     1
 62
   256
176
     0
 40
1.0
176
     0
 90
        2
176
     1
  1
strokes_ogs.tif
176
     1
290
     0
176
     1
 40
1.0
176
     1
 40
1.0
176
     1
  0
VISUALSTYLE
  5
14B
102
{ACAD_REACTORS
330
143
102
}
330
143
100
AcDbVisualStyle
  2
Basic
 70
     7
177
     3
291
     1
 70
    58
 90
        1
176
     1
 90
        0
176
     1
 90
        1
176
     1
 90
        0
176
     1
 40
-0.6
176
     1
 40
-30.0
176
     1
 62
     7
176
     1
 90
        0
176
     1
 90
        4
176
     1
 62
     7
176
     1
 62
   257
176
     1
 90
        1
176
     1
 90
        1
176
     1
 40
1.0
176
     1
 90
        8
176
     1
 62
     7
176
     1
 40
1.0
176
     1
 90
        1
176
     1
 90
        6
176
     1
 90
        2
176
     1
 62
     7
176
     1
 90
        5
176
     1
 90
        0
176
     1
 90
        0
176
     1
290
     0
176
     1
 90
        1
176
     1
 40
0.0
176
     1
 90
        0
176
     1
290
     0
176
     1
290
     1
176
     1
290
     1
176
     1
290
     0
176
     1
290
     0
176
     1
290
     0
176
     1
290
     0
176
     1
290
     0
176
     1
290
     0
176
     1
 90
       50
176
     1
 40
0.0
176
     1
 40
1.0
176
     1
 90
        0
176
     1
 62
    18
420
        0
176
     1
 90
       50
176
     1
 90
        3
176
     1
 62
     5
420
      255
176
     1
290
     0
176
     1
 90
       50
176
     1
 90
       50
176
     1
 90
       50
176
     1
290
     0
176
     1
 90
       50
176
     1
 62
   256
176
     0
 40
1.0
176
     0
 90
        2
176
     1
  1
strokes_ogs.tif
176
     1
290
     0
176
     1
 40
1.0
176
     1
 40
1.0
176
     1
  0
VISUALSTYLE
  5
14F
102
{ACAD_REACTORS
330
143
102
}
330
143
100
AcDbVisualStyle
  2
Brighten
 70
    12
177
     3
291
     1
 70
    58
 90
        2
176
     1
 90
        2
176
     1
 90
        0
176
     1
 90
        0
176
     1
 40
-0.6
176
     1
 40
-30.0
176
     1
 62
     7
176
     1
 90
        1
176
     1
 90
        4
176
     1
 62
     7
176
     1
 62
   257
176
     1
 90
        1
176
     1
 90
        1
176
     1
 40
1.0
176
     1
 90
        8
176
     1
 62
     7
176
     1
 40
1.0
176
     1
 90
        1
176
     1
 90
        6
176
     1
 90
        2
176
     1
 62
     7
176
     1
 90
        5
176
     1
 90
        0
176
     1
 90
        0
176
     1
290
     0
176
     1
 90
        1
176
     1
 40
50.0
176
     1
 90
        0
176
     1
290
     0
176
     1
290
     1
176
     1
290
     1
176
     1
290
     0
176
     1
290
     0
176
     1
290
     0
176
     1
290
     0
176
     1
290
     0
176
     1
290
     0
176
     1
 90
       50
176
     1
 40
0.0
176
     1
 40
1.0
176
     1
 90
        0
176
     1
 62
    18
420
        0
176
     1
 90
       50
176
     1
 90
        3
176
     1
 62
     5
420
      255
176
     1
290
     0
176
     1
 90
       50
176
     1
 90
       50
176
     1
 90
       50
176
     1
290
     0
176
     1
 90
       50
176
     1
 62
   256
176
     0
 40
1.0
176
     0
 90
        2
176
     1
  1
strokes_ogs.tif
176
     1
290
     0
176
     1
 40
1.0
176
     1
 40
1.0
176
     1
  0
VISUALSTYLE
  5
153
102
{ACAD_REACTORS
330
143
102
}
330
143
100
AcDbVisualStyle
  2
ColorChange
 70
    16
177
     3
291
     1
 70
    58
 90
        2
176
     1
 90
        2
176
     1
 90
        3
176
     1
 90
        0
176
     1
 40
-0.6
176
     1
 40
-30.0
176
     1
 62
     8
176
     1
 90
        1
176
     1
 90
        4
176
     1
 62
     7
176
     1
 62
   257
176
     1
 90
        1
176
     1
 90
        1
176
     1
 40
1.0
176
     1
 90
        8
176
     1
 62
     8
176
     1
 40
1.0
176
     1
 90
        1
176
     1
 90
        6
176
     1
 90
        2
176
     1
 62
     7
176
     1
 90
        5
176
     1
 90
        0
176
     1
 90
        0
176
     1
290
     0
176
     1
 90
        1
176
     1
 40
0.0
176
     1
 90
        0
176
     1
290
     0
176
     1
290
     1
176
     1
290
     1
176
     1
290
     0
176
     1
290
     0
176
     1
290
     0
176
     1
290
     0
176
     1
290
     0
176
     1
290
     0
176
     1
 90
       50
176
     1
 40
0.0
176
     1
 40
1.0
176
     1
 90
        0
176
     1
 62
    18
420
        0
176
     1
 90
       50
176
     1
 90
        3
176
     1
 62
     5
420
      255
176
     1
290
     0
176
     1
 90
       50
176
     1
 90
       50
176
     1
 90
       50
176
     1
290
     0
176
     1
 90
       50
176
     1
 62
   256
176
     0
 40
1.0
176
     0
 90
        2
176
     1
  1
strokes_ogs.tif
176
     1
290
     0
176
     1
 40
1.0
176
     1
 40
1.0
176
     1
  0
VISUALSTYLE
  5
14D
102
{ACAD_REACTORS
330
143
102
}
330
143
100
AcDbVisualStyle
  2
Conceptual
 70
     9
177
     3
291
     0
 70
    58
 90
        3
176
     1
 90
        2
176
     1
 90
        0
176
     1
 90
        0
176
     1
 40
-0.6
176
     1
 40
-30.0
176
     1
 62
     7
176
     1
 90
        2
176
     1
 90
        2
176
     1
 62
     7
176
     1
 62
   257
176
     1
 90
        1
176
     1
 90
        1
176
     1
 40
40.0
176
     1
 90
        8
176
     1
 62
     7
176
     1
 40
1.0
176
     1
 90
        1
176
     1
 90
        6
176
     1
 90
        2
176
     1
 62
     7
176
     1
 90
        3
176
     1
 90
        0
176
     1
 90
        0
176
     1
290
     0
176
     1
 90
        1
176
     1
 40
0.0
176
     1
 90
        0
176
     1
290
     0
176
     1
290
     1
176
     1
290
     1
176
     1
290
     0
176
     1
290
     0
176
     1
290
     0
176
     1
290
     0
176
     1
290
     0
176
     1
290
     0
176
     1
 90
       50
176
     1
 40
0.0
176
     1
 40
1.0
176
     1
 90
        0
176
     1
 62
    18
420
        0
176
     1
 90
       50
176
     1
 90
        3
176
     1
 62
     5
420
      255
176
     1
290
     0
176
     1
 90
       50
176
     1
 90
       50
176
     1
 90
       50
176
     1
290
     0
176
     1
 90
       50
176
     1
 62
   256
176
     0
 40
1.0
176
     0
 90
        2
176
     1
  1
strokes_ogs.tif
176
     1
290
     0
176
     1
 40
1.0
176
     1
 40
1.0
176
     1
  0
VISUALSTYLE
  5
14E
102
{ACAD_REACTORS
330
143
102
}
330
143
100
AcDbVisualStyle
  2
Dim
 70
    11
177
     3
291
     1
 70
    58
 90
        2
176
     1
 90
        2
176
     1
 90
        0
176
     1
 90
        0
176
     1
 40
-0.6
176
     1
 40
-30.0
176
     1
 62
     7
176
     1
 90
        1
176
     1
 90
        4
176
     1
 62
     7
176
     1
 62
   257
176
     1
 90
        1
176
     1
 90
        1
176
     1
 40
1.0
176
     1
 90
        8
176
     1
 62
     7
176
     1
 40
1.0
176
     1
 90
        1
176
     1
 90
        6
176
     1
 90
        2
176
     1
 62
     7
176
     1
 90
        5
176
     1
 90
        0
176
     1
 90
        0
176
     1
290
     0
176
     1
 90
        1
176
     1
 40
-50.0
176
     1
 90
        0
176
     1
290
     0
176
     1
290
     1
176
     1
290
     1
176
     1
290
     0
176
     1
290
     0
176
     1
290
     0
176
     1
290
     0
176
     1
290
     0
176
     1
290
     0
176
     1
 90
       50
176
     1
 40
0.0
176
     1
 40
1.0
176
     1
 90
        0
176
     1
 62
    18
420
        0
176
     1
 90
       50
176
     1
 90
        3
176
     1
 62
     5
420
      255
176
     1
290
     0
176
     1
 90
       50
176
     1
 90
       50
176
     1
 90
       50
176
     1
290
     0
176
     1
 90
       50
176
     1
 62
   256
176
     0
 40
1.0
176
     0
 90
        2
176
     1
  1
strokes_ogs.tif
176
     1
290
     0
176
     1
 40
1.0
176
     1
 40
1.0
176
     1
  0
VISUALSTYLE
  5
1A5
102
{ACAD_REACTORS
330
143
102
}
330
143
100
AcDbVisualStyle
  2
EdgeColorOff
 70
    22
177
     3
291
     1
 70
    58
 90
        2
176
     0
 90
        2
176
     0
 90
        0
176
     0
 90
        0
176
     0
 40
0.6
176
     0
 40
30.0
176
     0
 62
     7
420
 16777215
176
     0
 90
        1
176
     0
 90
        4
176
     0
 62
     7
176
     0
 62
   257
176
     0
 90
        1
176
     0
 90
        1
176
     0
 40
1.0
176
     0
 90
        8
176
     2
 62
     7
176
     0
 40
1.0
176
     0
 90
        1
176
     0
 90
        6
176
     0
 90
        2
176
     0
 62
     7
176
     0
 90
        5
176
     0
 90
        0
176
     0
 90
        0
176
     0
290
     0
176
     0
 90
        1
176
     0
 40
0.0
176
     0
 90
        0
176
     0
290
     0
176
     0
290
     1
176
     0
290
     1
176
     0
290
     0
176
     0
290
     0
176
     0
290
     0
176
     0
290
     0
176
     0
290
     0
176
     0
290
     0
176
     0
 90
       50
176
     0
 40
0.0
176
     0
 40
1.0
176
     0
 90
        0
176
     0
 62
    18
420
        0
176
     0
 90
       50
176
     0
 90
        3
176
     0
 62
     5
420
      255
176
     0
290
     0
176
     0
 90
       50
176
     0
 90
       50
176
     0
 90
       50
176
     0
290
     0
176
     0
 90
       50
176
     0
 62
   256
176
     0
 40
1.0
176
     0
 90
        2
176
     0
  1
strokes_ogs.tif
176
     0
290
     0
176
     0
 40
1.0
176
     0
 40
1.0
176
     0
  0
VISUALSTYLE
  5
152
102
{ACAD_REACTORS
330
143
102
}
330
143
100
AcDbVisualStyle
  2
Facepattern
 70
    15
177
     3
291
     1
 70
    58
 90
        2
176
     1
 90
        2
176
     1
 90
        0
176
     1
 90
        0
176
     1
 40
-0.6
176
     1
 40
-30.0
176
     1
 62
     7
176
     1
 90
        1
176
     1
 90
        4
176
     1
 62
     7
176
     1
 62
   257
176
     1
 90
        1
176
     1
 90
        1
176
     1
 40
1.0
176
     1
 90
        8
176
     1
 62
     7
176
     1
 40
1.0
176
     1
 90
        1
176
     1
 90
        6
176
     1
 90
        2
176
     1
 62
     7
176
     1
 90
        5
176
     1
 90
        0
176
     1
 90
        0
176
     1
290
     0
176
     1
 90
        1
176
     1
 40
0.0
176
     1
 90
        0
176
     1
290
     0
176
     1
290
     1
176
     1
290
     1
176
     1
290
     0
176
     1
290
     0
176
     1
290
     0
176
     1
290
     0
176
     1
290
     0
176
     1
290
     0
176
     1
 90
       50
176
     1
 40
0.0
176
     1
 40
1.0
176
     1
 90
        0
176
     1
 62
    18
420
        0
176
     1
 90
       50
176
     1
 90
        3
176
     1
 62
     5
420
      255
176
     1
290
     0
176
     1
 90
       50
176
     1
 90
       50
176
     1
 90
       50
176
     1
290
     0
176
     1
 90
       50
176
     1
 62
   256
176
     0
 40
1.0
176
     0
 90
        2
176
     1
  1
strokes_ogs.tif
176
     1
290
     0
176
     1
 40
1.0
176
     1
 40
1.0
176
     1
  0
VISUALSTYLE
  5
144
102
{ACAD_REACTORS
330
143
102
}
330
143
100
AcDbVisualStyle
  2
Flat
 70
     0
177
     3
291
     1
 70
    58
 90
        2
176
     1
 90
        1
176
     1
 90
        1
176
     1
 90
        2
176
     1
 40
-0.6
176
     1
 40
30.0
176
     1
 62
     7
176
     1
 90
        0
176
     1
 90
        4
176
     1
 62
     7
176
     1
 62
   257
176
     1
 90
        1
176
     1
 90
        1
176
     1
 40
1.0
176
     1
 90
        8
176
     1
 62
     7
176
     1
 40
1.0
176
     1
 90
        1
176
     1
 90
        6
176
     1
 90
        2
176
     1
 62
     7
176
     1
 90
        5
176
     1
 90
        0
176
     1
 90
        0
176
     1
290
     0
176
     1
 90
       13
176
     1
 40
0.0
176
     1
 90
        0
176
     1
290
     0
176
     1
290
     1
176
     1
290
     1
176
     1
290
     0
176
     1
290
     0
176
     1
290
     0
176
     1
290
     0
176
     1
290
     0
176
     1
290
     0
176
     1
 90
       50
176
     1
 40
0.0
176
     1
 40
1.0
176
     1
 90
        0
176
     1
 62
    18
420
        0
176
     1
 90
       50
176
     1
 90
        3
176
     1
 62
     5
420
      255
176
     1
290
     0
176
     1
 90
       50
176
     1
 90
       50
176
     1
 90
       50
176
     1
290
     0
176
     1
 90
       50
176
     1
 62
   256
176
     0
 40
1.0
176
     0
 90
        2
176
     1
  1
strokes_ogs.tif
176
     1
290
     0
176
     1
 40
1.0
176
     1
 40
1.0
176
     1
  0
VISUALSTYLE
  5
145
102
{ACAD_REACTORS
330
143
102
}
330
143
100
AcDbVisualStyle
  2
FlatWithEdges
 70
     1
177
     3
291
     1
 70
    58
 90
        2
176
     1
 90
        1
176
     1
 90
        1
176
     1
 90
        2
176
     1
 40
-0.6
176
     1
 40
30.0
176
     1
 62
     7
176
     1
 90
        1
176
     1
 90
        4
176
     1
 62
     7
176
     1
 62
   257
176
     1
 90
        1
176
     1
 90
        1
176
     1
 40
1.0
176
     1
 90
        0
176
     1
 62
   257
176
     1
 40
1.0
176
     1
 90
        1
176
     1
 90
        6
176
     1
 90
        2
176
     1
 62
     7
176
     1
 90
        5
176
     1
 90
        0
176
     1
 90
        0
176
     1
290
     0
176
     1
 90
       13
176
     1
 40
0.0
176
     1
 90
        0
176
     1
290
     0
176
     1
290
     1
176
     1
290
     1
176
     1
290
     0
176
     1
290
     0
176
     1
290
     0
176
     1
290
     0
176
     1
290
     0
176
     1
290
     0
176
     1
 90
       50
176
     1
 40
0.0
176
     1
 40
1.0
176
     1
 90
        0
176
     1
 62
    18
420
        0
176
     1
 90
       50
176
     1
 90
        3
176
     1
 62
     5
420
      255
176
     1
290
     0
176
     1
 90
       50
176
     1
 90
       50
176
     1
 90
       50
176
     1
290
     0
176
     1
 90
       50
176
     1
 62
   256
176
     0
 40
1.0
176
     0
 90
        2
176
     1
  1
strokes_ogs.tif
176
     1
290
     0
176
     1
 40
1.0
176
     1
 40
1.0
176
     1
  0
VISUALSTYLE
  5
146
102
{ACAD_REACTORS
330
143
102
}
330
143
100
AcDbVisualStyle
  2
Gouraud
 70
     2
177
     3
291
     1
 70
    58
 90
        2
176
     1
 90
        2
176
     1
 90
        1
176
     1
 90
        2
176
     1
 40
-0.6
176
     1
 40
30.0
176
     1
 62
     7
176
     1
 90
        0
176
     1
 90
        4
176
     1
 62
     7
176
     1
 62
   257
176
     1
 90
        1
176
     1
 90
        1
176
     1
 40
1.0
176
     1
 90
        0
176
     1
 62
     7
176
     1
 40
1.0
176
     1
 90
        1
176
     1
 90
        6
176
     1
 90
        2
176
     1
 62
     7
176
     1
 90
        5
176
     1
 90
        0
176
     1
 90
        0
176
     1
290
     0
176
     1
 90
       13
176
     1
 40
0.0
176
     1
 90
        0
176
     1
290
     0
176
     1
290
     1
176
     1
290
     1
176
     1
290
     0
176
     1
290
     0
176
     1
290
     0
176
     1
290
     0
176
     1
290
     0
176
     1
290
     0
176
     1
 90
       50
176
     1
 40
0.0
176
     1
 40
1.0
176
     1
 90
        0
176
     1
 62
    18
420
        0
176
     1
 90
       50
176
     1
 90
        3
176
     1
 62
     5
420
      255
176
     1
290
     0
176
     1
 90
       50
176
     1
 90
       50
176
     1
 90
       50
176
     1
290
     0
176
     1
 90
       50
176
     1
 62
   256
176
     0
 40
1.0
176
     0
 90
        2
176
     1
  1
strokes_ogs.tif
176
     1
290
     0
176
     1
 40
1.0
176
     1
 40
1.0
176
     1
  0
VISUALSTYLE
  5
147
102
{ACAD_REACTORS
330
143
102
}
330
143
100
AcDbVisualStyle
  2
GouraudWithEdges
 70
     3
177
     3
291
     1
 70
    58
 90
        2
176
     1
 90
        2
176
     1
 90
        1
176
     1
 90
        2
176
     1
 40
-0.6
176
     1
 40
30.0
176
     1
 62
     7
176
     1
 90
        1
176
     1
 90
        4
176
     1
 62
     7
176
     1
 62
   257
176
     1
 90
        1
176
     1
 90
        1
176
     1
 40
1.0
176
     1
 90
        0
176
     1
 62
   257
176
     1
 40
1.0
176
     1
 90
        1
176
     1
 90
        6
176
     1
 90
        2
176
     1
 62
     7
176
     1
 90
        5
176
     1
 90
        0
176
     1
 90
        0
176
     1
290
     0
176
     1
 90
       13
176
     1
 40
0.0
176
     1
 90
        0
176
     1
290
     0
176
     1
290
     1
176
     1
290
     1
176
     1
290
     0
176
     1
290
     0
176
     1
290
     0
176
     1
290
     0
176
     1
290
     0
176
     1
290
     0
176
     1
 90
       50
176
     1
 40
0.0
176
     1
 40
1.0
176
     1
 90
        0
176
     1
 62
    18
420
        0
176
     1
 90
       50
176
     1
 90
        3
176
     1
 62
     5
420
      255
176
     1
290
     0
176
     1
 90
       50
176
     1
 90
       50
176
     1
 90
       50
176
     1
290
     0
176
     1
 90
       50
176
     1
 62
   256
176
     0
 40
1.0
176
     0
 90
        2
176
     1
  1
strokes_ogs.tif
176
     1
290
     0
176
     1
 40
1.0
176
     1
 40
1.0
176
     1
  0
VISUALSTYLE
  5
1A2
102
{ACAD_REACTORS
330
143
102
}
330
143
100
AcDbVisualStyle
  2
Hidden
 70
     6
177
     3
291
     0
 70
    58
 90
        1
176
     1
 90
        2
176
     1
 90
        2
176
     1
 90
        0
176
     1
 40
0.6
176
     1
 40
30.0
176
     1
 62
     7
420
 16777215
176
     1
 90
        2
176
     1
 90
        2
176
     1
 62
     7
176
     1
 62
   257
176
     1
 90
        2
176
     1
 90
        1
176
     1
 40
40.0
176
     1
 90
        0
176
     1
 62
   257
176
     1
 40
1.0
176
     1
 90
        1
176
     1
 90
        6
176
     1
 90
        2
176
     1
 62
     7
176
     1
 90
        3
176
     1
 90
        0
176
     1
 90
        0
176
     1
290
     0
176
     1
 90
        1
176
     1
 40
0.0
176
     1
 90
        0
176
     1
290
     0
176
     1
290
     1
176
     1
290
     1
176
     1
290
     0
176
     1
290
     0
176
     1
290
     0
176
     1
290
     0
176
     1
290
     0
176
     1
290
     0
176
     1
 90
       50
176
     1
 40
0.0
176
     1
 40
1.0
176
     1
 90
        0
176
     1
 62
    18
420
        0
176
     1
 90
       50
176
     1
 90
        3
176
     1
 62
     5
420
      255
176
     1
290
     0
176
     1
 90
       50
176
     1
 90
       50
176
     1
 90
       50
176
     1
290
     0
176
     1
 90
       50
176
     1
 62
   256
176
     0
 40
1.0
176
     0
 90
        2
176
     1
  1
strokes_ogs.tif
176
     1
290
     0
176
     1
 40
1.0
176
     1
 40
1.0
176
     1
  0
VISUALSTYLE
  5
1A3
102
{ACAD_REACTORS
330
143
102
}
330
143
100
AcDbVisualStyle
  2
JitterOff
 70
    20
177
     3
291
     1
 70
    58
 90
        2
176
     0
 90
        2
176
     0
 90
        0
176
     0
 90
        0
176
     0
 40
0.6
176
     0
 40
30.0
176
     0
 62
     7
420
 16777215
176
     0
 90
        1
176
     0
 90
        4
176
     0
 62
     7
176
     0
 62
   257
176
     0
 90
        1
176
     0
 90
        1
176
     0
 40
1.0
176
     0
 90
       10
176
     2
 62
     7
176
     0
 40
1.0
176
     0
 90
        1
176
     0
 90
        6
176
     0
 90
        2
176
     0
 62
     7
176
     0
 90
        5
176
     0
 90
        0
176
     0
 90
        0
176
     0
290
     0
176
     0
 90
        1
176
     0
 40
0.0
176
     0
 90
        0
176
     0
290
     0
176
     0
290
     1
176
     0
290
     1
176
     0
290
     0
176
     0
290
     0
176
     0
290
     0
176
     0
290
     0
176
     0
290
     0
176
     0
290
     0
176
     0
 90
       50
176
     0
 40
0.0
176
     0
 40
1.0
176
     0
 90
        0
176
     0
 62
    18
420
        0
176
     0
 90
       50
176
     0
 90
        3
176
     0
 62
     5
420
      255
176
     0
290
     0
176
     0
 90
       50
176
     0
 90
       50
176
     0
 90
       50
176
     0
290
     0
176
     0
 90
       50
176
     0
 62
   256
176
     0
 40
1.0
176
     0
 90
        2
176
     0
  1
strokes_ogs.tif
176
     0
290
     0
176
     0
 40
1.0
176
     0
 40
1.0
176
     0
  0
VISUALSTYLE
  5
151
102
{ACAD_REACTORS
330
143
102
}
330
143
100
AcDbVisualStyle
  2
Linepattern
 70
    14
177
     3
291
     1
 70
    58
 90
        2
176
     1
 90
        2
176
     1
 90
        0
176
     1
 90
        0
176
     1
 40
-0.6
176
     1
 40
-30.0
176
     1
 62
     7
176
     1
 90
        1
176
     1
 90
        4
176
     1
 62
     7
176
     1
 62
   257
176
     1
 90
        7
176
     1
 90
        7
176
     1
 40
1.0
176
     1
 90
        8
176
     1
 62
     7
176
     1
 40
1.0
176
     1
 90
        1
176
     1
 90
        6
176
     1
 90
        2
176
     1
 62
     7
176
     1
 90
        5
176
     1
 90
        0
176
     1
 90
        0
176
     1
290
     0
176
     1
 90
        1
176
     1
 40
0.0
176
     1
 90
        0
176
     1
290
     0
176
     1
290
     1
176
     1
290
     1
176
     1
290
     0
176
     1
290
     0
176
     1
290
     0
176
     1
290
     0
176
     1
290
     0
176
     1
290
     0
176
     1
 90
       50
176
     1
 40
0.0
176
     1
 40
1.0
176
     1
 90
        0
176
     1
 62
    18
420
        0
176
     1
 90
       50
176
     1
 90
        3
176
     1
 62
     5
420
      255
176
     1
290
     0
176
     1
 90
       50
176
     1
 90
       50
176
     1
 90
       50
176
     1
290
     0
176
     1
 90
       50
176
     1
 62
   256
176
     0
 40
1.0
176
     0
 90
        2
176
     1
  1
strokes_ogs.tif
176
     1
290
     0
176
     1
 40
1.0
176
     1
 40
1.0
176
     1
  0
VISUALSTYLE
  5
1A4
102
{ACAD_REACTORS
330
143
102
}
330
143
100
AcDbVisualStyle
  2
OverhangOff
 70
    21
177
     3
291
     1
 70
    58
 90
        2
176
     0
 90
        2
176
     0
 90
        0
176
     0
 90
        0
176
     0
 40
0.6
176
     0
 40
30.0
176
     0
 62
     7
420
 16777215
176
     0
 90
        1
176
     0
 90
        4
176
     0
 62
     7
176
     0
 62
   257
176
     0
 90
        1
176
     0
 90
        1
176
     0
 40
1.0
176
     0
 90
        9
176
     2
 62
     7
176
     0
 40
1.0
176
     0
 90
        1
176
     0
 90
        6
176
     0
 90
        2
176
     0
 62
     7
176
     0
 90
        5
176
     0
 90
        0
176
     0
 90
        0
176
     0
290
     0
176
     0
 90
        1
176
     0
 40
0.0
176
     0
 90
        0
176
     0
290
     0
176
     0
290
     1
176
     0
290
     1
176
     0
290
     0
176
     0
290
     0
176
     0
290
     0
176
     0
290
     0
176
     0
290
     0
176
     0
290
     0
176
     0
 90
       50
176
     0
 40
0.0
176
     0
 40
1.0
176
     0
 90
        0
176
     0
 62
    18
420
        0
176
     0
 90
       50
176
     0
 90
        3
176
     0
 62
     5
420
      255
176
     0
290
     0
176
     0
 90
       50
176
     0
 90
       50
176
     0
 90
       50
176
     0
290
     0
176
     0
 90
       50
176
     0
 62
   256
176
     0
 40
1.0
176
     0
 90
        2
176
     0
  1
strokes_ogs.tif
176
     0
290
     0
176
     0
 40
1.0
176
     0
 40
1.0
176
     0
  0
VISUALSTYLE
  5
14C
102
{ACAD_REACTORS
330
143
102
}
330
143
100
AcDbVisualStyle
  2
Realistic
 70
     8
177
     3
291
     0
 70
    58
 90
        2
176
     1
 90
        2
176
     1
 90
        0
176
     1
 90
        0
176
     1
 40
-0.6
176
     1
 40
-30.0
176
     1
 62
     7
176
     1
 90
        1
176
     1
 90
        0
176
     1
 62
     7
176
     1
 62
   257
176
     1
 90
        1
176
     1
 90
        1
176
     1
 40
1.0
176
     1
 90
        8
176
     1
 62
     8
176
     1
 40
1.0
176
     1
 90
        1
176
     1
 90
        6
176
     1
 90
        2
176
     1
 62
     7
176
     1
 90
        5
176
     1
 90
        0
176
     1
 90
        0
176
     1
290
     0
176
     1
 90
       13
176
     1
 40
0.0
176
     1
 90
        0
176
     1
290
     0
176
     1
290
     1
176
     1
290
     1
176
     1
290
     0
176
     1
290
     0
176
     1
290
     0
176
     1
290
     0
176
     1
290
     0
176
     1
290
     0
176
     1
 90
       50
176
     1
 40
0.0
176
     1
 40
1.0
176
     1
 90
        0
176
     1
 62
    18
420
        0
176
     1
 90
       50
176
     1
 90
        3
176
     1
 62
     5
420
      255
176
     1
290
     0
176
     1
 90
       50
176
     1
 90
       50
176
     1
 90
       50
176
     1
290
     0
176
     1
 90
       50
176
     1
 62
   256
176
     0
 40
1.0
176
     0
 90
        2
176
     1
  1
strokes_ogs.tif
176
     1
290
     0
176
     1
 40
1.0
176
     1
 40
1.0
176
     1
  0
VISUALSTYLE
  5
1AA
102
{ACAD_REACTORS
330
143
102
}
330
143
100
AcDbVisualStyle
  2
Shaded
 70
    27
177
     3
291
     0
 70
    58
 90
        2
176
     1
 90
        2
176
     1
 90
        1
176
     1
 90
        2
176
     1
 40
0.6
176
     1
 40
30.0
176
     1
 62
     7
420
 16777215
176
     1
 90
        0
176
     1
 90
        4
176
     1
 62
     7
176
     1
 62
   257
176
     1
 90
        1
176
     1
 90
        1
176
     1
 40
1.0
176
     1
 90
        8
176
     1
 62
   257
176
     1
 40
1.0
176
     1
 90
        1
176
     1
 90
        6
176
     1
 90
        2
176
     1
 62
     8
420
  7895160
176
     1
 90
        3
176
     1
 90
        0
176
     1
 90
        0
176
     1
290
     0
176
     1
 90
        5
176
     1
 40
0.0
176
     1
 90
        0
176
     1
290
     0
176
     1
290
     1
176
     1
290
     1
176
     1
290
     0
176
     1
290
     0
176
     1
290
     0
176
     1
290
     0
176
     1
290
     0
176
     1
290
     0
176
     1
 90
       50
176
     1
 40
0.0
176
     1
 40
1.0
176
     1
 90
        0
176
     1
 62
    18
420
        0
176
     1
 90
       50
176
     1
 90
        3
176
     1
 62
     5
420
      255
176
     1
290
     0
176
     1
 90
       50
176
     1
 90
       50
176
     1
 90
       50
176
     1
290
     0
176
     1
 90
       50
176
     1
 62
   256
176
     0
 40
1.0
176
     0
 90
        2
176
     1
  1
strokes_ogs.tif
176
     1
290
     0
176
     1
 40
1.0
176
     1
 40
1.0
176
     1
  0
VISUALSTYLE
  5
1A9
102
{ACAD_REACTORS
330
143
102
}
330
143
100
AcDbVisualStyle
  2
Shaded with edges
 70
    26
177
     3
291
     0
 70
    58
 90
        2
176
     1
 90
        2
176
     1
 90
        1
176
     1
 90
        2
176
     1
 40
0.6
176
     1
 40
30.0
176
     1
 62
     7
420
 16777215
176
     1
 90
        1
176
     1
 90
       10
176
     1
 62
     7
176
     1
 62
   257
176
     1
 90
        2
176
     1
 90
        1
176
     1
 40
1.0
176
     1
 90
        8
176
     1
 62
   257
176
     1
 40
1.0
176
     1
 90
        1
176
     1
 90
        6
176
     1
 90
        2
176
     1
 62
     7
176
     1
 90
        3
176
     1
 90
        0
176
     1
 90
        0
176
     1
290
     0
176
     1
 90
        5
176
     1
 40
0.0
176
     1
 90
        0
176
     1
290
     0
176
     1
290
     1
176
     1
290
     1
176
     1
290
     0
176
     1
290
     0
176
     1
290
     0
176
     1
290
     0
176
     1
290
     0
176
     1
290
     0
176
     1
 90
       50
176
     1
 40
0.0
176
     1
 40
1.0
176
     1
 90
        0
176
     1
 62
    18
420
        0
176
     1
 90
       50
176
     1
 90
        3
176
     1
 62
     5
420
      255
176
     1
290
     0
176
     1
 90
       50
176
     1
 90
       50
176
     1
 90
       50
176
     1
290
     0
176
     1
 90
       50
176
     1
 62
   256
176
     0
 40
1.0
176
     0
 90
        2
176
     1
  1
strokes_ogs.tif
176
     1
290
     0
176
     1
 40
1.0
176
     1
 40
1.0
176
     1
  0
VISUALSTYLE
  5
1A6
102
{ACAD_REACTORS
330
143
102
}
330
143
100
AcDbVisualStyle
  2
Shades of Gray
 70
    23
177
     3
291
     0
 70
    58
 90
        2
176
     1
 90
        2
176
     1
 90
        3
176
     1
 90
        0
176
     1
 40
0.6
176
     1
 40
30.0
176
     1
 62
     7
420
 16777215
176
     1
 90
        2
176
     1
 90
        2
176
     1
 62
     7
176
     1
 62
     7
176
     1
 90
        1
176
     1
 90
        1
176
     1
 40
40.0
176
     1
 90
        8
176
     1
 62
     7
176
     1
 40
1.0
176
     1
 90
        1
176
     1
 90
        6
176
     1
 90
        2
176
     1
 62
     7
176
     1
 90
        3
176
     1
 90
        0
176
     1
 90
        0
176
     1
290
     0
176
     1
 90
        1
176
     1
 40
0.0
176
     1
 90
        0
176
     1
290
     0
176
     1
290
     1
176
     1
290
     1
176
     1
290
     0
176
     1
290
     0
176
     1
290
     0
176
     1
290
     0
176
     1
290
     0
176
     1
290
     0
176
     1
 90
       50
176
     1
 40
0.0
176
     1
 40
1.0
176
     1
 90
        0
176
     1
 62
    18
420
        0
176
     1
 90
       50
176
     1
 90
        3
176
     1
 62
     5
420
      255
176
     1
290
     0
176
     1
 90
       50
176
     1
 90
       50
176
     1
 90
       50
176
     1
290
     0
176
     1
 90
       50
176
     1
 62
   256
176
     0
 40
1.0
176
     0
 90
        2
176
     1
  1
strokes_ogs.tif
176
     1
290
     0
176
     1
 40
1.0
176
     1
 40
1.0
176
     1
  0
VISUALSTYLE
  5
1A7
102
{ACAD_REACTORS
330
143
102
}
330
143
100
AcDbVisualStyle
  2
Sketchy
 70
    24
177
     3
291
     0
 70
    58
 90
        1
176
     1
 90
        2
176
     1
 90
        2
176
     1
 90
        0
176
     1
 40
0.6
176
     1
 40
30.0
176
     1
 62
     7
420
 16777215
176
     1
 90
        2
176
     1
 90
        2
176
     1
 62
     7
176
     1
 62
     7
176
     1
 90
        1
176
     1
 90
        1
176
     1
 40
40.0
176
     1
 90
       11
176
     1
 62
     7
176
     1
 40
1.0
176
     1
 90
        1
176
     1
 90
        6
176
     1
 90
        2
176
     1
 62
     7
176
     1
 90
        6
176
     1
 90
        0
176
     1
 90
        0
176
     1
290
     0
176
     1
 90
        1
176
     1
 40
0.0
176
     1
 90
        0
176
     1
290
     0
176
     1
290
     1
176
     1
290
     1
176
     1
290
     0
176
     1
290
     0
176
     1
290
     0
176
     1
290
     0
176
     1
290
     0
176
     1
290
     0
176
     1
 90
       50
176
     1
 40
0.0
176
     1
 40
1.0
176
     1
 90
        0
176
     1
 62
    18
420
        0
176
     1
 90
       50
176
     1
 90
        3
176
     1
 62
     5
420
      255
176
     1
290
     0
176
     1
 90
       50
176
     1
 90
       50
176
     1
 90
       50
176
     1
290
     0
176
     1
 90
       50
176
     1
 62
   256
176
     0
 40
1.0
176
     0
 90
        2
176
     1
  1
strokes_ogs.tif
176
     1
290
     0
176
     1
 40
1.0
176
     1
 40
1.0
176
     1
  0
VISUALSTYLE
  5
150
102
{ACAD_REACTORS
330
143
102
}
330
143
100
AcDbVisualStyle
  2
Thicken
 70
    13
177
     3
291
     1
 70
    58
 90
        2
176
     1
 90
        2
176
     1
 90
        0
176
     1
 90
        0
176
     1
 40
-0.6
176
     1
 40
-30.0
176
     1
 62
     7
176
     1
 90
        1
176
     1
 90
        4
176
     1
 62
     7
176
     1
 62
   257
176
     1
 90
        1
176
     1
 90
        1
176
     1
 40
1.0
176
     1
 90
       12
176
     1
 62
     7
176
     1
 40
1.0
176
     1
 90
        1
176
     1
 90
        6
176
     1
 90
        2
176
     1
 62
     7
176
     1
 90
        5
176
     1
 90
        0
176
     1
 90
        0
176
     1
290
     0
176
     1
 90
        1
176
     1
 40
0.0
176
     1
 90
        0
176
     1
290
     0
176
     1
290
     1
176
     1
290
     1
176
     1
290
     0
176
     1
290
     0
176
     1
290
     0
176
     1
290
     0
176
     1
290
     0
176
     1
290
     0
176
     1
 90
       50
176
     1
 40
0.0
176
     1
 40
1.0
176
     1
 90
        0
176
     1
 62
    18
420
        0
176
     1
 90
       50
176
     1
 90
        3
176
     1
 62
     5
420
      255
176
     1
290
     0
176
     1
 90
       50
176
     1
 90
       50
176
     1
 90
       50
176
     1
290
     0
176
     1
 90
       50
176
     1
 62
   256
176
     0
 40
1.0
176
     0
 90
        2
176
     1
  1
strokes_ogs.tif
176
     1
290
     0
176
     1
 40
1.0
176
     1
 40
1.0
176
     1
  0
VISUALSTYLE
  5
1A1
102
{ACAD_REACTORS
330
143
102
}
330
143
100
AcDbVisualStyle
  2
Wireframe
 70
     5
177
     3
291
     0
 70
    58
 90
        0
176
     1
 90
        2
176
     1
 90
        0
176
     1
 90
        0
176
     1
 40
0.6
176
     1
 40
30.0
176
     1
 62
     7
420
 16777215
176
     1
 90
        1
176
     1
 90
        4
176
     1
 62
     7
176
     1
 62
   257
176
     1
 90
        1
176
     1
 90
        1
176
     1
 40
1.0
176
     1
 90
        0
176
     1
 62
   257
176
     1
 40
1.0
176
     1
 90
        1
176
     1
 90
        6
176
     1
 90
        2
176
     1
 62
     7
176
     1
 90
        3
176
     1
 90
        0
176
     1
 90
        0
176
     1
290
     0
176
     1
 90
        1
176
     1
 40
0.0
176
     1
 90
        0
176
     1
290
     0
176
     1
290
     1
176
     1
290
     1
176
     1
290
     0
176
     1
290
     0
176
     1
290
     0
176
     1
290
     0
176
     1
290
     0
176
     1
290
     0
176
     1
 90
       50
176
     1
 40
0.0
176
     1
 40
1.0
176
     1
 90
        0
176
     1
 62
    18
420
        0
176
     1
 90
       50
176
     1
 90
        3
176
     1
 62
     5
420
      255
176
     1
290
     0
176
     1
 90
       50
176
     1
 90
       50
176
     1
 90
       50
176
     1
290
     0
176
     1
 90
       50
176
     1
 62
   256
176
     0
 40
1.0
176
     0
 90
        2
176
     1
  1
strokes_ogs.tif
176
     1
290
     0
176
     1
 40
1.0
176
     1
 40
1.0
176
     1
  0
VISUALSTYLE
  5
1A8
102
{ACAD_REACTORS
330
143
102
}
330
143
100
AcDbVisualStyle
  2
X-Ray
 70
    25
177
     3
291
     0
 70
    58
 90
        2
176
     1
 90
        2
176
     1
 90
        1
176
     1
 90
        1
176
     1
 40
0.5
176
     1
 40
30.0
176
     1
 62
     7
420
 16777215
176
     1
 90
        1
176
     1
 90
        0
176
     1
 62
     7
176
     1
 62
   257
176
     1
 90
        1
176
     1
 90
        1
176
     1
 40
1.0
176
     1
 90
        8
176
     1
 62
     7
176
     1
 40
1.0
176
     1
 90
        1
176
     1
 90
        6
176
     1
 90
        2
176
     1
 62
     7
176
     1
 90
        3
176
     1
 90
        0
176
     1
 90
        0
176
     1
290
     0
176
     1
 90
       13
176
     1
 40
0.0
176
     1
 90
        0
176
     1
290
     0
176
     1
290
     1
176
     1
290
     1
176
     1
290
     0
176
     1
290
     0
176
     1
290
     0
176
     1
290
     0
176
     1
290
     0
176
     1
290
     0
176
     1
 90
       50
176
     1
 40
0.0
176
     1
 40
1.0
176
     1
 90
        0
176
     1
 62
    18
420
        0
176
     1
 90
       50
176
     1
 90
        3
176
     1
 62
     5
420
      255
176
     1
290
     0
176
     1
 90
       50
176
     1
 90
       50
176
     1
 90
       50
176
     1
290
     0
176
     1
 90
       50
176
     1
 62
   256
176
     0
 40
1.0
176
     0
 90
        2
176
     1
  1
strokes_ogs.tif
176
     1
290
     0
176
     1
 40
1.0
176
     1
 40
1.0
176
     1
  0
DICTIONARYVAR
  5
1B9
102
{ACAD_REACTORS
330
160
102
}
330
160
100
DictionaryVariables
280
     0
  1
1:1
  0
DICTIONARYVAR
  5
1BB
102
{ACAD_REACTORS
330
160
102
}
330
160
100
DictionaryVariables
280
     0
  1
Standard
  0
DICTIONARYVAR
  5
1BA
102
{ACAD_REACTORS
330
160
102
}
330
160
100
DictionaryVariables
280
     0
  1
Standard
  0
DICTIONARYVAR
  5
164
102
{ACAD_REACTORS
330
160
102
}
330
160
100
DictionaryVariables
280
     0
  1
2
  0
DICTIONARYVAR
  5
165
102
{ACAD_REACTORS
330
160
102
}
330
160
100
DictionaryVariables
280
     0
  1
1
  0
DICTIONARYVAR
  5
163
102
{ACAD_REACTORS
330
160
102
}
330
160
100
DictionaryVariables
280
     0
  1
0
  0
DICTIONARY
  5
311
330
1AC
100
AcDbDictionary
280
     1
281
     1
  3
ACAD_ROUNDTRIP_2008_TABLESTYLE_CELLSTYLEMAP
360
312
  0
CELLSTYLEMAP
  5
312
102
{ACAD_REACTORS
330
311
102
}
330
311
100
AcDbCellStyleMap
 90
        3
300
CELLSTYLE
  1
TABLEFORMAT_BEGIN
 90
        5
170
     1
 91
        0
 92
    32768
 62
   257
 93
        1
300
CONTENTFORMAT
  1
CONTENTFORMAT_BEGIN
 90
        0
 91
        0
 92
        4
 93
        0
300

 40
0.0
140
1.0
 94
        5
 62
     0
340
11
144
0.25
309
CONTENTFORMAT_END
171
     1
301
MARGIN
  1
CELLMARGIN_BEGIN
 40
0.06
 40
0.06
 40
0.06
 40
0.06
 40
0.06
 40
0.06
309
CELLMARGIN_END
 94
        6
 95
        1
302
GRIDFORMAT
  1
GRIDFORMAT_BEGIN
 90
        0
 91
        1
 62
     0
 92
       -2
340
14
 93
        0
 40
0.045
309
GRIDFORMAT_END
 95
        2
302
GRIDFORMAT
  1
GRIDFORMAT_BEGIN
 90
        0
 91
        1
 62
     0
 92
       -2
340
14
 93
        0
 40
0.045
309
GRIDFORMAT_END
 95
        4
302
GRIDFORMAT
  1
GRIDFORMAT_BEGIN
 90
        0
 91
        1
 62
     0
 92
       -2
340
14
 93
        0
 40
0.045
309
GRIDFORMAT_END
 95
        8
302
GRIDFORMAT
  1
GRIDFORMAT_BEGIN
 90
        0
 91
        1
 62
     0
 92
       -2
340
14
 93
        0
 40
0.045
309
GRIDFORMAT_END
 95
       16
302
GRIDFORMAT
  1
GRIDFORMAT_BEGIN
 90
        0
 91
        1
 62
     0
 92
       -2
340
14
 93
        0
 40
0.045
309
GRIDFORMAT_END
 95
       32
302
GRIDFORMAT
  1
GRIDFORMAT_BEGIN
 90
        0
 91
        1
 62
     0
 92
       -2
340
14
 93
        0
 40
0.045
309
GRIDFORMAT_END
309
TABLEFORMAT_END
  1
CELLSTYLE_BEGIN
 90
        1
 91
        1
300
_TITLE
309
CELLSTYLE_END
300
CELLSTYLE
  1
TABLEFORMAT_BEGIN
 90
        5
170
     1
 91
        0
 92
        0
 62
   257
 93
        1
300
CONTENTFORMAT
  1
CONTENTFORMAT_BEGIN
 90
        0
 91
        0
 92
        4
 93
        0
300

 40
0.0
140
1.0
 94
        5
 62
     0
340
11
144
0.18
309
CONTENTFORMAT_END
171
     1
301
MARGIN
  1
CELLMARGIN_BEGIN
 40
0.06
 40
0.06
 40
0.06
 40
0.06
 40
0.06
 40
0.06
309
CELLMARGIN_END
 94
        6
 95
        1
302
GRIDFORMAT
  1
GRIDFORMAT_BEGIN
 90
        0
 91
        1
 62
     0
 92
       -2
340
14
 93
        0
 40
0.045
309
GRIDFORMAT_END
 95
        2
302
GRIDFORMAT
  1
GRIDFORMAT_BEGIN
 90
        0
 91
        1
 62
     0
 92
       -2
340
14
 93
        0
 40
0.045
309
GRIDFORMAT_END
 95
        4
302
GRIDFORMAT
  1
GRIDFORMAT_BEGIN
 90
        0
 91
        1
 62
     0
 92
       -2
340
14
 93
        0
 40
0.045
309
GRIDFORMAT_END
 95
        8
302
GRIDFORMAT
  1
GRIDFORMAT_BEGIN
 90
        0
 91
        1
 62
     0
 92
       -2
340
14
 93
        0
 40
0.045
309
GRIDFORMAT_END
 95
       16
302
GRIDFORMAT
  1
GRIDFORMAT_BEGIN
 90
        0
 91
        1
 62
     0
 92
       -2
340
14
 93
        0
 40
0.045
309
GRIDFORMAT_END
 95
       32
302
GRIDFORMAT
  1
GRIDFORMAT_BEGIN
 90
        0
 91
        1
 62
     0
 92
       -2
340
14
 93
        0
 40
0.045
309
GRIDFORMAT_END
309
TABLEFORMAT_END
  1
CELLSTYLE_BEGIN
 90
        2
 91
        1
300
_HEADER
309
CELLSTYLE_END
300
CELLSTYLE
  1
TABLEFORMAT_BEGIN
 90
        5
170
     1
 91
        0
 92
        0
 62
   257
 93
        1
300
CONTENTFORMAT
  1
CONTENTFORMAT_BEGIN
 90
        0
 91
        0
 92
        4
 93
        0
300

 40
0.0
140
1.0
 94
        2
 62
     0
340
11
144
0.18
309
CONTENTFORMAT_END
171
     1
301
MARGIN
  1
CELLMARGIN_BEGIN
 40
0.06
 40
0.06
 40
0.06
 40
0.06
 40
0.06
 40
0.06
309
CELLMARGIN_END
 94
        6
 95
        1
302
GRIDFORMAT
  1
GRIDFORMAT_BEGIN
 90
        0
 91
        1
 62
     0
 92
       -2
340
14
 93
        0
 40
0.045
309
GRIDFORMAT_END
 95
        2
302
GRIDFORMAT
  1
GRIDFORMAT_BEGIN
 90
        0
 91
        1
 62
     0
 92
       -2
340
14
 93
        0
 40
0.045
309
GRIDFORMAT_END
 95
        4
302
GRIDFORMAT
  1
GRIDFORMAT_BEGIN
 90
        0
 91
        1
 62
     0
 92
       -2
340
14
 93
        0
 40
0.045
309
GRIDFORMAT_END
 95
        8
302
GRIDFORMAT
  1
GRIDFORMAT_BEGIN
 90
        0
 91
        1
 62
     0
 92
       -2
340
14
 93
        0
 40
0.045
309
GRIDFORMAT_END
 95
       16
302
GRIDFORMAT
  1
GRIDFORMAT_BEGIN
 90
        0
 91
        1
 62
     0
 92
       -2
340
14
 93
        0
 40
0.045
309
GRIDFORMAT_END
 95
       32
302
GRIDFORMAT
  1
GRIDFORMAT_BEGIN
 90
        0
 91
        1
 62
     0
 92
       -2
340
14
 93
        0
 40
0.045
309
GRIDFORMAT_END
309
TABLEFORMAT_END
  1
CELLSTYLE_BEGIN
 90
        3
 91
        2
300
_DATA
309
CELLSTYLE_END
  0
ENDSEC
  0
EOF
