  0
SECTION
  2
HEADER
  9
$ACADVER
  1
AC1027
  9
$ACADMAINTVER
 70
   105
  9
$DWGCODEPAGE
  3
ANSI_1252
  9
$REQUIREDVERSIONS
160
                 0
  9
$LASTSAVEDBY
  1
matthias.ochs
  9
$INSBASE
 10
0.0
 20
0.0
 30
0.0
  9
$EXTMIN
 10
-16.09890007231205
 20
-117.7127027337753
 30
0.0
  9
$EXTMAX
 10
69.97656426671512
 20
132.0548666717955
 30
0.0
  9
$LIMMIN
 10
-240.410309919
 20
-103.236745587
  9
$LIMMAX
 10
282.115724011
 20
124.911183978
  9
$ORTHOMODE
 70
     0
  9
$REGENMODE
 70
     1
  9
$FILLMODE
 70
     1
  9
$QTEXTMODE
 70
     0
  9
$MIRRTEXT
 70
     1
  9
$LTSCALE
 40
1.0
  9
$ATTMODE
 70
     1
  9
$TEXTSIZE
 40
0.2
  9
$TRACEWID
 40
0.05
  9
$TEXTSTYLE
  7
Standard
  9
$CLAYER
  8
1
  9
$CELTYPE
  6
ByLayer
  9
$CECOLOR
 62
   256
  9
$CELTSCALE
 40
1.0
  9
$DISPSILH
 70
     0
  9
$DIMSCALE
 40
1.0
  9
$DIMASZ
 40
0.18
  9
$DIMEXO
 40
0.0625
  9
$DIMDLI
 40
0.38
  9
$DIMRND
 40
0.0
  9
$DIMDLE
 40
0.0
  9
$DIMEXE
 40
0.18
  9
$DIMTP
 40
0.0
  9
$DIMTM
 40
0.0
  9
$DIMTXT
 40
0.18
  9
$DIMCEN
 40
0.09
  9
$DIMTSZ
 40
0.0
  9
$DIMTOL
 70
     0
  9
$DIMLIM
 70
     0
  9
$DIMTIH
 70
     1
  9
$DIMTOH
 70
     1
  9
$DIMSE1
 70
     0
  9
$DIMSE2
 70
     0
  9
$DIMTAD
 70
     0
  9
$DIMZIN
 70
     0
  9
$DIMBLK
  1

  9
$DIMASO
 70
     1
  9
$DIMSHO
 70
     1
  9
$DIMPOST
  1

  9
$DIMAPOST
  1

  9
$DIMALT
 70
     0
  9
$DIMALTD
 70
     2
  9
$DIMALTF
 40
25.4
  9
$DIMLFAC
 40
1.0
  9
$DIMTOFL
 70
     0
  9
$DIMTVP
 40
0.0
  9
$DIMTIX
 70
     0
  9
$DIMSOXD
 70
     0
  9
$DIMSAH
 70
     0
  9
$DIMBLK1
  1

  9
$DIMBLK2
  1

  9
$DIMSTYLE
  2
Standard
  9
$DIMCLRD
 70
     0
  9
$DIMCLRE
 70
     0
  9
$DIMCLRT
 70
     0
  9
$DIMTFAC
 40
1.0
  9
$DIMGAP
 40
0.09
  9
$DIMJUST
 70
     0
  9
$DIMSD1
 70
     0
  9
$DIMSD2
 70
     0
  9
$DIMTOLJ
 70
     1
  9
$DIMTZIN
 70
     0
  9
$DIMALTZ
 70
     0
  9
$DIMALTTZ
 70
     0
  9
$DIMUPT
 70
     0
  9
$DIMDEC
 70
     4
  9
$DIMTDEC
 70
     4
  9
$DIMALTU
 70
     2
  9
$DIMALTTD
 70
     2
  9
$DIMTXSTY
  7
Standard
  9
$DIMAUNIT
 70
     0
  9
$DIMADEC
 70
     0
  9
$DIMALTRND
 40
0.0
  9
$DIMAZIN
 70
     0
  9
$DIMDSEP
 70
    46
  9
$DIMATFIT
 70
     3
  9
$DIMFRAC
 70
     0
  9
$DIMLDRBLK
  1

  9
$DIMLUNIT
 70
     2
  9
$DIMLWD
 70
    -2
  9
$DIMLWE
 70
    -2
  9
$DIMTMOVE
 70
     2
  9
$DIMFXL
 40
1.0
  9
$DIMFXLON
 70
     0
  9
$DIMJOGANG
 40
0.7853981633974483
  9
$DIMTFILL
 70
     0
  9
$DIMTFILLCLR
 70
     0
  9
$DIMARCSYM
 70
     0
  9
$DIMLTYPE
  6

  9
$DIMLTEX1
  6

  9
$DIMLTEX2
  6

  9
$DIMTXTDIRECTION
 70
     0
  9
$LUNITS
 70
     2
  9
$LUPREC
 70
     4
  9
$SKETCHINC
 40
0.1
  9
$FILLETRAD
 40
0.5
  9
$AUNITS
 70
     2
  9
$AUPREC
 70
     0
  9
$MENU
  1
.
  9
$ELEVATION
 40
0.0
  9
$PELEVATION
 40
0.0
  9
$THICKNESS
 40
0.0
  9
$LIMCHECK
 70
     0
  9
$CHAMFERA
 40
0.5
  9
$CHAMFERB
 40
0.5
  9
$CHAMFERC
 40
1.0
  9
$CHAMFERD
 40
0.0
  9
$SKPOLY
 70
     0
  9
$TDCREATE
 40
2458327.549337905
  9
$TDUCREATE
 40
2458327.466004572
  9
$TDUPDATE
 40
2458677.373181979
  9
$TDUUPDATE
 40
2458677.289848646
  9
$TDINDWG
 40
0.0051440162
  9
$TDUSRTIMER
 40
0.0026568981
  9
$USRTIMER
 70
     1
  9
$ANGBASE
 50
0.0
  9
$ANGDIR
 70
     0
  9
$PDMODE
 70
     0
  9
$PDSIZE
 40
0.0
  9
$PLINEWID
 40
0.0
  9
$SPLFRAME
 70
     0
  9
$SPLINETYPE
 70
     6
  9
$SPLINESEGS
 70
     8
  9
$HANDSEED
  5
284
  9
$SURFTAB1
 70
     6
  9
$SURFTAB2
 70
     6
  9
$SURFTYPE
 70
     6
  9
$SURFU
 70
     6
  9
$SURFV
 70
     6
  9
$UCSBASE
  2

  9
$UCSNAME
  2

  9
$UCSORG
 10
0.0
 20
0.0
 30
0.0
  9
$UCSXDIR
 10
1.0
 20
0.0
 30
0.0
  9
$UCSYDIR
 10
0.0
 20
1.0
 30
0.0
  9
$UCSORTHOREF
  2

  9
$UCSORTHOVIEW
 70
     0
  9
$UCSORGTOP
 10
0.0
 20
0.0
 30
0.0
  9
$UCSORGBOTTOM
 10
0.0
 20
0.0
 30
0.0
  9
$UCSORGLEFT
 10
0.0
 20
0.0
 30
0.0
  9
$UCSORGRIGHT
 10
0.0
 20
0.0
 30
0.0
  9
$UCSORGFRONT
 10
0.0
 20
0.0
 30
0.0
  9
$UCSORGBACK
 10
0.0
 20
0.0
 30
0.0
  9
$PUCSBASE
  2

  9
$PUCSNAME
  2

  9
$PUCSORG
 10
0.0
 20
0.0
 30
0.0
  9
$PUCSXDIR
 10
1.0
 20
0.0
 30
0.0
  9
$PUCSYDIR
 10
0.0
 20
1.0
 30
0.0
  9
$PUCSORTHOREF
  2

  9
$PUCSORTHOVIEW
 70
     0
  9
$PUCSORGTOP
 10
0.0
 20
0.0
 30
0.0
  9
$PUCSORGBOTTOM
 10
0.0
 20
0.0
 30
0.0
  9
$PUCSORGLEFT
 10
0.0
 20
0.0
 30
0.0
  9
$PUCSORGRIGHT
 10
0.0
 20
0.0
 30
0.0
  9
$PUCSORGFRONT
 10
0.0
 20
0.0
 30
0.0
  9
$PUCSORGBACK
 10
0.0
 20
0.0
 30
0.0
  9
$USERI1
 70
     0
  9
$USERI2
 70
     0
  9
$USERI3
 70
     0
  9
$USERI4
 70
     0
  9
$USERI5
 70
     0
  9
$USERR1
 40
0.0
  9
$USERR2
 40
0.0
  9
$USERR3
 40
0.0
  9
$USERR4
 40
0.0
  9
$USERR5
 40
0.0
  9
$WORLDVIEW
 70
     1
  9
$SHADEDGE
 70
     3
  9
$SHADEDIF
 70
    70
  9
$TILEMODE
 70
     1
  9
$MAXACTVP
 70
    64
  9
$PINSBASE
 10
0.0
 20
0.0
 30
0.0
  9
$PLIMCHECK
 70
     0
  9
$PEXTMIN
 10
1.000000000000000E+20
 20
1.000000000000000E+20
 30
1.000000000000000E+20
  9
$PEXTMAX
 10
-1.000000000000000E+20
 20
-1.000000000000000E+20
 30
-1.000000000000000E+20
  9
$PLIMMIN
 10
0.0
 20
0.0
  9
$PLIMMAX
 10
0.0
 20
0.0
  9
$UNITMODE
 70
     0
  9
$VISRETAIN
 70
     1
  9
$PLINEGEN
 70
     0
  9
$PSLTSCALE
 70
     1
  9
$TREEDEPTH
 70
  3020
  9
$CMLSTYLE
  2
Standard
  9
$CMLJUST
 70
     0
  9
$CMLSCALE
 40
1.0
  9
$PROXYGRAPHICS
 70
     1
  9
$MEASUREMENT
 70
     0
  9
$CELWEIGHT
370
    -1
  9
$ENDCAPS
280
     0
  9
$JOINSTYLE
280
     0
  9
$LWDISPLAY
290
     0
  9
$INSUNITS
 70
     0
  9
$HYPERLINKBASE
  1

  9
$STYLESHEET
  1

  9
$XEDIT
290
     1
  9
$CEPSNTYPE
380
     0
  9
$PSTYLEMODE
290
     1
  9
$FINGERPRINTGUID
  2
{67410E38-F5EA-4914-A825-15568B22B723}
  9
$VERSIONGUID
  2
{FAEB1C32-E019-11D5-929B-00C0DF256EC4}
  9
$EXTNAMES
290
     1
  9
$PSVPSCALE
 40
0.0
  9
$OLESTARTUP
290
     0
  9
$SORTENTS
280
   127
  9
$INDEXCTL
280
     0
  9
$HIDETEXT
280
     1
  9
$XCLIPFRAME
280
     2
  9
$HALOGAP
280
     0
  9
$OBSCOLOR
 70
   257
  9
$OBSLTYPE
280
     0
  9
$INTERSECTIONDISPLAY
280
     0
  9
$INTERSECTIONCOLOR
 70
   257
  9
$DIMASSOC
280
     2
  9
$PROJECTNAME
  1

  9
$CAMERADISPLAY
290
     0
  9
$LENSLENGTH
 40
50.0
  9
$CAMERAHEIGHT
 40
0.0
  9
$STEPSPERSEC
 40
2.0
  9
$STEPSIZE
 40
6.0
  9
$3DDWFPREC
 40
2.0
  9
$PSOLWIDTH
 40
0.25
  9
$PSOLHEIGHT
 40
4.0
  9
$LOFTANG1
 40
1.570796326794897
  9
$LOFTANG2
 40
1.570796326794897
  9
$LOFTMAG1
 40
0.0
  9
$LOFTMAG2
 40
0.0
  9
$LOFTPARAM
 70
     7
  9
$LOFTNORMALS
280
     1
  9
$LATITUDE
 40
37.795
  9
$LONGITUDE
 40
-122.394
  9
$NORTHDIRECTION
 40
0.0
  9
$TIMEZONE
 70
 -8000
  9
$LIGHTGLYPHDISPLAY
280
     1
  9
$TILEMODELIGHTSYNCH
280
     1
  9
$SOLIDHIST
280
     0
  9
$SHOWHIST
280
     1
  9
$DWFFRAME
280
     2
  9
$DGNFRAME
280
     2
  9
$REALWORLDSCALE
290
     1
  9
$INTERFERECOLOR
 62
   256
  9
$CSHADOW
280
     0
  9
$SHADOWPLANELOCATION
 40
0.0
  0
ENDSEC
  0
SECTION
  2
CLASSES
  0
CLASS
  1
ACDBDICTIONARYWDFLT
  2
AcDbDictionaryWithDefault
  3
ObjectDBX Classes
 90
        0
 91
       11
280
     0
281
     0
  0
CLASS
  1
SCALE
  2
AcDbScale
  3
ObjectDBX Classes
 90
     1153
 91
       11
280
     0
281
     0
  0
CLASS
  1
VISUALSTYLE
  2
AcDbVisualStyle
  3
ObjectDBX Classes
 90
     4095
 91
       11
280
     0
281
     0
  0
CLASS
  1
MATERIAL
  2
AcDbMaterial
  3
ObjectDBX Classes
 90
     1153
 91
       11
280
     0
281
     0
  0
CLASS
  1
DICTIONARYVAR
  2
AcDbDictionaryVar
  3
ObjectDBX Classes
 90
        0
 91
        9
280
     0
281
     0
  0
CLASS
  1
ACDBPLACEHOLDER
  2
AcDbPlaceHolder
  3
ObjectDBX Classes
 90
        0
 91
        1
280
     0
281
     0
  0
CLASS
  1
LAYOUT
  2
AcDbLayout
  3
ObjectDBX Classes
 90
        0
 91
        1
280
     0
281
     0
  0
CLASS
  1
TABLESTYLE
  2
AcDbTableStyle
  3
ObjectDBX Classes
 90
     4095
 91
       11
280
     0
281
     0
  0
CLASS
  1
MLEADERSTYLE
  2
AcDbMLeaderStyle
  3
ACDB_MLEADERSTYLE_CLASS
 90
     4095
 91
       11
280
     0
281
     0
  0
CLASS
  1
SUN
  2
AcDbSun
  3
SCENEOE
 90
     1153
 91
       11
280
     0
281
     0
  0
CLASS
  1
CELLSTYLEMAP
  2
AcDbCellStyleMap
  3
ObjectDBX Classes
 90
     1152
 91
        7
280
     0
281
     0
  0
ENDSEC
  0
SECTION
  2
TABLES
  0
TABLE
  2
VPORT
  5
8
330
0
100
AcDbSymbolTable
 70
     1
  0
VPORT
  5
139
330
8
100
AcDbSymbolTableRecord
100
AcDbViewportTableRecord
  2
*Active
 70
     0
 10
0.0
 20
0.0
 11
1.0
 21
1.0
 12
-21.89445604967805
 22
21.99567018578207
 13
0.0
 23
0.0
 14
0.5
 24
0.5
 15
0.5
 25
0.5
 16
0.0
 26
0.0
 36
1.0
 17
0.0
 27
0.0
 37
0.0
 40
491.0619789209462
 41
1.831002331002331
 42
50.0
 43
0.0
 44
0.0
 50
0.0
 51
0.0
 71
    16
 72
   100
 73
     1
 74
     3
 75
     0
 76
     0
 77
     0
 78
     0
281
     0
 65
     1
110
0.0
120
0.0
130
0.0
111
1.0
121
0.0
131
0.0
112
0.0
122
1.0
132
0.0
 79
     0
146
0.0
348
16A
 60
     3
 61
     5
292
     1
282
     1
141
0.0
142
0.0
 63
   256
361
22F
  0
ENDTAB
  0
TABLE
  2
LTYPE
  5
5
330
0
100
AcDbSymbolTable
 70
     8
  0
LTYPE
  5
14
330
5
100
AcDbSymbolTableRecord
100
AcDbLinetypeTableRecord
  2
ByBlock
 70
     0
  3

 72
    65
 73
     0
 40
0.0
  0
LTYPE
  5
15
330
5
100
AcDbSymbolTableRecord
100
AcDbLinetypeTableRecord
  2
ByLayer
 70
     0
  3

 72
    65
 73
     0
 40
0.0
  0
LTYPE
  5
16
330
5
100
AcDbSymbolTableRecord
100
AcDbLinetypeTableRecord
  2
Continuous
 70
     0
  3
Solid line
 72
    65
 73
     0
 40
0.0
  0
LTYPE
  5
20
330
5
100
AcDbSymbolTableRecord
100
AcDbLinetypeTableRecord
  2
PUNKT
 70
     0
  3
..............
 72
    65
 73
     2
 40
1.5
 49
0.7
 74
     0
 49
-0.8
 74
     0
  0
LTYPE
  5
21
330
5
100
AcDbSymbolTableRecord
100
AcDbLinetypeTableRecord
  2
GESTRICHELT
 70
     0
  3
-- -- -- -- --
 72
    65
 73
     7
 40
2.8
 49
0.9
 74
     0
 49
0.0
 74
     0
 49
0.9
 74
     0
 49
0.0
 74
     0
 49
0.2
 74
     0
 49
0.0
 74
     0
 49
-0.8
 74
     0
  0
LTYPE
  5
22
330
5
100
AcDbSymbolTableRecord
100
AcDbLinetypeTableRecord
  2
STRICHPUNKT
 70
     0
  3
--.--.--.--.--
 72
    65
 73
     4
 40
8.8
 49
5.5
 74
     0
 49
-1.3
 74
     0
 49
0.7
 74
     0
 49
-1.3
 74
     0
  0
LTYPE
  5
25
330
5
100
AcDbSymbolTableRecord
100
AcDbLinetypeTableRecord
  2
PHANTOM
 70
     0
  3
--..--..--..--
 72
    65
 73
     6
 40
14.2
 49
7.0
 74
     0
 49
-1.8
 74
     0
 49
0.9
 74
     0
 49
-1.8
 74
     0
 49
0.9
 74
     0
 49
-1.8
 74
     0
  0
LTYPE
  5
1B1
330
5
100
AcDbSymbolTableRecord
100
AcDbLinetypeTableRecord
  2
DASH
 70
     0
  3
DASH _ _ _ _ _
 72
    65
 73
     2
 40
0.75
 49
0.4
 74
     0
 49
-0.35
 74
     0
  0
LTYPE
  5
1B2
330
5
100
AcDbSymbolTableRecord
100
AcDbLinetypeTableRecord
  2
LONGDASH_DASH
 70
     0
  3
LONGDASH_DASH __ . __ . __
 72
    65
 73
     4
 40
0.85
 49
0.4
 74
     0
 49
-0.2
 74
     0
 49
0.05
 74
     0
 49
-0.2
 74
     0
  0
LTYPE
  5
1B3
330
5
100
AcDbSymbolTableRecord
100
AcDbLinetypeTableRecord
  2
LONGDASH_DASH_DASH
 70
     0
  3
LONGDASH_DASH_DASH __ . . __ . . __
 72
    65
 73
     6
 40
1.1
 49
0.4
 74
     0
 49
-0.2
 74
     0
 49
0.05
 74
     0
 49
-0.2
 74
     0
 49
0.05
 74
     0
 49
-0.2
 74
     0
  0
ENDTAB
  0
TABLE
  2
LAYER
  5
2
102
{ACAD_XDICTIONARY
360
1D0
102
}
330
0
100
AcDbSymbolTable
 70
    15
  0
LAYER
  5
17B
330
2
100
AcDbSymbolTableRecord
100
AcDbLayerTableRecord
  2
200
 70
     0
 62
     2
  6
Continuous
370
    50
390
F
347
179
348
0
  0
LAYER
  5
1B4
330
2
100
AcDbSymbolTableRecord
100
AcDbLayerTableRecord
  2
0
 70
     0
 62
     1
  6
Continuous
370
    -3
390
F
347
179
348
0
  0
LAYER
  5
1B5
330
2
100
AcDbSymbolTableRecord
100
AcDbLayerTableRecord
  2
1
 70
     0
 62
     4
  6
Continuous
370
    50
390
F
347
179
348
0
  0
LAYER
  5
1B6
330
2
100
AcDbSymbolTableRecord
100
AcDbLayerTableRecord
  2
2
 70
     0
 62
     7
  6
Continuous
370
    25
390
F
347
179
348
0
  0
LAYER
  5
1B7
330
2
100
AcDbSymbolTableRecord
100
AcDbLayerTableRecord
  2
3
 70
     0
 62
     1
  6
DASH
370
    35
390
F
347
179
348
0
  0
LAYER
  5
1B8
330
2
100
AcDbSymbolTableRecord
100
AcDbLayerTableRecord
  2
4
 70
     0
 62
     2
  6
LONGDASH_DASH
370
    25
390
F
347
179
348
0
  0
LAYER
  5
1B9
330
2
100
AcDbSymbolTableRecord
100
AcDbLayerTableRecord
  2
6
 70
     0
 62
     5
  6
Continuous
370
    -3
390
F
347
179
348
0
  0
LAYER
  5
1BA
330
2
100
AcDbSymbolTableRecord
100
AcDbLayerTableRecord
  2
CUT
 70
     0
 62
     1
  6
Continuous
370
    25
390
F
347
179
348
0
  0
LAYER
  5
1BB
330
2
100
AcDbSymbolTableRecord
100
AcDbLayerTableRecord
  2
NOCUT
 70
     0
 62
     7
  6
Continuous
370
    25
390
F
347
179
348
0
  0
LAYER
  5
1BC
330
2
100
AcDbSymbolTableRecord
100
AcDbLayerTableRecord
  2
SK1
 70
     0
 62
     4
  6
Continuous
370
    50
390
F
347
179
348
0
  0
LAYER
  5
1BD
330
2
100
AcDbSymbolTableRecord
100
AcDbLayerTableRecord
  2
SK2
 70
     0
 62
     7
  6
Continuous
370
    25
390
F
347
179
348
0
  0
LAYER
  5
1BE
330
2
100
AcDbSymbolTableRecord
100
AcDbLayerTableRecord
  2
SK3
 70
     0
 62
     1
  6
DASH
370
    35
390
F
347
179
348
0
  0
LAYER
  5
1BF
330
2
100
AcDbSymbolTableRecord
100
AcDbLayerTableRecord
  2
SK4
 70
     0
 62
     2
  6
LONGDASH_DASH
370
    25
390
F
347
179
348
0
  0
LAYER
  5
1C0
330
2
100
AcDbSymbolTableRecord
100
AcDbLayerTableRecord
  2
SK6
 70
     0
 62
     5
  6
Continuous
370
    -3
390
F
347
179
348
0
  0
LAYER
  5
1C1
330
2
100
AcDbSymbolTableRecord
100
AcDbLayerTableRecord
  2
INFTOTAL
 70
     0
 62
     9
  6
Continuous
370
    18
390
F
347
179
348
0
  0
ENDTAB
  0
TABLE
  2
STYLE
  5
3
330
0
100
AcDbSymbolTable
 70
     2
  0
STYLE
  5
11
330
3
100
AcDbSymbolTableRecord
100
AcDbTextStyleTableRecord
  2
Standard
 70
     0
 40
0.0
 41
1.0
 50
0.0
 71
     0
 42
0.2
  3
txt
  4

  0
STYLE
  5
17A
330
3
100
AcDbSymbolTableRecord
100
AcDbTextStyleTableRecord
  2
BMG_Text
 70
     0
 40
3.5
 41
1.0
 50
0.0
 71
     0
 42
0.2
  3
monos.ttf
  4

1001
ACAD
1000
Monospac821 BT
1071
       49
  0
ENDTAB
  0
TABLE
  2
VIEW
  5
6
330
0
100
AcDbSymbolTable
 70
     0
  0
ENDTAB
  0
TABLE
  2
UCS
  5
7
330
0
100
AcDbSymbolTable
 70
     0
  0
ENDTAB
  0
TABLE
  2
APPID
  5
9
330
0
100
AcDbSymbolTable
 70
     1
  0
APPID
  5
12
330
9
100
AcDbSymbolTableRecord
100
AcDbRegAppTableRecord
  2
ACAD
 70
     0
  0
ENDTAB
  0
TABLE
  2
DIMSTYLE
  5
A
330
0
100
AcDbSymbolTable
 70
     1
100
AcDbDimStyleTable
  0
DIMSTYLE
105
28
330
A
100
AcDbSymbolTableRecord
100
AcDbDimStyleTableRecord
  2
Standard
 70
     0
178
     0
340
11
  0
ENDTAB
  0
TABLE
  2
BLOCK_RECORD
  5
1
330
0
100
AcDbSymbolTable
 70
     0
  0
BLOCK_RECORD
  5
1D
330
1
100
AcDbSymbolTableRecord
100
AcDbBlockTableRecord
  2
*Model_Space
340
1E
 70
     0
280
     1
281
     0
  0
BLOCK_RECORD
  5
1B
330
1
100
AcDbSymbolTableRecord
100
AcDbBlockTableRecord
  2
*Paper_Space
340
1C
 70
     0
280
     1
281
     0
  0
ENDTAB
  0
ENDSEC
  0
SECTION
  2
BLOCKS
  0
BLOCK
  5
163
330
1D
100
AcDbEntity
  8
0
100
AcDbBlockBegin
  2
*Model_Space
 70
     0
 10
0.0
 20
0.0
 30
0.0
  3
*Model_Space
  1

  0
ENDBLK
  5
164
330
1D
100
AcDbEntity
  8
0
100
AcDbBlockEnd
  0
BLOCK
  5
161
330
1B
100
AcDbEntity
 67
     1
  8
0
100
AcDbBlockBegin
  2
*Paper_Space
 70
     0
 10
0.0
 20
0.0
 30
0.0
  3
*Paper_Space
  1

  0
ENDBLK
  5
162
330
1B
100
AcDbEntity
 67
     1
  8
0
100
AcDbBlockEnd
  0
ENDSEC
  0
SECTION
  2
ENTITIES
  0
LINE
  5
29
330
1D
100
AcDbEntity
  8
1
100
AcDbLine
 10
26.14999935
 20
-67.599998312
 30
0.0
 11
26.14999935
 21
-71.316523483
 31
0.0
  0
LINE
  5
2A
330
1D
100
AcDbEntity
  8
1
100
AcDbLine
 10
24.450000375
 20
-34.500000523
 30
0.0
 11
25.200000033
 21
-35.250000181
 31
0.0
  0
LINE
  5
2B
330
1D
100
AcDbEntity
  8
1
100
AcDbLine
 10
25.200000033
 20
-35.250000181
 30
0.0
 11
25.200000033
 21
-52.600001441
 31
0.0
  0
LINE
  5
2C
330
1D
100
AcDbEntity
  8
1
100
AcDbLine
 10
25.200000033
 20
-64.400000023
 30
0.0
 11
25.200000033
 21
-67.599998312
 31
0.0
  0
LINE
  5
2D
330
1D
100
AcDbEntity
  8
1
100
AcDbLine
 10
24.450000375
 20
-32.500000196
 30
0.0
 11
24.450000375
 21
-34.500000523
 31
0.0
  0
LINE
  5
2E
330
1D
100
AcDbEntity
  8
1
100
AcDbLine
 10
25.100000203
 20
-52.500001611
 30
0.0
 11
26.100000367
 21
-53.500001775
 31
0.0
  0
LINE
  5
2F
330
1D
100
AcDbEntity
  8
1
100
AcDbLine
 10
26.100000367
 20
-63.499999689
 30
0.0
 11
25.100000203
 21
-64.499999853
 31
0.0
  0
LINE
  5
30
330
1D
100
AcDbEntity
  8
1
100
AcDbLine
 10
40.500000119
 20
-49.000000106
 30
0.0
 11
31.500000507
 21
-49.000000106
 31
0.0
  0
LINE
  5
31
330
1D
100
AcDbEntity
  8
1
100
AcDbLine
 10
31.500000507
 20
-32.999999346
 30
0.0
 11
40.500000119
 21
-32.999999346
 31
0.0
  0
ARC
  5
32
330
1D
100
AcDbEntity
  8
1
100
AcDbCircle
 10
40.5
 20
-47.999999987
 30
0.0
 40
1.0
100
AcDbArc
 50
270.0
 51
0.0
  0
ARC
  5
33
330
1D
100
AcDbEntity
  8
1
100
AcDbCircle
 10
40.5
 20
-33.999999987
 30
0.0
 40
1.0
100
AcDbArc
 50
0.0
 51
90.0
  0
LINE
  5
34
330
1D
100
AcDbEntity
  8
1
100
AcDbLine
 10
29.500000179
 20
-46.000001477
 30
0.0
 11
25.200000033
 21
-46.000001477
 31
0.0
  0
LINE
  5
35
330
1D
100
AcDbEntity
  8
1
100
AcDbLine
 10
25.200000033
 20
-35.999999838
 30
0.0
 11
29.500000179
 21
-35.999999838
 31
0.0
  0
LINE
  5
36
330
1D
100
AcDbEntity
  8
1
100
AcDbLine
 10
40.500000119
 20
-83.000001954
 30
0.0
 11
31.500000507
 21
-83.000001954
 31
0.0
  0
LINE
  5
37
330
1D
100
AcDbEntity
  8
1
100
AcDbLine
 10
31.500000507
 20
-66.999999331
 30
0.0
 11
40.500000119
 21
-66.999999331
 31
0.0
  0
ARC
  5
38
330
1D
100
AcDbEntity
  8
1
100
AcDbCircle
 10
40.5
 20
-81.999999987
 30
0.0
 40
1.0
100
AcDbArc
 50
270.0
 51
0.0
  0
ARC
  5
39
330
1D
100
AcDbEntity
  8
1
100
AcDbCircle
 10
40.5
 20
-67.999999987
 30
0.0
 40
1.0
100
AcDbArc
 50
0.0
 51
90.0
  0
LINE
  5
3A
330
1D
100
AcDbEntity
  8
1
100
AcDbLine
 10
29.500000179
 20
-80.000003325
 30
0.0
 11
21.999999881
 21
-80.000003325
 31
0.0
  0
LINE
  5
3B
330
1D
100
AcDbEntity
  8
1
100
AcDbLine
 10
26.14999935
 20
-70.000001686
 30
0.0
 11
29.500000179
 21
-70.000001686
 31
0.0
  0
LINE
  5
3C
330
1D
100
AcDbEntity
  8
1
100
AcDbLine
 10
29.500000179
 20
-66.099998997
 30
0.0
 11
31.500000507
 21
-66.099998997
 31
0.0
  0
LINE
  5
3D
330
1D
100
AcDbEntity
  8
1
100
AcDbLine
 10
31.500000507
 20
-83.900002288
 30
0.0
 11
29.500000179
 21
-83.900002288
 31
0.0
  0
LINE
  5
3E
330
1D
100
AcDbEntity
  8
1
100
AcDbLine
 10
29.500000179
 20
-32.100000875
 30
0.0
 11
31.500000507
 21
-32.100000875
 31
0.0
  0
LINE
  5
3F
330
1D
100
AcDbEntity
  8
1
100
AcDbLine
 10
31.500000507
 20
-49.90000044
 30
0.0
 11
29.500000179
 21
-49.90000044
 31
0.0
  0
LINE
  5
40
330
1D
100
AcDbEntity
  8
1
100
AcDbLine
 10
1.000000048
 20
-101.000001179
 30
0.0
 11
0.0
 21
-99.999999152
 31
0.0
  0
LINE
  5
41
330
1D
100
AcDbEntity
  8
1
100
AcDbLine
 10
16.00000076
 20
-101.000001179
 30
0.0
 11
1.000000048
 21
-101.000001179
 31
0.0
  0
ARC
  5
42
330
1D
100
AcDbEntity
  8
SK1
100
AcDbCircle
 10
-4.5
 20
-34.749999987
 30
0.0
 40
1.5
100
AcDbArc
 50
180.0
 51
270.0
  0
ARC
  5
43
330
1D
100
AcDbEntity
  8
SK1
100
AcDbCircle
 10
-4.5
 20
-29.749999987
 30
0.0
 40
1.5
100
AcDbArc
 50
90.0
 51
180.0
  0
LINE
  5
44
330
1D
100
AcDbEntity
  8
SK1
100
AcDbLine
 10
0.0
 20
-36.250000345
 30
0.0
 11
-4.499999806
 21
-36.250000345
 31
0.0
  0
LINE
  5
45
330
1D
100
AcDbEntity
  8
SK1
100
AcDbLine
 10
-4.499999806
 20
-28.250000896
 30
0.0
 11
0.0
 21
-28.250000896
 31
0.0
  0
LINE
  5
46
330
1D
100
AcDbEntity
  8
SK1
100
AcDbLine
 10
0.0
 20
-53.749998556
 30
0.0
 11
-4.499999806
 21
-53.749998556
 31
0.0
  0
LINE
  5
47
330
1D
100
AcDbEntity
  8
SK1
100
AcDbLine
 10
-4.499999806
 20
-45.75000097
 30
0.0
 11
0.0
 21
-45.75000097
 31
0.0
  0
ARC
  5
48
330
1D
100
AcDbEntity
  8
SK1
100
AcDbCircle
 10
-4.5
 20
-52.249999987
 30
0.0
 40
1.5
100
AcDbArc
 50
180.0
 51
270.0
  0
ARC
  5
49
330
1D
100
AcDbEntity
  8
SK1
100
AcDbCircle
 10
-4.5
 20
-47.249999987
 30
0.0
 40
1.5
100
AcDbArc
 50
90.0
 51
180.0
  0
LINE
  5
4A
330
1D
100
AcDbEntity
  8
SK1
100
AcDbLine
 10
0.0
 20
-71.249996768
 30
0.0
 11
-4.499999806
 21
-71.249996768
 31
0.0
  0
LINE
  5
4B
330
1D
100
AcDbEntity
  8
SK1
100
AcDbLine
 10
-4.499999806
 20
-63.249999182
 30
0.0
 11
0.0
 21
-63.249999182
 31
0.0
  0
ARC
  5
4C
330
1D
100
AcDbEntity
  8
SK1
100
AcDbCircle
 10
-4.5
 20
-69.749999987
 30
0.0
 40
1.5
100
AcDbArc
 50
180.0
 51
270.0
  0
ARC
  5
4D
330
1D
100
AcDbEntity
  8
SK1
100
AcDbCircle
 10
-4.5
 20
-64.749999987
 30
0.0
 40
1.5
100
AcDbArc
 50
90.0
 51
180.0
  0
LINE
  5
4E
330
1D
100
AcDbEntity
  8
SK1
100
AcDbLine
 10
0.0
 20
-27.499999376
 30
0.0
 11
-9.600000456
 21
-27.499999376
 31
0.0
  0
LINE
  5
4F
330
1D
100
AcDbEntity
  8
SK1
100
AcDbLine
 10
-9.600000456
 20
-19.499999927
 30
0.0
 11
0.0
 21
-19.499999927
 31
0.0
  0
LINE
  5
50
330
1D
100
AcDbEntity
  8
SK1
100
AcDbLine
 10
-9.600000456
 20
-27.499999376
 30
0.0
 11
-10.499999858
 21
-26.600000905
 31
0.0
  0
LINE
  5
51
330
1D
100
AcDbEntity
  8
SK1
100
AcDbLine
 10
-10.499999858
 20
-20.400000261
 30
0.0
 11
-9.600000456
 21
-19.499999927
 31
0.0
  0
LINE
  5
52
330
1D
100
AcDbEntity
  8
SK1
100
AcDbLine
 10
0.0
 20
-62.500001388
 30
0.0
 11
-9.600000456
 21
-62.500001388
 31
0.0
  0
LINE
  5
53
330
1D
100
AcDbEntity
  8
SK1
100
AcDbLine
 10
-9.600000456
 20
-54.500000076
 30
0.0
 11
0.0
 21
-54.500000076
 31
0.0
  0
LINE
  5
54
330
1D
100
AcDbEntity
  8
SK1
100
AcDbLine
 10
-9.600000456
 20
-62.500001388
 30
0.0
 11
-10.499999858
 21
-61.600001054
 31
0.0
  0
LINE
  5
55
330
1D
100
AcDbEntity
  8
SK1
100
AcDbLine
 10
-10.499999858
 20
-55.40000041
 30
0.0
 11
-9.600000456
 21
-54.500000076
 31
0.0
  0
LINE
  5
56
330
1D
100
AcDbEntity
  8
1
100
AcDbLine
 10
21.999999881
 20
-67.599998312
 30
0.0
 11
26.14999935
 21
-67.599998312
 31
0.0
  0
LINE
  5
57
330
1D
100
AcDbEntity
  8
1
100
AcDbLine
 10
21.999999881
 20
-34.500000523
 30
0.0
 11
24.450000375
 21
-34.500000523
 31
0.0
  0
LINE
  5
58
330
1D
100
AcDbEntity
  8
1
100
AcDbLine
 10
21.999999881
 20
-35.250000181
 30
0.0
 11
25.200000033
 21
-35.250000181
 31
0.0
  0
LINE
  5
59
330
1D
100
AcDbEntity
  8
1
100
AcDbLine
 10
21.999999881
 20
-32.500000196
 30
0.0
 11
24.450000375
 21
-32.500000196
 31
0.0
  0
LINE
  5
5A
330
1D
100
AcDbEntity
  8
1
100
AcDbLine
 10
25.100000203
 20
-52.500001611
 30
0.0
 11
25.100000203
 21
-64.499999853
 31
0.0
  0
LINE
  5
5B
330
1D
100
AcDbEntity
  8
1
100
AcDbLine
 10
21.999999881
 20
-62.468626993
 30
0.0
 11
25.100000203
 21
-62.468626993
 31
0.0
  0
LINE
  5
5C
330
1D
100
AcDbEntity
  8
1
100
AcDbLine
 10
25.100000203
 20
-54.531374471
 30
0.0
 11
21.999999881
 21
-54.531374471
 31
0.0
  0
LINE
  5
5E
330
1D
100
AcDbEntity
  8
1
100
AcDbLine
 10
26.100000367
 20
-54.929287629
 30
0.0
 11
25.100000203
 21
-54.531374471
 31
0.0
  0
LINE
  5
61
330
1D
100
AcDbEntity
  8
1
100
AcDbLine
 10
25.100000203
 20
-62.468626993
 30
0.0
 11
26.100000367
 21
-62.070713835
 31
0.0
  0
LINE
  5
63
330
1D
100
AcDbEntity
  8
1
100
AcDbLine
 10
26.100000367
 20
-63.499999689
 30
0.0
 11
26.100000367
 21
-53.500001775
 31
0.0
  0
LINE
  5
64
330
1D
100
AcDbEntity
  8
1
100
AcDbLine
 10
41.49999842
 20
-48.000001805
 30
0.0
 11
41.49999842
 21
-33.99999951
 31
0.0
  0
LINE
  5
65
330
1D
100
AcDbEntity
  8
1
100
AcDbLine
 10
41.49999842
 20
-81.999999927
 30
0.0
 11
41.49999842
 21
-68.000001358
 31
0.0
  0
LINE
  5
66
330
1D
100
AcDbEntity
  8
1
100
AcDbLine
 10
31.500000507
 20
-66.099998997
 30
0.0
 11
31.500000507
 21
-83.900002288
 31
0.0
  0
LINE
  5
67
330
1D
100
AcDbEntity
  8
1
100
AcDbLine
 10
29.500000179
 20
-66.099998997
 30
0.0
 11
29.500000179
 21
-83.900002288
 31
0.0
  0
LINE
  5
68
330
1D
100
AcDbEntity
  8
1
100
AcDbLine
 10
29.500000179
 20
-32.100000875
 30
0.0
 11
29.500000179
 21
-49.90000044
 31
0.0
  0
LINE
  5
69
330
1D
100
AcDbEntity
  8
1
100
AcDbLine
 10
31.500000507
 20
-32.100000875
 30
0.0
 11
31.500000507
 21
-49.90000044
 31
0.0
  0
LINE
  5
6C
330
1D
100
AcDbEntity
  8
1
100
AcDbLine
 10
21.50000073
 20
-9.000000011
 30
0.0
 11
1.000000048
 21
-9.000000011
 31
0.0
  0
LINE
  5
6E
330
1D
100
AcDbEntity
  8
1
100
AcDbLine
 10
0.0
 20
-10.0
 30
0.0
 11
1.000000048
 21
-9.000000011
 31
0.0
  0
LINE
  5
73
330
1D
100
AcDbEntity
  8
1
100
AcDbLine
 10
21.999999881
 20
-9.500000035
 30
0.0
 11
21.50000073
 21
-9.000000011
 31
0.0
  0
LINE
  5
75
330
1D
100
AcDbEntity
  8
1
100
AcDbLine
 10
1.000000048
 20
-58.500000732
 30
0.0
 11
4.999999888
 21
-57.499998706
 31
0.0
  0
LINE
  5
76
330
1D
100
AcDbEntity
  8
1
100
AcDbLine
 10
4.999999888
 20
-57.499998706
 30
0.0
 11
4.999999888
 21
-59.499999033
 31
0.0
  0
LINE
  5
77
330
1D
100
AcDbEntity
  8
1
100
AcDbLine
 10
4.999999888
 20
-59.499999033
 30
0.0
 11
1.000000048
 21
-58.500000732
 31
0.0
  0
LINE
  5
7D
330
1D
100
AcDbEntity
  8
1
100
AcDbLine
 10
21.50000073
 20
-9.000000011
 30
0.0
 11
21.50000073
 21
-99.507404016
 31
0.0
  0
LINE
  5
7E
330
1D
100
AcDbEntity
  8
1
100
AcDbLine
 10
21.50000073
 20
-99.507404016
 30
0.0
 11
21.999999881
 21
-98.906291174
 31
0.0
  0
LINE
  5
7F
330
1D
100
AcDbEntity
  8
1
100
AcDbLine
 10
21.999999881
 20
-98.906291174
 30
0.0
 11
21.999999881
 21
-9.500000035
 31
0.0
  0
LINE
  5
80
330
1D
100
AcDbEntity
  8
1
100
AcDbLine
 10
1.000000048
 20
-101.000001179
 30
0.0
 11
1.000000048
 21
-9.000000010999997
 31
0.0
  0
LINE
  5
81
330
1D
100
AcDbEntity
  8
1
100
AcDbLine
 10
0.0
 20
-10.0
 30
0.0
 11
0.0
 21
-99.999999152
 31
0.0
  0
LINE
  5
82
330
1D
100
AcDbEntity
  8
1
100
AcDbLine
 10
16.00000076
 20
-99.543546783
 30
0.0
 11
16.00000076
 21
-101.000001179
 31
0.0
  0
ARC
  5
83
330
1D
100
AcDbEntity
  8
1
100
AcDbCircle
 10
16.145001123
 20
-99.774490411
 30
0.0
 40
0.272690419
100
AcDbArc
 50
78.36411842
 51
122.123085263
  0
LINE
  5
84
330
1D
100
AcDbEntity
  8
1
100
AcDbLine
 10
21.50000073
 20
-99.507404016
 30
0.0
 11
16.20000042
 21
-99.507404016
 31
0.0
  0
LINE
  5
85
330
1D
100
AcDbEntity
  8
SK1
100
AcDbLine
 10
-6.000000052
 20
-29.750000211
 30
0.0
 11
-6.000000052
 21
-34.749999167
 31
0.0
  0
LINE
  5
86
330
1D
100
AcDbEntity
  8
SK1
100
AcDbLine
 10
-6.000000052
 20
-47.250000285
 30
0.0
 11
-6.000000052
 21
-52.249999242
 31
0.0
  0
LINE
  5
87
330
1D
100
AcDbEntity
  8
SK1
100
AcDbLine
 10
-6.000000052
 20
-64.749998497
 30
0.0
 11
-6.000000052
 21
-69.750001179
 31
0.0
  0
LINE
  5
89
330
1D
100
AcDbEntity
  8
SK1
100
AcDbLine
 10
-9.600000456
 20
-27.499999376
 30
0.0
 11
-9.600000456
 21
-19.499999927
 31
0.0
  0
LINE
  5
8B
330
1D
100
AcDbEntity
  8
SK1
100
AcDbLine
 10
-10.499999858
 20
-26.600000905
 30
0.0
 11
-10.499999858
 21
-20.400000261
 31
0.0
  0
LINE
  5
8D
330
1D
100
AcDbEntity
  8
SK1
100
AcDbLine
 10
-9.600000456
 20
-62.500001388
 30
0.0
 11
-9.600000456
 21
-54.500000076
 31
0.0
  0
LINE
  5
8F
330
1D
100
AcDbEntity
  8
SK1
100
AcDbLine
 10
-10.499999858
 20
-61.600001054
 30
0.0
 11
-10.499999858
 21
-55.40000041
 31
0.0
  0
LINE
  5
91
330
1D
100
AcDbEntity
  8
1
100
AcDbLine
 10
21.999999881
 20
-12.999999793
 30
0.0
 11
0.0
 21
-12.999999793
 31
0.0
  0
LINE
  5
93
330
1D
100
AcDbEntity
  8
1
100
AcDbLine
 10
21.50000073
 20
-95.5233029
 30
0.0
 11
21.999999881
 21
-95.052910494
 31
0.0
  0
LINE
  5
94
330
1D
100
AcDbEntity
  8
1
100
AcDbLine
 10
1.000000048
 20
-95.5233029
 30
0.0
 11
0.0
 21
-94.582510637
 31
0.0
  0
LINE
  5
95
330
1D
100
AcDbEntity
  8
1
100
AcDbLine
 10
1.000000048
 20
-95.5233029
 30
0.0
 11
21.50000073
 21
-95.5233029
 31
0.0
  0
LINE
  5
96
330
1D
100
AcDbEntity
  8
1
100
AcDbLine
 10
26.14999935
 20
67.599998312
 30
0.0
 11
26.14999935
 21
70.000001686
 31
0.0
  0
LINE
  5
97
330
1D
100
AcDbEntity
  8
1
100
AcDbLine
 10
24.450000375
 20
34.500000523
 30
0.0
 11
25.200000033
 21
35.250000181
 31
0.0
  0
LINE
  5
98
330
1D
100
AcDbEntity
  8
1
100
AcDbLine
 10
25.200000033
 20
35.250000181
 30
0.0
 11
25.200000033
 21
35.999999838
 31
0.0
  0
LINE
  5
99
330
1D
100
AcDbEntity
  8
1
100
AcDbLine
 10
25.200000033
 20
46.000001477
 30
0.0
 11
25.200000033
 21
52.600001441
 31
0.0
  0
LINE
  5
9A
330
1D
100
AcDbEntity
  8
1
100
AcDbLine
 10
25.200000033
 20
64.400000023
 30
0.0
 11
25.200000033
 21
67.599998312
 31
0.0
  0
LINE
  5
9B
330
1D
100
AcDbEntity
  8
1
100
AcDbLine
 10
24.450000375
 20
32.500000196
 30
0.0
 11
24.450000375
 21
34.500000523
 31
0.0
  0
LINE
  5
9C
330
1D
100
AcDbEntity
  8
1
100
AcDbLine
 10
25.100000203
 20
52.500001611
 30
0.0
 11
26.100000367
 21
53.500001775
 31
0.0
  0
LINE
  5
9D
330
1D
100
AcDbEntity
  8
1
100
AcDbLine
 10
26.100000367
 20
63.499999689
 30
0.0
 11
25.100000203
 21
64.499999853
 31
0.0
  0
LINE
  5
9E
330
1D
100
AcDbEntity
  8
1
100
AcDbLine
 10
40.500000119
 20
49.000000106
 30
0.0
 11
31.500000507
 21
49.000000106
 31
0.0
  0
LINE
  5
9F
330
1D
100
AcDbEntity
  8
1
100
AcDbLine
 10
31.500000507
 20
32.999999346
 30
0.0
 11
40.500000119
 21
32.999999346
 31
0.0
  0
ARC
  5
A0
330
1D
100
AcDbEntity
  8
1
100
AcDbCircle
 10
40.5
 20
47.999999987
 30
0.0
 40
1.0
100
AcDbArc
 50
0.0
 51
90.0
  0
ARC
  5
A1
330
1D
100
AcDbEntity
  8
1
100
AcDbCircle
 10
40.5
 20
33.999999987
 30
0.0
 40
1.0
100
AcDbArc
 50
270.0
 51
0.0
  0
LINE
  5
A2
330
1D
100
AcDbEntity
  8
1
100
AcDbLine
 10
29.500000179
 20
46.000001477
 30
0.0
 11
21.999999881
 21
46.000001477
 31
0.0
  0
LINE
  5
A3
330
1D
100
AcDbEntity
  8
1
100
AcDbLine
 10
21.999999881
 20
35.999999838
 30
0.0
 11
29.500000179
 21
35.999999838
 31
0.0
  0
LINE
  5
A4
330
1D
100
AcDbEntity
  8
1
100
AcDbLine
 10
40.500000119
 20
83.000001954
 30
0.0
 11
31.500000507
 21
83.000001954
 31
0.0
  0
LINE
  5
A5
330
1D
100
AcDbEntity
  8
1
100
AcDbLine
 10
31.500000507
 20
66.999999331
 30
0.0
 11
40.500000119
 21
66.999999331
 31
0.0
  0
ARC
  5
A6
330
1D
100
AcDbEntity
  8
1
100
AcDbCircle
 10
40.5
 20
81.999999987
 30
0.0
 40
1.0
100
AcDbArc
 50
0.0
 51
90.0
  0
ARC
  5
A7
330
1D
100
AcDbEntity
  8
1
100
AcDbCircle
 10
40.5
 20
67.999999987
 30
0.0
 40
1.0
100
AcDbArc
 50
270.0
 51
0.0
  0
LINE
  5
A8
330
1D
100
AcDbEntity
  8
1
100
AcDbLine
 10
29.500000179
 20
80.000003325
 30
0.0
 11
21.999999881
 21
80.000003325
 31
0.0
  0
LINE
  5
A9
330
1D
100
AcDbEntity
  8
1
100
AcDbLine
 10
21.999999881
 20
70.000001686
 30
0.0
 11
29.500000179
 21
70.000001686
 31
0.0
  0
LINE
  5
AA
330
1D
100
AcDbEntity
  8
1
100
AcDbLine
 10
29.500000179
 20
66.099998997
 30
0.0
 11
31.500000507
 21
66.099998997
 31
0.0
  0
LINE
  5
AB
330
1D
100
AcDbEntity
  8
1
100
AcDbLine
 10
31.500000507
 20
83.900002288
 30
0.0
 11
29.500000179
 21
83.900002288
 31
0.0
  0
LINE
  5
AC
330
1D
100
AcDbEntity
  8
1
100
AcDbLine
 10
29.500000179
 20
32.100000875
 30
0.0
 11
31.500000507
 21
32.100000875
 31
0.0
  0
LINE
  5
AD
330
1D
100
AcDbEntity
  8
1
100
AcDbLine
 10
31.500000507
 20
49.90000044
 30
0.0
 11
29.500000179
 21
49.90000044
 31
0.0
  0
LINE
  5
AE
330
1D
100
AcDbEntity
  8
1
100
AcDbLine
 10
1.000000048
 20
101.000001179
 30
0.0
 11
0.0
 21
99.999999153
 31
0.0
  0
LINE
  5
AF
330
1D
100
AcDbEntity
  8
1
100
AcDbLine
 10
16.00000076
 20
101.000001179
 30
0.0
 11
1.000000048
 21
101.000001179
 31
0.0
  0
ARC
  5
B0
330
1D
100
AcDbEntity
  8
SK1
100
AcDbCircle
 10
-4.5
 20
34.749999987
 30
0.0
 40
1.5
100
AcDbArc
 50
90.0
 51
180.0
  0
ARC
  5
B1
330
1D
100
AcDbEntity
  8
SK1
100
AcDbCircle
 10
-4.5
 20
29.749999987
 30
0.0
 40
1.5
100
AcDbArc
 50
180.0
 51
270.0
  0
LINE
  5
B2
330
1D
100
AcDbEntity
  8
SK1
100
AcDbLine
 10
0.0
 20
36.250000345
 30
0.0
 11
-4.499999806
 21
36.250000345
 31
0.0
  0
LINE
  5
B3
330
1D
100
AcDbEntity
  8
SK1
100
AcDbLine
 10
-4.499999806
 20
28.250000896
 30
0.0
 11
0.0
 21
28.250000896
 31
0.0
  0
LINE
  5
B4
330
1D
100
AcDbEntity
  8
SK1
100
AcDbLine
 10
0.0
 20
53.749998556
 30
0.0
 11
-4.499999806
 21
53.749998556
 31
0.0
  0
LINE
  5
B5
330
1D
100
AcDbEntity
  8
SK1
100
AcDbLine
 10
-4.499999806
 20
45.75000097
 30
0.0
 11
0.0
 21
45.75000097
 31
0.0
  0
ARC
  5
B6
330
1D
100
AcDbEntity
  8
SK1
100
AcDbCircle
 10
-4.5
 20
52.249999987
 30
0.0
 40
1.5
100
AcDbArc
 50
90.0
 51
180.0
  0
ARC
  5
B7
330
1D
100
AcDbEntity
  8
SK1
100
AcDbCircle
 10
-4.5
 20
47.249999987
 30
0.0
 40
1.5
100
AcDbArc
 50
180.0
 51
270.0
  0
LINE
  5
B8
330
1D
100
AcDbEntity
  8
SK1
100
AcDbLine
 10
0.0
 20
71.249996768
 30
0.0
 11
-4.499999806
 21
71.249996768
 31
0.0
  0
LINE
  5
B9
330
1D
100
AcDbEntity
  8
SK1
100
AcDbLine
 10
-4.499999806
 20
63.249999182
 30
0.0
 11
0.0
 21
63.249999182
 31
0.0
  0
ARC
  5
BA
330
1D
100
AcDbEntity
  8
SK1
100
AcDbCircle
 10
-4.5
 20
69.749999987
 30
0.0
 40
1.5
100
AcDbArc
 50
90.0
 51
180.0
  0
ARC
  5
BB
330
1D
100
AcDbEntity
  8
SK1
100
AcDbCircle
 10
-4.5
 20
64.749999987
 30
0.0
 40
1.5
100
AcDbArc
 50
180.0
 51
270.0
  0
LINE
  5
BC
330
1D
100
AcDbEntity
  8
SK1
100
AcDbLine
 10
0.0
 20
27.499999376
 30
0.0
 11
-9.600000456
 21
27.499999376
 31
0.0
  0
LINE
  5
BD
330
1D
100
AcDbEntity
  8
SK1
100
AcDbLine
 10
-9.600000456
 20
19.499999927
 30
0.0
 11
0.0
 21
19.499999927
 31
0.0
  0
LINE
  5
BE
330
1D
100
AcDbEntity
  8
SK1
100
AcDbLine
 10
-9.600000456
 20
27.499999376
 30
0.0
 11
-10.499999858
 21
26.600000905
 31
0.0
  0
LINE
  5
BF
330
1D
100
AcDbEntity
  8
SK1
100
AcDbLine
 10
-10.499999858
 20
20.400000261
 30
0.0
 11
-9.600000456
 21
19.499999927
 31
0.0
  0
LINE
  5
C0
330
1D
100
AcDbEntity
  8
SK1
100
AcDbLine
 10
0.0
 20
62.500001388
 30
0.0
 11
-9.600000456
 21
62.500001388
 31
0.0
  0
LINE
  5
C1
330
1D
100
AcDbEntity
  8
SK1
100
AcDbLine
 10
-9.600000456
 20
54.500000076
 30
0.0
 11
0.0
 21
54.500000076
 31
0.0
  0
LINE
  5
C2
330
1D
100
AcDbEntity
  8
SK1
100
AcDbLine
 10
-9.600000456
 20
62.500001388
 30
0.0
 11
-10.499999858
 21
61.600001054
 31
0.0
  0
LINE
  5
C3
330
1D
100
AcDbEntity
  8
SK1
100
AcDbLine
 10
-10.499999858
 20
55.40000041
 30
0.0
 11
-9.600000456
 21
54.500000076
 31
0.0
  0
LINE
  5
C4
330
1D
100
AcDbEntity
  8
1
100
AcDbLine
 10
21.999999881
 20
67.599998312
 30
0.0
 11
26.14999935
 21
67.599998312
 31
0.0
  0
LINE
  5
C5
330
1D
100
AcDbEntity
  8
1
100
AcDbLine
 10
21.999999881
 20
34.500000523
 30
0.0
 11
24.450000375
 21
34.500000523
 31
0.0
  0
LINE
  5
C6
330
1D
100
AcDbEntity
  8
1
100
AcDbLine
 10
21.999999881
 20
35.250000181
 30
0.0
 11
25.200000033
 21
35.250000181
 31
0.0
  0
LINE
  5
C7
330
1D
100
AcDbEntity
  8
1
100
AcDbLine
 10
21.999999881
 20
32.500000196
 30
0.0
 11
24.450000375
 21
32.500000196
 31
0.0
  0
LINE
  5
C9
330
1D
100
AcDbEntity
  8
1
100
AcDbLine
 10
21.999999881
 20
62.468626993
 30
0.0
 11
25.100000203
 21
62.468626993
 31
0.0
  0
LINE
  5
CA
330
1D
100
AcDbEntity
  8
1
100
AcDbLine
 10
25.100000203
 20
54.531374471
 30
0.0
 11
21.999999881
 21
54.531374471
 31
0.0
  0
LINE
  5
CB
330
1D
100
AcDbEntity
  8
1
100
AcDbLine
 10
25.100000203
 20
52.500001611
 30
0.0
 11
25.100000203
 21
64.499999853
 31
0.0
  0
LINE
  5
CC
330
1D
100
AcDbEntity
  8
1
100
AcDbLine
 10
26.100000367
 20
54.929287629
 30
0.0
 11
25.100000203
 21
54.531374471
 31
0.0
  0
LINE
  5
CD
330
1D
100
AcDbEntity
  8
1
100
AcDbLine
 10
26.100000367
 20
63.499999689
 30
0.0
 11
26.100000367
 21
53.500001775
 31
0.0
  0
LINE
  5
CF
330
1D
100
AcDbEntity
  8
1
100
AcDbLine
 10
25.100000203
 20
62.468626993
 30
0.0
 11
26.100000367
 21
62.070713835
 31
0.0
  0
LINE
  5
D2
330
1D
100
AcDbEntity
  8
1
100
AcDbLine
 10
41.49999842
 20
48.000001805
 30
0.0
 11
41.49999842
 21
33.99999951
 31
0.0
  0
LINE
  5
D3
330
1D
100
AcDbEntity
  8
1
100
AcDbLine
 10
41.49999842
 20
81.999999927
 30
0.0
 11
41.49999842
 21
68.000001358
 31
0.0
  0
LINE
  5
D4
330
1D
100
AcDbEntity
  8
1
100
AcDbLine
 10
31.500000507
 20
66.099998997
 30
0.0
 11
31.500000507
 21
83.900002288
 31
0.0
  0
LINE
  5
D5
330
1D
100
AcDbEntity
  8
1
100
AcDbLine
 10
29.500000179
 20
66.099998997
 30
0.0
 11
29.500000179
 21
83.900002288
 31
0.0
  0
LINE
  5
D6
330
1D
100
AcDbEntity
  8
1
100
AcDbLine
 10
29.500000179
 20
32.100000875
 30
0.0
 11
29.500000179
 21
49.90000044
 31
0.0
  0
LINE
  5
D7
330
1D
100
AcDbEntity
  8
1
100
AcDbLine
 10
31.500000507
 20
32.100000875
 30
0.0
 11
31.500000507
 21
49.90000044
 31
0.0
  0
LINE
  5
D8
330
1D
100
AcDbEntity
  8
1
100
AcDbLine
 10
1.000000048
 20
101.000001179
 30
0.0
 11
1.000000048
 21
9.000000010999997
 31
0.0
  0
LINE
  5
D9
330
1D
100
AcDbEntity
  8
1
100
AcDbLine
 10
21.50000073
 20
9.000000011
 30
0.0
 11
21.50000073
 21
99.507404016
 31
0.0
  0
LINE
  5
DA
330
1D
100
AcDbEntity
  8
1
100
AcDbLine
 10
21.50000073
 20
9.000000011
 30
0.0
 11
1.000000048
 21
9.000000011
 31
0.0
  0
LINE
  5
DB
330
1D
100
AcDbEntity
  8
1
100
AcDbLine
 10
0.0
 20
10.0
 30
0.0
 11
0.0
 21
99.999999153
 31
0.0
  0
LINE
  5
DC
330
1D
100
AcDbEntity
  8
1
100
AcDbLine
 10
0.0
 20
10.0
 30
0.0
 11
1.000000048
 21
9.000000011
 31
0.0
  0
LINE
  5
E0
330
1D
100
AcDbEntity
  8
1
100
AcDbLine
 10
21.999999881
 20
98.906291174
 30
0.0
 11
21.999999881
 21
9.500000035
 31
0.0
  0
LINE
  5
E1
330
1D
100
AcDbEntity
  8
1
100
AcDbLine
 10
21.999999881
 20
9.500000035
 30
0.0
 11
21.50000073
 21
9.000000011
 31
0.0
  0
LINE
  5
E3
330
1D
100
AcDbEntity
  8
1
100
AcDbLine
 10
1.000000048
 20
58.500000732
 30
0.0
 11
4.999999888
 21
57.499998706
 31
0.0
  0
LINE
  5
E4
330
1D
100
AcDbEntity
  8
1
100
AcDbLine
 10
4.999999888
 20
57.499998706
 30
0.0
 11
4.999999888
 21
59.499999033
 31
0.0
  0
LINE
  5
E5
330
1D
100
AcDbEntity
  8
1
100
AcDbLine
 10
4.999999888
 20
59.499999033
 30
0.0
 11
1.000000048
 21
58.500000732
 31
0.0
  0
LINE
  5
EC
330
1D
100
AcDbEntity
  8
1
100
AcDbLine
 10
21.50000073
 20
99.507404016
 30
0.0
 11
21.999999881
 21
98.906291174
 31
0.0
  0
LINE
  5
F0
330
1D
100
AcDbEntity
  8
1
100
AcDbLine
 10
16.00000076
 20
99.543546783
 30
0.0
 11
16.00000076
 21
101.000001179
 31
0.0
  0
ARC
  5
F1
330
1D
100
AcDbEntity
  8
1
100
AcDbCircle
 10
16.145001123
 20
99.774490411
 30
0.0
 40
0.272690419
100
AcDbArc
 50
237.876914737
 51
281.63588158
  0
LINE
  5
F2
330
1D
100
AcDbEntity
  8
1
100
AcDbLine
 10
21.50000073
 20
99.507404016
 30
0.0
 11
16.20000042
 21
99.507404016
 31
0.0
  0
LINE
  5
F3
330
1D
100
AcDbEntity
  8
SK1
100
AcDbLine
 10
-6.000000052
 20
29.750000211
 30
0.0
 11
-6.000000052
 21
34.749999167
 31
0.0
  0
LINE
  5
F4
330
1D
100
AcDbEntity
  8
SK1
100
AcDbLine
 10
-6.000000052
 20
47.250000285
 30
0.0
 11
-6.000000052
 21
52.249999242
 31
0.0
  0
LINE
  5
F5
330
1D
100
AcDbEntity
  8
SK1
100
AcDbLine
 10
-6.000000052
 20
64.749998497
 30
0.0
 11
-6.000000052
 21
69.750001179
 31
0.0
  0
LINE
  5
F6
330
1D
100
AcDbEntity
  8
SK1
100
AcDbLine
 10
-9.600000456
 20
27.499999376
 30
0.0
 11
-9.600000456
 21
19.499999927
 31
0.0
  0
LINE
  5
F8
330
1D
100
AcDbEntity
  8
SK1
100
AcDbLine
 10
-10.499999858
 20
26.600000905
 30
0.0
 11
-10.499999858
 21
20.400000261
 31
0.0
  0
LINE
  5
FA
330
1D
100
AcDbEntity
  8
SK1
100
AcDbLine
 10
-9.600000456
 20
62.500001388
 30
0.0
 11
-9.600000456
 21
54.500000076
 31
0.0
  0
LINE
  5
FC
330
1D
100
AcDbEntity
  8
SK1
100
AcDbLine
 10
-10.499999858
 20
61.600001054
 30
0.0
 11
-10.499999858
 21
55.40000041
 31
0.0
  0
LINE
  5
FF
330
1D
100
AcDbEntity
  8
1
100
AcDbLine
 10
21.999999881
 20
12.999999793
 30
0.0
 11
0.0
 21
12.999999793
 31
0.0
  0
LINE
  5
101
330
1D
100
AcDbEntity
  8
1
100
AcDbLine
 10
21.50000073
 20
95.5233029
 30
0.0
 11
21.999999881
 21
95.052910494
 31
0.0
  0
LINE
  5
102
330
1D
100
AcDbEntity
  8
1
100
AcDbLine
 10
1.000000048
 20
95.5233029
 30
0.0
 11
0.0
 21
94.582510637
 31
0.0
  0
LINE
  5
103
330
1D
100
AcDbEntity
  8
1
100
AcDbLine
 10
1.000000048
 20
95.5233029
 30
0.0
 11
21.50000073
 21
95.5233029
 31
0.0
  0
LINE
  5
104
330
1D
100
AcDbEntity
  8
4
100
AcDbLine
 10
-3.648215134
 20
0.0
 30
0.0
 11
24.709456939
 21
0.0
 31
0.0
  0
LINE
  5
105
330
1D
100
AcDbEntity
  8
4
100
AcDbLine
 10
43.488931413
 20
75.000000643
 30
0.0
 11
19.60347663
 21
75.000000643
 31
0.0
  0
LINE
  5
106
330
1D
100
AcDbEntity
  8
4
100
AcDbLine
 10
-7.724904823
 20
67.249999838
 30
0.0
 11
2.572466033
 21
67.249999838
 31
0.0
  0
LINE
  5
107
330
1D
100
AcDbEntity
  8
4
100
AcDbLine
 10
-12.093193539
 20
58.292340012
 30
0.0
 11
0.0
 21
58.292340012
 31
0.0
  0
LINE
  5
108
330
1D
100
AcDbEntity
  8
1
100
AcDbLine
 10
25.100000203
 20
64.499999853
 30
0.0
 11
21.999999881
 21
64.499999853
 31
0.0
  0
LINE
  5
109
330
1D
100
AcDbEntity
  8
1
100
AcDbLine
 10
25.100000203
 20
52.500001611
 30
0.0
 11
21.999999881
 21
52.500001611
 31
0.0
  0
LINE
  5
10A
330
1D
100
AcDbEntity
  8
4
100
AcDbLine
 10
-7.724904823
 20
49.749999763
 30
0.0
 11
2.572466033
 21
49.749999763
 31
0.0
  0
LINE
  5
10B
330
1D
100
AcDbEntity
  8
4
100
AcDbLine
 10
43.488931413
 20
41.000000657
 30
0.0
 11
19.60347663
 21
41.000000657
 31
0.0
  0
LINE
  5
10C
330
1D
100
AcDbEntity
  8
4
100
AcDbLine
 10
-7.724904823
 20
32.249999689
 30
0.0
 11
2.572466033
 21
32.249999689
 31
0.0
  0
LINE
  5
10D
330
1D
100
AcDbEntity
  8
4
100
AcDbLine
 10
-12.093193539
 20
23.292339863
 30
0.0
 11
2.572466033
 21
23.292339863
 31
0.0
  0
LINE
  5
10F
330
1D
100
AcDbEntity
  8
2
100
AcDbLine
 10
0.0
 20
109.490693199
 30
0.0
 11
3.499999997
 21
109.940693225
 31
0.0
  0
LINE
  5
110
330
1D
100
AcDbEntity
  8
2
100
AcDbLine
 10
3.499999997
 20
109.940693225
 30
0.0
 11
3.500000003
 21
109.040693225
 31
0.0
  0
LINE
  5
111
330
1D
100
AcDbEntity
  8
2
100
AcDbLine
 10
3.500000003
 20
109.040693225
 30
0.0
 11
0.0
 21
109.490693199
 31
0.0
  0
LINE
  5
112
330
1D
100
AcDbEntity
  8
2
100
AcDbLine
 10
16.00000076
 20
111.490693318
 30
0.0
 11
16.00000076
 21
101.000001179
 31
0.0
  0
LINE
  5
113
330
1D
100
AcDbEntity
  8
2
100
AcDbLine
 10
16.00000076
 20
109.490693318
 30
0.0
 11
12.500000763
 21
109.040693292
 31
0.0
  0
LINE
  5
114
330
1D
100
AcDbEntity
  8
2
100
AcDbLine
 10
12.500000763
 20
109.040693292
 30
0.0
 11
12.500000757
 21
109.940693292
 31
0.0
  0
LINE
  5
115
330
1D
100
AcDbEntity
  8
2
100
AcDbLine
 10
12.500000757
 20
109.940693292
 30
0.0
 11
16.00000076
 21
109.490693318
 31
0.0
  0
LINE
  5
116
330
1D
100
AcDbEntity
  8
2
100
AcDbLine
 10
3.5
 20
109.490693225
 30
0.0
 11
12.50000076
 21
109.490693292
 31
0.0
  0
TEXT
  5
117
330
1D
100
AcDbEntity
  8
2
100
AcDbText
 10
6.77281269
 20
110.990693249
 30
0.0
 40
3.5
  1
16
 50
0.000000427
  7
BMG_Text
100
AcDbText
  0
LINE
  5
118
330
1D
100
AcDbEntity
  8
3
100
AcDbLine
 10
16.00000076
 20
99.543546783
 30
0.0
 11
16.00000076
 21
9.000000011
 31
0.0
  0
LINE
  5
119
330
1D
100
AcDbEntity
  8
3
100
AcDbLine
 10
16.00000076
 20
-9.000000011
 30
0.0
 11
16.00000076
 21
-99.543546783
 31
0.0
  0
LINE
  5
11A
330
1D
100
AcDbEntity
  8
4
100
AcDbLine
 10
-7.668126734
 20
-67.249999838
 30
0.0
 11
1.91408181
 21
-67.249999838
 31
0.0
  0
LINE
  5
11B
330
1D
100
AcDbEntity
  8
4
100
AcDbLine
 10
43.896042392
 20
-75.000000643
 30
0.0
 11
19.650590364
 21
-75.000000643
 31
0.0
  0
LINE
  5
11C
330
1D
100
AcDbEntity
  8
4
100
AcDbLine
 10
-12.046079806
 20
-58.292340012
 30
0.0
 11
0.0
 21
-58.292340012
 31
0.0
  0
LINE
  5
11D
330
1D
100
AcDbEntity
  8
4
100
AcDbLine
 10
-7.668126734
 20
-49.749999763
 30
0.0
 11
1.91408181
 21
-49.749999763
 31
0.0
  0
LINE
  5
11E
330
1D
100
AcDbEntity
  8
4
100
AcDbLine
 10
43.896042392
 20
-41.000000657
 30
0.0
 11
19.650590364
 21
-41.000000657
 31
0.0
  0
LINE
  5
11F
330
1D
100
AcDbEntity
  8
4
100
AcDbLine
 10
-7.668126734
 20
-32.249999689
 30
0.0
 11
1.91408181
 21
-32.249999689
 31
0.0
  0
LINE
  5
120
330
1D
100
AcDbEntity
  8
4
100
AcDbLine
 10
-12.046079806
 20
-23.292339863
 30
0.0
 11
1.91408181
 21
-23.292339863
 31
0.0
  0
LINE
  5
121
330
1D
100
AcDbEntity
  8
1
100
AcDbLine
 10
25.100000203
 20
-52.500001611
 30
0.0
 11
21.999999881
 21
-52.500001611
 31
0.0
  0
LINE
  5
122
330
1D
100
AcDbEntity
  8
1
100
AcDbLine
 10
25.100000203
 20
-64.499999853
 30
0.0
 11
21.999999881
 21
-64.499999853
 31
0.0
  0
LINE
  5
123
330
1D
100
AcDbEntity
  8
1
100
AcDbLine
 10
21.999999881
 20
-71.316523483
 30
0.0
 11
26.14999935
 21
-71.316523483
 31
0.0
  0
LINE
  5
124
330
1D
100
AcDbEntity
  8
SK2
100
AcDbLine
 10
55.798607633
 20
101.000001179
 30
0.0
 11
16.00000076
 21
101.000001179
 31
0.0
  0
LINE
  5
125
330
1D
100
AcDbEntity
  8
SK2
100
AcDbLine
 10
53.798607633
 20
101.000001179
 30
0.0
 11
54.248607631
 21
97.500001179
 31
0.0
  0
LINE
  5
126
330
1D
100
AcDbEntity
  8
SK2
100
AcDbLine
 10
54.248607631
 20
97.500001179
 30
0.0
 11
53.348607631
 21
97.500001179
 31
0.0
  0
LINE
  5
127
330
1D
100
AcDbEntity
  8
SK2
100
AcDbLine
 10
53.348607631
 20
97.500001179
 30
0.0
 11
53.798607633
 21
101.000001179
 31
0.0
  0
LINE
  5
128
330
1D
100
AcDbEntity
  8
SK2
100
AcDbLine
 10
55.798607603
 20
9.000000011
 30
0.0
 11
21.50000073
 21
9.000000011
 31
0.0
  0
LINE
  5
129
330
1D
100
AcDbEntity
  8
SK2
100
AcDbLine
 10
53.798607603
 20
9.000000011
 30
0.0
 11
53.348607604
 21
12.500000011
 31
0.0
  0
LINE
  5
12A
330
1D
100
AcDbEntity
  8
SK2
100
AcDbLine
 10
53.348607604
 20
12.500000011
 30
0.0
 11
54.248607604
 21
12.500000011
 31
0.0
  0
LINE
  5
12B
330
1D
100
AcDbEntity
  8
SK2
100
AcDbLine
 10
54.248607604
 20
12.500000011
 30
0.0
 11
53.798607603
 21
9.000000011
 31
0.0
  0
LINE
  5
12C
330
1D
100
AcDbEntity
  8
SK2
100
AcDbLine
 10
53.798607604
 20
12.500000011
 30
0.0
 11
53.798607631
 21
97.500001179
 31
0.0
  0
TEXT
  5
12D
330
1D
100
AcDbEntity
  8
SK2
100
AcDbText
 10
52.298607617
 20
53.389999567
 30
0.0
 40
3.5
  1
92
 50
89.999999981
  7
BMG_Text
100
AcDbText
  0
TEXT
  5
12E
330
1D
100
AcDbEntity
  8
SK6
100
AcDbText
 10
3.839482699
 20
-92.99606868
 30
0.0
 40
3.5
  1
318.240
  7
BMG_Text
100
AcDbText
  0
LINE
  5
12F
330
1D
100
AcDbEntity
  8
2
100
AcDbLine
 10
0.0
 20
119.674439536
 30
0.0
 11
0.0
 21
99.999999153
 31
0.0
  0
LINE
  5
130
330
1D
100
AcDbEntity
  8
2
100
AcDbLine
 10
0.0
 20
117.674439536
 30
0.0
 11
3.499999999
 21
118.124439546
 31
0.0
  0
LINE
  5
131
330
1D
100
AcDbEntity
  8
2
100
AcDbLine
 10
3.499999999
 20
118.124439546
 30
0.0
 11
3.500000001
 21
117.224439546
 31
0.0
  0
LINE
  5
132
330
1D
100
AcDbEntity
  8
2
100
AcDbLine
 10
3.500000001
 20
117.224439546
 30
0.0
 11
0.0
 21
117.674439536
 31
0.0
  0
LINE
  5
133
330
1D
100
AcDbEntity
  8
2
100
AcDbLine
 10
21.999999881
 20
119.674439596
 30
0.0
 11
21.999999881
 21
98.906291174
 31
0.0
  0
LINE
  5
134
330
1D
100
AcDbEntity
  8
2
100
AcDbLine
 10
21.999999881
 20
117.674439596
 30
0.0
 11
18.499999882
 21
117.224439587
 31
0.0
  0
LINE
  5
135
330
1D
100
AcDbEntity
  8
2
100
AcDbLine
 10
18.499999882
 20
117.224439587
 30
0.0
 11
18.49999988
 21
118.124439587
 31
0.0
  0
LINE
  5
136
330
1D
100
AcDbEntity
  8
2
100
AcDbLine
 10
18.49999988
 20
118.124439587
 30
0.0
 11
21.999999881
 21
117.674439596
 31
0.0
  0
LINE
  5
137
330
1D
100
AcDbEntity
  8
2
100
AcDbLine
 10
3.5
 20
117.674439546
 30
0.0
 11
18.499999881
 21
117.674439587
 31
0.0
  0
TEXT
  5
138
330
1D
100
AcDbEntity
  8
2
100
AcDbText
 10
9.33531219
 20
119.174439562
 30
0.0
 40
3.5
  1
22
 50
0.000000155
  7
BMG_Text
100
AcDbText
  0
LINE
  5
1D8
330
1D
100
AcDbEntity
  8
NOCUT
100
AcDbLine
 10
0.0
 20
99.999999153
 30
0.0
 11
1.000000048
 21
101.000001179
 31
0.0
  0
LINE
  5
1D9
330
1D
100
AcDbEntity
  8
NOCUT
100
AcDbLine
 10
1.000000048
 20
101.000001179
 30
0.0
 11
16.00000076
 21
101.000001179
 31
0.0
  0
LINE
  5
1DA
330
1D
100
AcDbEntity
  8
NOCUT
100
AcDbLine
 10
16.00000076
 20
101.000001179
 30
0.0
 11
16.00000076
 21
99.543546783
 31
0.0
  0
LINE
  5
1DB
330
1D
100
AcDbEntity
  8
NOCUT
100
AcDbLine
 10
16.00000076
 20
99.543546783
 30
0.0
 11
16.20000041965472
 21
99.50740401677169
 31
0.0
  0
LINE
  5
1DC
330
1D
100
AcDbEntity
  8
NOCUT
100
AcDbLine
 10
16.20000041965472
 20
99.50740401677169
 30
0.0
 11
21.50000073
 21
99.507404016
 31
0.0
  0
LINE
  5
1DD
330
1D
100
AcDbEntity
  8
NOCUT
100
AcDbLine
 10
21.50000073
 20
99.507404016
 30
0.0
 11
21.999999881
 21
98.906291174
 31
0.0
  0
LINE
  5
1DE
330
1D
100
AcDbEntity
  8
NOCUT
100
AcDbLine
 10
21.999999881
 20
98.906291174
 30
0.0
 11
21.999999881
 21
80.000003325
 31
0.0
  0
LINE
  5
1DF
330
1D
100
AcDbEntity
  8
NOCUT
100
AcDbLine
 10
21.999999881
 20
80.000003325
 30
0.0
 11
29.500000179
 21
80.000003325
 31
0.0
  0
LINE
  5
1E0
330
1D
100
AcDbEntity
  8
NOCUT
100
AcDbLine
 10
29.500000179
 20
80.000003325
 30
0.0
 11
29.500000179
 21
83.900002288
 31
0.0
  0
LINE
  5
1E1
330
1D
100
AcDbEntity
  8
NOCUT
100
AcDbLine
 10
29.500000179
 20
83.900002288
 30
0.0
 11
31.500000507
 21
83.900002288
 31
0.0
  0
LINE
  5
1E2
330
1D
100
AcDbEntity
  8
NOCUT
100
AcDbLine
 10
31.500000507
 20
83.900002288
 30
0.0
 11
31.500000507
 21
83.000001954
 31
0.0
  0
LINE
  5
1E3
330
1D
100
AcDbEntity
  8
NOCUT
100
AcDbLine
 10
31.500000507
 20
83.000001954
 30
0.0
 11
40.500000119
 21
83.000001954
 31
0.0
  0
LINE
  5
1E4
330
1D
100
AcDbEntity
  8
NOCUT
100
AcDbLine
 10
41.49999842
 20
81.999999927
 30
0.0
 11
41.49999842
 21
33.99999951
 31
0.0
  0
LINE
  5
1E5
330
1D
100
AcDbEntity
  8
NOCUT
100
AcDbLine
 10
40.500000119
 20
32.999999346
 30
0.0
 11
31.500000507
 21
32.999999346
 31
0.0
  0
LINE
  5
1E6
330
1D
100
AcDbEntity
  8
NOCUT
100
AcDbLine
 10
31.500000507
 20
32.999999346
 30
0.0
 11
31.500000507
 21
32.100000875
 31
0.0
  0
LINE
  5
1E7
330
1D
100
AcDbEntity
  8
NOCUT
100
AcDbLine
 10
31.500000507
 20
32.100000875
 30
0.0
 11
29.500000179
 21
32.100000875
 31
0.0
  0
LINE
  5
1E8
330
1D
100
AcDbEntity
  8
NOCUT
100
AcDbLine
 10
29.500000179
 20
32.100000875
 30
0.0
 11
29.500000179
 21
35.999999838
 31
0.0
  0
LINE
  5
1E9
330
1D
100
AcDbEntity
  8
NOCUT
100
AcDbLine
 10
29.500000179
 20
35.999999838
 30
0.0
 11
25.200000033
 21
35.999999838
 31
0.0
  0
LINE
  5
1EA
330
1D
100
AcDbEntity
  8
NOCUT
100
AcDbLine
 10
25.200000033
 20
35.999999838
 30
0.0
 11
25.200000033
 21
35.250000181
 31
0.0
  0
LINE
  5
1EB
330
1D
100
AcDbEntity
  8
NOCUT
100
AcDbLine
 10
25.200000033
 20
35.250000181
 30
0.0
 11
24.450000375
 21
34.500000523
 31
0.0
  0
LINE
  5
1EC
330
1D
100
AcDbEntity
  8
NOCUT
100
AcDbLine
 10
24.450000375
 20
34.500000523
 30
0.0
 11
24.450000375
 21
32.500000196
 31
0.0
  0
LINE
  5
1ED
330
1D
100
AcDbEntity
  8
NOCUT
100
AcDbLine
 10
24.450000375
 20
32.500000196
 30
0.0
 11
21.999999881
 21
32.500000196
 31
0.0
  0
LINE
  5
1EE
330
1D
100
AcDbEntity
  8
NOCUT
100
AcDbLine
 10
21.999999881
 20
32.500000196
 30
0.0
 11
21.999999881
 21
9.500000035
 31
0.0
  0
LINE
  5
1EF
330
1D
100
AcDbEntity
  8
NOCUT
100
AcDbLine
 10
21.999999881
 20
9.500000035
 30
0.0
 11
21.50000073
 21
9.000000011
 31
0.0
  0
LINE
  5
1F0
330
1D
100
AcDbEntity
  8
NOCUT
100
AcDbLine
 10
21.50000073
 20
9.000000011
 30
0.0
 11
1.000000048
 21
9.000000011
 31
0.0
  0
LINE
  5
1F1
330
1D
100
AcDbEntity
  8
NOCUT
100
AcDbLine
 10
1.000000048
 20
9.000000011
 30
0.0
 11
0.0
 21
10.0
 31
0.0
  0
LINE
  5
1F2
330
1D
100
AcDbEntity
  8
NOCUT
100
AcDbLine
 10
40.5
 20
-82.999999987
 30
0.0
 11
31.49433606213635
 21
-82.999999987
 31
0.0
  0
LINE
  5
1F3
330
1D
100
AcDbEntity
  8
NOCUT
100
AcDbLine
 10
31.49433606213635
 20
-82.999999987
 30
0.0
 11
31.49433606213635
 21
-83.89035031206832
 31
0.0
  0
LINE
  5
1F4
330
1D
100
AcDbEntity
  8
NOCUT
100
AcDbLine
 10
31.49433606213635
 20
-83.89035031206832
 30
0.0
 11
29.500000179
 21
-83.900002288
 31
0.0
  0
LINE
  5
1F5
330
1D
100
AcDbEntity
  8
NOCUT
100
AcDbLine
 10
29.500000179
 20
-83.900002288
 30
0.0
 11
29.500000179
 21
-80.000003325
 31
0.0
  0
LINE
  5
1F6
330
1D
100
AcDbEntity
  8
NOCUT
100
AcDbLine
 10
29.500000179
 20
-80.000003325
 30
0.0
 11
21.999999881
 21
-80.000003325
 31
0.0
  0
LINE
  5
1F7
330
1D
100
AcDbEntity
  8
NOCUT
100
AcDbLine
 10
21.999999881
 20
-80.000003325
 30
0.0
 11
21.999999881
 21
-98.906291174
 31
0.0
  0
LINE
  5
1F8
330
1D
100
AcDbEntity
  8
NOCUT
100
AcDbLine
 10
21.999999881
 20
-98.906291174
 30
0.0
 11
21.50000073
 21
-99.507404016
 31
0.0
  0
LINE
  5
1F9
330
1D
100
AcDbEntity
  8
NOCUT
100
AcDbLine
 10
21.50000073
 20
-99.507404016
 30
0.0
 11
16.20000042
 21
-99.507404016
 31
0.0
  0
LINE
  5
1FA
330
1D
100
AcDbEntity
  8
NOCUT
100
AcDbLine
 10
16.20000042
 20
-99.507404016
 30
0.0
 11
16.00000075954233
 21
-99.5435467832214
 31
0.0
  0
LINE
  5
1FB
330
1D
100
AcDbEntity
  8
NOCUT
100
AcDbLine
 10
16.00000075954233
 20
-99.5435467832214
 30
0.0
 11
16.00000076
 21
-101.000001179
 31
0.0
  0
LINE
  5
1FC
330
1D
100
AcDbEntity
  8
NOCUT
100
AcDbLine
 10
16.00000076
 20
-101.000001179
 30
0.0
 11
1.000000048
 21
-101.000001179
 31
0.0
  0
LINE
  5
1FD
330
1D
100
AcDbEntity
  8
NOCUT
100
AcDbLine
 10
1.000000048
 20
-101.000001179
 30
0.0
 11
0.0
 21
-99.999999152
 31
0.0
  0
LINE
  5
1FF
330
1D
100
AcDbEntity
  8
NOCUT
100
AcDbLine
 10
0.0
 20
-10.0
 30
0.0
 11
1.000000048
 21
-9.000000011
 31
0.0
  0
LINE
  5
200
330
1D
100
AcDbEntity
  8
NOCUT
100
AcDbLine
 10
1.000000048
 20
-9.000000011
 30
0.0
 11
21.50000073
 21
-9.000000011
 31
0.0
  0
LINE
  5
201
330
1D
100
AcDbEntity
  8
NOCUT
100
AcDbLine
 10
21.50000073
 20
-9.000000011
 30
0.0
 11
21.999999881
 21
-9.500000035
 31
0.0
  0
LINE
  5
202
330
1D
100
AcDbEntity
  8
NOCUT
100
AcDbLine
 10
21.999999881
 20
-9.500000035
 30
0.0
 11
21.999999881
 21
-32.500000196
 31
0.0
  0
LINE
  5
203
330
1D
100
AcDbEntity
  8
NOCUT
100
AcDbLine
 10
21.999999881
 20
-32.500000196
 30
0.0
 11
24.450000375
 21
-32.500000196
 31
0.0
  0
LINE
  5
204
330
1D
100
AcDbEntity
  8
NOCUT
100
AcDbLine
 10
24.450000375
 20
-32.500000196
 30
0.0
 11
24.450000375
 21
-34.500000523
 31
0.0
  0
LINE
  5
205
330
1D
100
AcDbEntity
  8
NOCUT
100
AcDbLine
 10
24.450000375
 20
-34.500000523
 30
0.0
 11
25.200000033
 21
-35.250000181
 31
0.0
  0
LINE
  5
206
330
1D
100
AcDbEntity
  8
NOCUT
100
AcDbLine
 10
25.200000033
 20
-35.250000181
 30
0.0
 11
25.200000033
 21
-35.999999838
 31
0.0
  0
LINE
  5
207
330
1D
100
AcDbEntity
  8
NOCUT
100
AcDbLine
 10
25.200000033
 20
-35.999999838
 30
0.0
 11
29.500000179
 21
-35.999999838
 31
0.0
  0
LINE
  5
208
330
1D
100
AcDbEntity
  8
NOCUT
100
AcDbLine
 10
29.500000179
 20
-35.999999838
 30
0.0
 11
29.500000179
 21
-32.100000875
 31
0.0
  0
LINE
  5
209
330
1D
100
AcDbEntity
  8
NOCUT
100
AcDbLine
 10
29.500000179
 20
-32.100000875
 30
0.0
 11
31.500000507
 21
-32.100000875
 31
0.0
  0
LINE
  5
20A
330
1D
100
AcDbEntity
  8
NOCUT
100
AcDbLine
 10
31.500000507
 20
-32.100000875
 30
0.0
 11
31.500000507
 21
-32.999999346
 31
0.0
  0
LINE
  5
20B
330
1D
100
AcDbEntity
  8
NOCUT
100
AcDbLine
 10
31.500000507
 20
-32.999999346
 30
0.0
 11
40.55553740147833
 21
-32.999999346
 31
0.0
  0
LINE
  5
20C
330
1D
100
AcDbEntity
  8
NOCUT
100
AcDbLine
 10
41.49999842
 20
-33.99999951
 30
0.0
 11
41.49999842
 21
-81.999999927
 31
0.0
  0
ARC
  5
20D
330
1D
100
AcDbEntity
  8
NOCUT
100
AcDbCircle
 10
40.50000000000001
 20
-81.99999998700001
 30
0.0
 40
0.9999999999999928
100
AcDbArc
 50
269.9999999999996
 51
0.0000000000008142
  0
ARC
  5
20E
330
1D
100
AcDbEntity
  8
NOCUT
100
AcDbCircle
 10
40.49787282728079
 20
-34.00513543622823
 30
0.0
 40
1.005137700098353
100
AcDbArc
 50
4.436787086683541
 51
89.87874486244932
  0
ARC
  5
20F
330
1D
100
AcDbEntity
  8
NOCUT
100
AcDbCircle
 10
40.49999999999999
 20
33.99999998700001
 30
0.0
 40
1.000000000000005
100
AcDbArc
 50
270.0000000000004
 51
359.9999999999996
  0
ARC
  5
210
330
1D
100
AcDbEntity
  8
NOCUT
100
AcDbCircle
 10
40.49999664211229
 20
81.99999859611736
 30
0.0
 40
1.000003357888671
100
AcDbArc
 50
0.0000796914369252
 51
89.99980078967755
  0
LINE
  5
235
330
1D
100
AcDbEntity
  8
SK4
100
AcDbLine
 10
43.48893141299999
 20
75.000000643
 30
0.0
 11
19.60347662999999
 21
75.000000643
 31
0.0
  0
LINE
  5
236
330
1D
100
AcDbEntity
  8
SK4
100
AcDbLine
 10
-7.724904823000003
 20
67.249999838
 30
0.0
 11
2.572466033000012
 21
67.249999838
 31
0.0
  0
LINE
  5
237
330
1D
100
AcDbEntity
  8
SK4
100
AcDbLine
 10
-12.093193539
 20
58.292340012
 30
0.0
 11
0.0
 21
58.292340012
 31
0.0
  0
LINE
  5
238
330
1D
100
AcDbEntity
  8
SK4
100
AcDbLine
 10
-7.724904823000003
 20
49.74999976300001
 30
0.0
 11
2.572466033000012
 21
49.74999976300001
 31
0.0
  0
LINE
  5
239
330
1D
100
AcDbEntity
  8
SK4
100
AcDbLine
 10
43.48893141299999
 20
41.000000657
 30
0.0
 11
19.60347662999999
 21
41.000000657
 31
0.0
  0
LINE
  5
23A
330
1D
100
AcDbEntity
  8
SK4
100
AcDbLine
 10
-7.724904823000003
 20
32.249999689
 30
0.0
 11
2.572466033000012
 21
32.249999689
 31
0.0
  0
LINE
  5
23B
330
1D
100
AcDbEntity
  8
SK4
100
AcDbLine
 10
-12.093193539
 20
23.292339863
 30
0.0
 11
2.572466033000012
 21
23.292339863
 31
0.0
  0
LINE
  5
23C
330
1D
100
AcDbEntity
  8
SK4
100
AcDbLine
 10
-7.668126733999998
 20
-67.249999838
 30
0.0
 11
1.914081809999999
 21
-67.249999838
 31
0.0
  0
LINE
  5
23D
330
1D
100
AcDbEntity
  8
SK4
100
AcDbLine
 10
43.896042392
 20
-75.000000643
 30
0.0
 11
19.65059036400001
 21
-75.000000643
 31
0.0
  0
LINE
  5
23E
330
1D
100
AcDbEntity
  8
SK4
100
AcDbLine
 10
-12.04607980599999
 20
-58.292340012
 30
0.0
 11
0.0
 21
-58.292340012
 31
0.0
  0
LINE
  5
23F
330
1D
100
AcDbEntity
  8
SK4
100
AcDbLine
 10
-7.668126733999998
 20
-49.749999763
 30
0.0
 11
1.914081809999999
 21
-49.749999763
 31
0.0
  0
LINE
  5
240
330
1D
100
AcDbEntity
  8
SK4
100
AcDbLine
 10
43.896042392
 20
-41.000000657
 30
0.0
 11
19.65059036400001
 21
-41.000000657
 31
0.0
  0
LINE
  5
241
330
1D
100
AcDbEntity
  8
SK4
100
AcDbLine
 10
-7.668126733999998
 20
-32.249999689
 30
0.0
 11
1.914081809999999
 21
-32.249999689
 31
0.0
  0
LINE
  5
242
330
1D
100
AcDbEntity
  8
SK4
100
AcDbLine
 10
-12.04607980599999
 20
-23.292339863
 30
0.0
 11
1.914081809999999
 21
-23.292339863
 31
0.0
  0
LWPOLYLINE
  5
248
330
1D
100
AcDbEntity
  8
INFTOTAL
100
AcDbPolyline
 90
        4
 70
     1
 43
0.0
 10
69.97656426671512
 20
-117.7127027337753
 10
69.97656426671512
 20
132.0548666717955
 10
-16.09890007231205
 20
132.0548666717955
 10
-16.09890007231205
 20
-117.7127027337753
  0
LINE
  5
272
330
1D
100
AcDbEntity
  8
SK1
100
AcDbLine
 10
0.0
 20
71.249996768
 30
0.0
 11
0.0
 21
19.499999927
 31
0.0
  0
LINE
  5
273
330
1D
100
AcDbEntity
  8
SK1
100
AcDbLine
 10
0.0
 20
-19.499999927
 30
0.0
 11
0.0
 21
-71.249996768
 31
0.0
  0
LINE
  5
27E
330
1D
100
AcDbEntity
  8
NOCUT
100
AcDbLine
 10
0.0
 20
10.0
 30
0.0
 11
0.0
 21
99.999999153
 31
0.0
  0
LINE
  5
27F
330
1D
100
AcDbEntity
  8
NOCUT
100
AcDbLine
 10
0.0
 20
-99.999999152
 30
0.0
 11
0.0
 21
-10.0
 31
0.0
  0
ENDSEC
  0
SECTION
  2
OBJECTS
  0
DICTIONARY
  5
C
330
0
100
AcDbDictionary
281
     1
  3
ACAD_DETAILVIEWSTYLE
350
22C
  3
ACAD_GROUP
350
D
  3
ACAD_LAYOUT
350
1A
  3
ACAD_MATERIAL
350
176
  3
ACAD_MLEADERSTYLE
350
183
  3
ACAD_MLINESTYLE
350
17
  3
ACAD_PLOTSETTINGS
350
19
  3
ACAD_PLOTSTYLENAME
350
E
  3
ACAD_SCALELIST
350
13F
  3
ACAD_SECTIONVIEWSTYLE
350
22D
  3
ACAD_TABLESTYLE
350
1CC
  3
ACAD_VISUALSTYLE
350
165
  3
ACDB_RECOMPOSE_DATA
350
283
  3
AcDbVariableDictionary
350
181
  3
APPDATA
350
1CF
  0
SUN
  5
22F
330
139
100
AcDbSun
 90
        1
290
     0
 63
     7
421
 16777215
 40
1.0
291
     1
 91
  2455826
 92
 54000000
292
     0
 70
     2
 71
   256
280
     1
  0
DICTIONARY
  5
1D0
330
2
100
AcDbDictionary
280
     1
281
     1
  3
ACAD_LAYERSTATES
360
1D1
  0
DICTIONARY
  5
22C
102
{ACAD_REACTORS
330
C
102
}
330
C
100
AcDbDictionary
281
     1
  0
DICTIONARY
  5
D
102
{ACAD_REACTORS
330
C
102
}
330
C
100
AcDbDictionary
281
     1
  0
DICTIONARY
  5
1A
102
{ACAD_REACTORS
330
C
102
}
330
C
100
AcDbDictionary
281
     1
  3
Layout1
350
1C
  3
Model
350
1E
  0
DICTIONARY
  5
176
102
{ACAD_REACTORS
330
C
102
}
330
C
100
AcDbDictionary
281
     1
  3
ByBlock
350
178
  3
ByLayer
350
177
  3
Global
350
179
  0
DICTIONARY
  5
183
102
{ACAD_REACTORS
330
C
102
}
330
C
100
AcDbDictionary
281
     1
  3
Standard
350
1CE
  0
DICTIONARY
  5
17
102
{ACAD_REACTORS
330
C
102
}
330
C
100
AcDbDictionary
281
     1
  3
Standard
350
18
  0
DICTIONARY
  5
19
102
{ACAD_REACTORS
330
C
102
}
330
C
100
AcDbDictionary
281
     1
  0
ACDBDICTIONARYWDFLT
  5
E
102
{ACAD_REACTORS
330
C
102
}
330
C
100
AcDbDictionary
281
     1
  3
Normal
350
F
100
AcDbDictionaryWithDefault
340
F
  0
DICTIONARY
  5
13F
102
{ACAD_REACTORS
330
C
102
}
330
C
100
AcDbDictionary
281
     1
  3
A0
350
140
  3
A1
350
141
  3
A2
350
142
  3
A3
350
143
  3
A4
350
144
  3
A5
350
145
  3
A6
350
146
  3
A7
350
147
  3
A8
350
148
  3
A9
350
149
  3
B0
350
14A
  3
B1
350
14B
  3
B2
350
14C
  3
B3
350
14D
  3
B4
350
14E
  3
B5
350
14F
  3
B6
350
150
  3
B7
350
151
  3
B8
350
152
  3
B9
350
153
  3
C0
350
154
  3
C1
350
155
  3
C2
350
156
  3
C3
350
157
  3
C4
350
158
  3
C5
350
159
  3
C6
350
15A
  3
C7
350
15B
  3
C8
350
15C
  3
C9
350
15D
  3
D0
350
15E
  3
D1
350
15F
  3
D2
350
160
  0
DICTIONARY
  5
22D
102
{ACAD_REACTORS
330
C
102
}
330
C
100
AcDbDictionary
281
     1
  0
DICTIONARY
  5
1CC
102
{ACAD_REACTORS
330
C
102
}
330
C
100
AcDbDictionary
281
     1
  3
Standard
350
1CD
  0
DICTIONARY
  5
165
102
{ACAD_REACTORS
330
C
102
}
330
C
100
AcDbDictionary
281
     1
  3
2dWireframe
350
16A
  3
3D Hidden
350
16C
  3
3dWireframe
350
16B
  3
Basic
350
16D
  3
Brighten
350
171
  3
ColorChange
350
175
  3
Conceptual
350
16F
  3
Dim
350
170
  3
EdgeColorOff
350
1C6
  3
Facepattern
350
174
  3
Flat
350
166
  3
FlatWithEdges
350
167
  3
Gouraud
350
168
  3
GouraudWithEdges
350
169
  3
Hidden
350
1C3
  3
JitterOff
350
1C4
  3
Linepattern
350
173
  3
OverhangOff
350
1C5
  3
Realistic
350
16E
  3
Shaded
350
1CB
  3
Shaded with edges
350
1CA
  3
Shades of Gray
350
1C7
  3
Sketchy
350
1C8
  3
Thicken
350
172
  3
Wireframe
350
1C2
  3
X-Ray
350
1C9
  0
XRECORD
  5
283
102
{ACAD_REACTORS
330
C
102
}
330
C
100
AcDbXrecord
280
     1
 90
        1
330
1CD
  0
DICTIONARY
  5
181
102
{ACAD_REACTORS
330
C
102
}
330
C
100
AcDbDictionary
281
     1
  3
CANNOSCALE
350
229
  3
CMLEADERSTYLE
350
22B
  3
CTABLESTYLE
350
22A
  3
DIMASSOC
350
185
  3
HIDETEXT
350
186
  3
MSLTSCALE
350
184
  0
DICTIONARY
  5
1CF
102
{ACAD_REACTORS
330
C
102
}
330
C
100
AcDbDictionary
281
     1
  0
DICTIONARY
  5
1D1
102
{ACAD_REACTORS
330
1D0
102
}
330
1D0
100
AcDbDictionary
281
     1
  0
LAYOUT
  5
1C
102
{ACAD_REACTORS
330
1A
102
}
330
1A
100
AcDbPlotSettings
  1

  2
none_device
  4

  6

 40
0.0
 41
0.0
 42
0.0
 43
0.0
 44
0.0
 45
0.0
 46
0.0
 47
0.0
 48
0.0
 49
0.0
140
0.0
141
0.0
142
1.0
143
1.0
 70
   688
 72
     0
 73
     0
 74
     5
  7

 75
    16
 76
     0
 77
     2
 78
   300
147
1.0
148
0.0
149
0.0
100
AcDbLayout
  1
Layout1
 70
     1
 71
     1
 10
0.0
 20
0.0
 11
12.0
 21
9.0
 12
0.0
 22
0.0
 32
0.0
 14
1.000000000000000E+20
 24
1.000000000000000E+20
 34
1.000000000000000E+20
 15
-1.000000000000000E+20
 25
-1.000000000000000E+20
 35
-1.000000000000000E+20
146
0.0
 13
0.0
 23
0.0
 33
0.0
 16
1.0
 26
0.0
 36
0.0
 17
0.0
 27
1.0
 37
0.0
 76
     0
330
1B
  0
LAYOUT
  5
1E
102
{ACAD_REACTORS
330
1A
102
}
330
1A
100
AcDbPlotSettings
  1

  2
none_device
  4

  6

 40
0.0
 41
0.0
 42
0.0
 43
0.0
 44
0.0
 45
0.0
 46
0.0
 47
0.0
 48
0.0
 49
0.0
140
0.0
141
0.0
142
1.0
143
1.0
 70
  1712
 72
     0
 73
     0
 74
     0
  7

 75
     0
 76
     0
 77
     2
 78
   300
147
1.0
148
0.0
149
0.0
100
AcDbLayout
  1
Model
 70
     1
 71
     0
 10
0.0
 20
0.0
 11
12.0
 21
9.0
 12
0.0
 22
0.0
 32
0.0
 14
-16.09890007231205
 24
-117.7127027337753
 34
0.0
 15
69.97656426671512
 25
132.0548666717955
 35
0.0
146
0.0
 13
0.0
 23
0.0
 33
0.0
 16
1.0
 26
0.0
 36
0.0
 17
0.0
 27
1.0
 37
0.0
 76
     0
330
1D
331
139
  0
MATERIAL
  5
178
102
{ACAD_REACTORS
330
176
102
}
330
176
100
AcDbMaterial
  1
ByBlock
 72
     1
 94
      127
  0
MATERIAL
  5
177
102
{ACAD_REACTORS
330
176
102
}
330
176
100
AcDbMaterial
  1
ByLayer
 72
     1
 94
      127
  0
MATERIAL
  5
179
102
{ACAD_REACTORS
330
176
102
}
330
176
100
AcDbMaterial
  1
Global
 72
     1
 94
      127
  0
MLEADERSTYLE
  5
1CE
102
{ACAD_REACTORS
330
183
102
}
330
183
100
AcDbMLeaderStyle
179
     2
170
     2
171
     1
172
     0
 90
        2
 40
0.0
 41
0.0
173
     1
 91
-1056964608
340
14
 92
       -2
290
     1
 42
0.09
291
     1
 43
0.36
  3
Standard
341
0
 44
0.18
300

342
11
174
     1
178
     1
175
     1
176
     0
 93
-1056964608
 45
0.18
292
     0
297
     0
 46
0.18
343
0
 94
-1056964608
 47
1.0
 49
1.0
140
1.0
293
     1
141
0.0
294
     1
177
     0
142
1.0
295
     0
296
     0
143
0.125
271
     0
272
     9
273
     9
298
     0
  0
MLINESTYLE
  5
18
102
{ACAD_REACTORS
330
17
102
}
330
17
100
AcDbMlineStyle
  2
Standard
 70
     0
  3

 62
   256
 51
90.0
 52
90.0
 71
     2
 49
0.5
 62
   256
  6
BYLAYER
 49
-0.5
 62
   256
  6
BYLAYER
  0
ACDBPLACEHOLDER
  5
F
102
{ACAD_REACTORS
330
E
102
}
330
E
  0
SCALE
  5
140
102
{ACAD_REACTORS
330
13F
102
}
330
13F
100
AcDbScale
 70
     0
300
1:1
140
1.0
141
1.0
290
     1
  0
SCALE
  5
141
102
{ACAD_REACTORS
330
13F
102
}
330
13F
100
AcDbScale
 70
     0
300
1:2
140
1.0
141
2.0
290
     0
  0
SCALE
  5
142
102
{ACAD_REACTORS
330
13F
102
}
330
13F
100
AcDbScale
 70
     0
300
1:4
140
1.0
141
4.0
290
     0
  0
SCALE
  5
143
102
{ACAD_REACTORS
330
13F
102
}
330
13F
100
AcDbScale
 70
     0
300
1:5
140
1.0
141
5.0
290
     0
  0
SCALE
  5
144
102
{ACAD_REACTORS
330
13F
102
}
330
13F
100
AcDbScale
 70
     0
300
1:8
140
1.0
141
8.0
290
     0
  0
SCALE
  5
145
102
{ACAD_REACTORS
330
13F
102
}
330
13F
100
AcDbScale
 70
     0
300
1:10
140
1.0
141
10.0
290
     0
  0
SCALE
  5
146
102
{ACAD_REACTORS
330
13F
102
}
330
13F
100
AcDbScale
 70
     0
300
1:16
140
1.0
141
16.0
290
     0
  0
SCALE
  5
147
102
{ACAD_REACTORS
330
13F
102
}
330
13F
100
AcDbScale
 70
     0
300
1:20
140
1.0
141
20.0
290
     0
  0
SCALE
  5
148
102
{ACAD_REACTORS
330
13F
102
}
330
13F
100
AcDbScale
 70
     0
300
1:30
140
1.0
141
30.0
290
     0
  0
SCALE
  5
149
102
{ACAD_REACTORS
330
13F
102
}
330
13F
100
AcDbScale
 70
     0
300
1:40
140
1.0
141
40.0
290
     0
  0
SCALE
  5
14A
102
{ACAD_REACTORS
330
13F
102
}
330
13F
100
AcDbScale
 70
     0
300
1:50
140
1.0
141
50.0
290
     0
  0
SCALE
  5
14B
102
{ACAD_REACTORS
330
13F
102
}
330
13F
100
AcDbScale
 70
     0
300
1:100
140
1.0
141
100.0
290
     0
  0
SCALE
  5
14C
102
{ACAD_REACTORS
330
13F
102
}
330
13F
100
AcDbScale
 70
     0
300
2:1
140
2.0
141
1.0
290
     0
  0
SCALE
  5
14D
102
{ACAD_REACTORS
330
13F
102
}
330
13F
100
AcDbScale
 70
     0
300
4:1
140
4.0
141
1.0
290
     0
  0
SCALE
  5
14E
102
{ACAD_REACTORS
330
13F
102
}
330
13F
100
AcDbScale
 70
     0
300
8:1
140
8.0
141
1.0
290
     0
  0
SCALE
  5
14F
102
{ACAD_REACTORS
330
13F
102
}
330
13F
100
AcDbScale
 70
     0
300
10:1
140
10.0
141
1.0
290
     0
  0
SCALE
  5
150
102
{ACAD_REACTORS
330
13F
102
}
330
13F
100
AcDbScale
 70
     0
300
100:1
140
100.0
141
1.0
290
     0
  0
SCALE
  5
151
102
{ACAD_REACTORS
330
13F
102
}
330
13F
100
AcDbScale
 70
     0
300
1/128" = 1'-0"
140
0.0078125
141
12.0
290
     0
  0
SCALE
  5
152
102
{ACAD_REACTORS
330
13F
102
}
330
13F
100
AcDbScale
 70
     0
300
1/64" = 1'-0"
140
0.015625
141
12.0
290
     0
  0
SCALE
  5
153
102
{ACAD_REACTORS
330
13F
102
}
330
13F
100
AcDbScale
 70
     0
300
1/32" = 1'-0"
140
0.03125
141
12.0
290
     0
  0
SCALE
  5
154
102
{ACAD_REACTORS
330
13F
102
}
330
13F
100
AcDbScale
 70
     0
300
1/16" = 1'-0"
140
0.0625
141
12.0
290
     0
  0
SCALE
  5
155
102
{ACAD_REACTORS
330
13F
102
}
330
13F
100
AcDbScale
 70
     0
300
3/32" = 1'-0"
140
0.09375
141
12.0
290
     0
  0
SCALE
  5
156
102
{ACAD_REACTORS
330
13F
102
}
330
13F
100
AcDbScale
 70
     0
300
1/8" = 1'-0"
140
0.125
141
12.0
290
     0
  0
SCALE
  5
157
102
{ACAD_REACTORS
330
13F
102
}
330
13F
100
AcDbScale
 70
     0
300
3/16" = 1'-0"
140
0.1875
141
12.0
290
     0
  0
SCALE
  5
158
102
{ACAD_REACTORS
330
13F
102
}
330
13F
100
AcDbScale
 70
     0
300
1/4" = 1'-0"
140
0.25
141
12.0
290
     0
  0
SCALE
  5
159
102
{ACAD_REACTORS
330
13F
102
}
330
13F
100
AcDbScale
 70
     0
300
3/8" = 1'-0"
140
0.375
141
12.0
290
     0
  0
SCALE
  5
15A
102
{ACAD_REACTORS
330
13F
102
}
330
13F
100
AcDbScale
 70
     0
300
1/2" = 1'-0"
140
0.5
141
12.0
290
     0
  0
SCALE
  5
15B
102
{ACAD_REACTORS
330
13F
102
}
330
13F
100
AcDbScale
 70
     0
300
3/4" = 1'-0"
140
0.75
141
12.0
290
     0
  0
SCALE
  5
15C
102
{ACAD_REACTORS
330
13F
102
}
330
13F
100
AcDbScale
 70
     0
300
1" = 1'-0"
140
1.0
141
12.0
290
     0
  0
SCALE
  5
15D
102
{ACAD_REACTORS
330
13F
102
}
330
13F
100
AcDbScale
 70
     0
300
1-1/2" = 1'-0"
140
1.5
141
12.0
290
     0
  0
SCALE
  5
15E
102
{ACAD_REACTORS
330
13F
102
}
330
13F
100
AcDbScale
 70
     0
300
3" = 1'-0"
140
3.0
141
12.0
290
     0
  0
SCALE
  5
15F
102
{ACAD_REACTORS
330
13F
102
}
330
13F
100
AcDbScale
 70
     0
300
6" = 1'-0"
140
6.0
141
12.0
290
     0
  0
SCALE
  5
160
102
{ACAD_REACTORS
330
13F
102
}
330
13F
100
AcDbScale
 70
     0
300
1'-0" = 1'-0"
140
12.0
141
12.0
290
     0
  0
TABLESTYLE
  5
1CD
102
{ACAD_REACTORS
330
1CC
102
}
102
{ACAD_XDICTIONARY
360
281
102
}
330
1CC
100
AcDbTableStyle
  3
Standard
 70
     0
 71
     0
 40
0.06
 41
0.06
280
     0
281
     0
  7
Standard
140
0.18
170
     2
 62
     0
 63
   257
283
     0
 90
        4
 91
        0
  1

274
    -2
284
     1
 64
     0
275
    -2
285
     1
 65
     0
276
    -2
286
     1
 66
     0
277
    -2
287
     1
 67
     0
278
    -2
288
     1
 68
     0
279
    -2
289
     1
 69
     0
  7
Standard
140
0.25
170
     5
 62
     0
 63
   257
283
     0
 90
        4
 91
        0
  1

274
    -2
284
     1
 64
     0
275
    -2
285
     1
 65
     0
276
    -2
286
     1
 66
     0
277
    -2
287
     1
 67
     0
278
    -2
288
     1
 68
     0
279
    -2
289
     1
 69
     0
  7
Standard
140
0.18
170
     5
 62
     0
 63
   257
283
     0
 90
        4
 91
        0
  1

274
    -2
284
     1
 64
     0
275
    -2
285
     1
 65
     0
276
    -2
286
     1
 66
     0
277
    -2
287
     1
 67
     0
278
    -2
288
     1
 68
     0
279
    -2
289
     1
 69
     0
  0
VISUALSTYLE
  5
16A
102
{ACAD_REACTORS
330
165
102
}
330
165
100
AcDbVisualStyle
  2
2dWireframe
 70
     4
177
     3
291
     0
 70
    58
 90
        0
176
     1
 90
        2
176
     1
 90
        0
176
     1
 90
        0
176
     1
 40
-0.6
176
     1
 40
-30.0
176
     1
 62
     7
176
     1
 90
        1
176
     1
 90
        4
176
     1
 62
     7
176
     1
 62
   257
176
     1
 90
        1
176
     1
 90
        1
176
     1
 40
1.0
176
     1
 90
        0
176
     1
 62
   257
176
     1
 40
1.0
176
     1
 90
        1
176
     1
 90
        6
176
     1
 90
        2
176
     1
 62
     7
176
     1
 90
        5
176
     1
 90
        0
176
     1
 90
        0
176
     1
290
     0
176
     1
 90
        1
176
     1
 40
0.0
176
     1
 90
        0
176
     1
290
     1
176
     1
290
     1
176
     1
290
     0
176
     1
290
     0
176
     1
290
     0
176
     1
290
     0
176
     1
290
     0
176
     1
290
     0
176
     1
290
     0
176
     1
 90
       50
176
     1
 40
0.0
176
     1
 40
1.0
176
     1
 90
        0
176
     1
 62
    18
420
        0
176
     1
 90
       50
176
     1
 90
        3
176
     1
 62
     5
420
      255
176
     1
290
     0
176
     1
 90
       50
176
     1
 90
       50
176
     1
 90
       50
176
     1
290
     0
176
     1
 90
       50
176
     1
 62
   256
176
     0
 40
1.0
176
     0
 90
        2
176
     1
  1
strokes_ogs.tif
176
     1
290
     0
176
     1
 40
1.0
176
     1
 40
1.0
176
     1
  0
VISUALSTYLE
  5
16C
102
{ACAD_REACTORS
330
165
102
}
330
165
100
AcDbVisualStyle
  2
3D Hidden
 70
     6
177
     3
291
     0
 70
    58
 90
        1
176
     1
 90
        2
176
     1
 90
        2
176
     1
 90
        0
176
     1
 40
-0.6
176
     1
 40
-30.0
176
     1
 62
     7
176
     1
 90
        2
176
     1
 90
        2
176
     1
 62
     7
176
     1
 62
   257
176
     1
 90
        2
176
     1
 90
        1
176
     1
 40
40.0
176
     1
 90
        0
176
     1
 62
   257
176
     1
 40
1.0
176
     1
 90
        1
176
     1
 90
        6
176
     1
 90
        2
176
     1
 62
     7
176
     1
 90
        3
176
     1
 90
        0
176
     1
 90
        0
176
     1
290
     0
176
     1
 90
        1
176
     1
 40
0.0
176
     1
 90
        0
176
     1
290
     0
176
     1
290
     1
176
     1
290
     1
176
     1
290
     0
176
     1
290
     0
176
     1
290
     0
176
     1
290
     0
176
     1
290
     0
176
     1
290
     0
176
     1
 90
       50
176
     1
 40
0.0
176
     1
 40
1.0
176
     1
 90
        0
176
     1
 62
    18
420
        0
176
     1
 90
       50
176
     1
 90
        3
176
     1
 62
     5
420
      255
176
     1
290
     0
176
     1
 90
       50
176
     1
 90
       50
176
     1
 90
       50
176
     1
290
     0
176
     1
 90
       50
176
     1
 62
   256
176
     0
 40
1.0
176
     0
 90
        2
176
     1
  1
strokes_ogs.tif
176
     1
290
     0
176
     1
 40
1.0
176
     1
 40
1.0
176
     1
  0
VISUALSTYLE
  5
16B
102
{ACAD_REACTORS
330
165
102
}
330
165
100
AcDbVisualStyle
  2
3dWireframe
 70
     5
177
     3
291
     0
 70
    58
 90
        0
176
     1
 90
        2
176
     1
 90
        0
176
     1
 90
        0
176
     1
 40
-0.6
176
     1
 40
-30.0
176
     1
 62
     7
176
     1
 90
        1
176
     1
 90
        4
176
     1
 62
     7
176
     1
 62
   257
176
     1
 90
        1
176
     1
 90
        1
176
     1
 40
1.0
176
     1
 90
        0
176
     1
 62
   257
176
     1
 40
1.0
176
     1
 90
        1
176
     1
 90
        6
176
     1
 90
        2
176
     1
 62
     7
176
     1
 90
        5
176
     1
 90
        0
176
     1
 90
        0
176
     1
290
     0
176
     1
 90
        1
176
     1
 40
0.0
176
     1
 90
        0
176
     1
290
     0
176
     1
290
     1
176
     1
290
     1
176
     1
290
     0
176
     1
290
     0
176
     1
290
     0
176
     1
290
     0
176
     1
290
     0
176
     1
290
     0
176
     1
 90
       50
176
     1
 40
0.0
176
     1
 40
1.0
176
     1
 90
        0
176
     1
 62
    18
420
        0
176
     1
 90
       50
176
     1
 90
        3
176
     1
 62
     5
420
      255
176
     1
290
     0
176
     1
 90
       50
176
     1
 90
       50
176
     1
 90
       50
176
     1
290
     0
176
     1
 90
       50
176
     1
 62
   256
176
     0
 40
1.0
176
     0
 90
        2
176
     1
  1
strokes_ogs.tif
176
     1
290
     0
176
     1
 40
1.0
176
     1
 40
1.0
176
     1
  0
VISUALSTYLE
  5
16D
102
{ACAD_REACTORS
330
165
102
}
330
165
100
AcDbVisualStyle
  2
Basic
 70
     7
177
     3
291
     1
 70
    58
 90
        1
176
     1
 90
        0
176
     1
 90
        1
176
     1
 90
        0
176
     1
 40
-0.6
176
     1
 40
-30.0
176
     1
 62
     7
176
     1
 90
        0
176
     1
 90
        4
176
     1
 62
     7
176
     1
 62
   257
176
     1
 90
        1
176
     1
 90
        1
176
     1
 40
1.0
176
     1
 90
        8
176
     1
 62
     7
176
     1
 40
1.0
176
     1
 90
        1
176
     1
 90
        6
176
     1
 90
        2
176
     1
 62
     7
176
     1
 90
        5
176
     1
 90
        0
176
     1
 90
        0
176
     1
290
     0
176
     1
 90
        1
176
     1
 40
0.0
176
     1
 90
        0
176
     1
290
     0
176
     1
290
     1
176
     1
290
     1
176
     1
290
     0
176
     1
290
     0
176
     1
290
     0
176
     1
290
     0
176
     1
290
     0
176
     1
290
     0
176
     1
 90
       50
176
     1
 40
0.0
176
     1
 40
1.0
176
     1
 90
        0
176
     1
 62
    18
420
        0
176
     1
 90
       50
176
     1
 90
        3
176
     1
 62
     5
420
      255
176
     1
290
     0
176
     1
 90
       50
176
     1
 90
       50
176
     1
 90
       50
176
     1
290
     0
176
     1
 90
       50
176
     1
 62
   256
176
     0
 40
1.0
176
     0
 90
        2
176
     1
  1
strokes_ogs.tif
176
     1
290
     0
176
     1
 40
1.0
176
     1
 40
1.0
176
     1
  0
VISUALSTYLE
  5
171
102
{ACAD_REACTORS
330
165
102
}
330
165
100
AcDbVisualStyle
  2
Brighten
 70
    12
177
     3
291
     1
 70
    58
 90
        2
176
     1
 90
        2
176
     1
 90
        0
176
     1
 90
        0
176
     1
 40
-0.6
176
     1
 40
-30.0
176
     1
 62
     7
176
     1
 90
        1
176
     1
 90
        4
176
     1
 62
     7
176
     1
 62
   257
176
     1
 90
        1
176
     1
 90
        1
176
     1
 40
1.0
176
     1
 90
        8
176
     1
 62
     7
176
     1
 40
1.0
176
     1
 90
        1
176
     1
 90
        6
176
     1
 90
        2
176
     1
 62
     7
176
     1
 90
        5
176
     1
 90
        0
176
     1
 90
        0
176
     1
290
     0
176
     1
 90
        1
176
     1
 40
50.0
176
     1
 90
        0
176
     1
290
     0
176
     1
290
     1
176
     1
290
     1
176
     1
290
     0
176
     1
290
     0
176
     1
290
     0
176
     1
290
     0
176
     1
290
     0
176
     1
290
     0
176
     1
 90
       50
176
     1
 40
0.0
176
     1
 40
1.0
176
     1
 90
        0
176
     1
 62
    18
420
        0
176
     1
 90
       50
176
     1
 90
        3
176
     1
 62
     5
420
      255
176
     1
290
     0
176
     1
 90
       50
176
     1
 90
       50
176
     1
 90
       50
176
     1
290
     0
176
     1
 90
       50
176
     1
 62
   256
176
     0
 40
1.0
176
     0
 90
        2
176
     1
  1
strokes_ogs.tif
176
     1
290
     0
176
     1
 40
1.0
176
     1
 40
1.0
176
     1
  0
VISUALSTYLE
  5
175
102
{ACAD_REACTORS
330
165
102
}
330
165
100
AcDbVisualStyle
  2
ColorChange
 70
    16
177
     3
291
     1
 70
    58
 90
        2
176
     1
 90
        2
176
     1
 90
        3
176
     1
 90
        0
176
     1
 40
-0.6
176
     1
 40
-30.0
176
     1
 62
     8
176
     1
 90
        1
176
     1
 90
        4
176
     1
 62
     7
176
     1
 62
   257
176
     1
 90
        1
176
     1
 90
        1
176
     1
 40
1.0
176
     1
 90
        8
176
     1
 62
     8
176
     1
 40
1.0
176
     1
 90
        1
176
     1
 90
        6
176
     1
 90
        2
176
     1
 62
     7
176
     1
 90
        5
176
     1
 90
        0
176
     1
 90
        0
176
     1
290
     0
176
     1
 90
        1
176
     1
 40
0.0
176
     1
 90
        0
176
     1
290
     0
176
     1
290
     1
176
     1
290
     1
176
     1
290
     0
176
     1
290
     0
176
     1
290
     0
176
     1
290
     0
176
     1
290
     0
176
     1
290
     0
176
     1
 90
       50
176
     1
 40
0.0
176
     1
 40
1.0
176
     1
 90
        0
176
     1
 62
    18
420
        0
176
     1
 90
       50
176
     1
 90
        3
176
     1
 62
     5
420
      255
176
     1
290
     0
176
     1
 90
       50
176
     1
 90
       50
176
     1
 90
       50
176
     1
290
     0
176
     1
 90
       50
176
     1
 62
   256
176
     0
 40
1.0
176
     0
 90
        2
176
     1
  1
strokes_ogs.tif
176
     1
290
     0
176
     1
 40
1.0
176
     1
 40
1.0
176
     1
  0
VISUALSTYLE
  5
16F
102
{ACAD_REACTORS
330
165
102
}
330
165
100
AcDbVisualStyle
  2
Conceptual
 70
     9
177
     3
291
     0
 70
    58
 90
        3
176
     1
 90
        2
176
     1
 90
        0
176
     1
 90
        0
176
     1
 40
-0.6
176
     1
 40
-30.0
176
     1
 62
     7
176
     1
 90
        2
176
     1
 90
        2
176
     1
 62
     7
176
     1
 62
   257
176
     1
 90
        1
176
     1
 90
        1
176
     1
 40
40.0
176
     1
 90
        8
176
     1
 62
     7
176
     1
 40
1.0
176
     1
 90
        1
176
     1
 90
        6
176
     1
 90
        2
176
     1
 62
     7
176
     1
 90
        3
176
     1
 90
        0
176
     1
 90
        0
176
     1
290
     0
176
     1
 90
        1
176
     1
 40
0.0
176
     1
 90
        0
176
     1
290
     0
176
     1
290
     1
176
     1
290
     1
176
     1
290
     0
176
     1
290
     0
176
     1
290
     0
176
     1
290
     0
176
     1
290
     0
176
     1
290
     0
176
     1
 90
       50
176
     1
 40
0.0
176
     1
 40
1.0
176
     1
 90
        0
176
     1
 62
    18
420
        0
176
     1
 90
       50
176
     1
 90
        3
176
     1
 62
     5
420
      255
176
     1
290
     0
176
     1
 90
       50
176
     1
 90
       50
176
     1
 90
       50
176
     1
290
     0
176
     1
 90
       50
176
     1
 62
   256
176
     0
 40
1.0
176
     0
 90
        2
176
     1
  1
strokes_ogs.tif
176
     1
290
     0
176
     1
 40
1.0
176
     1
 40
1.0
176
     1
  0
VISUALSTYLE
  5
170
102
{ACAD_REACTORS
330
165
102
}
330
165
100
AcDbVisualStyle
  2
Dim
 70
    11
177
     3
291
     1
 70
    58
 90
        2
176
     1
 90
        2
176
     1
 90
        0
176
     1
 90
        0
176
     1
 40
-0.6
176
     1
 40
-30.0
176
     1
 62
     7
176
     1
 90
        1
176
     1
 90
        4
176
     1
 62
     7
176
     1
 62
   257
176
     1
 90
        1
176
     1
 90
        1
176
     1
 40
1.0
176
     1
 90
        8
176
     1
 62
     7
176
     1
 40
1.0
176
     1
 90
        1
176
     1
 90
        6
176
     1
 90
        2
176
     1
 62
     7
176
     1
 90
        5
176
     1
 90
        0
176
     1
 90
        0
176
     1
290
     0
176
     1
 90
        1
176
     1
 40
-50.0
176
     1
 90
        0
176
     1
290
     0
176
     1
290
     1
176
     1
290
     1
176
     1
290
     0
176
     1
290
     0
176
     1
290
     0
176
     1
290
     0
176
     1
290
     0
176
     1
290
     0
176
     1
 90
       50
176
     1
 40
0.0
176
     1
 40
1.0
176
     1
 90
        0
176
     1
 62
    18
420
        0
176
     1
 90
       50
176
     1
 90
        3
176
     1
 62
     5
420
      255
176
     1
290
     0
176
     1
 90
       50
176
     1
 90
       50
176
     1
 90
       50
176
     1
290
     0
176
     1
 90
       50
176
     1
 62
   256
176
     0
 40
1.0
176
     0
 90
        2
176
     1
  1
strokes_ogs.tif
176
     1
290
     0
176
     1
 40
1.0
176
     1
 40
1.0
176
     1
  0
VISUALSTYLE
  5
1C6
102
{ACAD_REACTORS
330
165
102
}
330
165
100
AcDbVisualStyle
  2
EdgeColorOff
 70
    22
177
     3
291
     1
 70
    58
 90
        2
176
     0
 90
        2
176
     0
 90
        0
176
     0
 90
        0
176
     0
 40
0.6
176
     0
 40
30.0
176
     0
 62
     7
420
 16777215
176
     0
 90
        1
176
     0
 90
        4
176
     0
 62
     7
176
     0
 62
   257
176
     0
 90
        1
176
     0
 90
        1
176
     0
 40
1.0
176
     0
 90
        8
176
     2
 62
     7
176
     0
 40
1.0
176
     0
 90
        1
176
     0
 90
        6
176
     0
 90
        2
176
     0
 62
     7
176
     0
 90
        5
176
     0
 90
        0
176
     0
 90
        0
176
     0
290
     0
176
     0
 90
        1
176
     0
 40
0.0
176
     0
 90
        0
176
     0
290
     0
176
     0
290
     1
176
     0
290
     1
176
     0
290
     0
176
     0
290
     0
176
     0
290
     0
176
     0
290
     0
176
     0
290
     0
176
     0
290
     0
176
     0
 90
       50
176
     0
 40
0.0
176
     0
 40
1.0
176
     0
 90
        0
176
     0
 62
    18
420
        0
176
     0
 90
       50
176
     0
 90
        3
176
     0
 62
     5
420
      255
176
     0
290
     0
176
     0
 90
       50
176
     0
 90
       50
176
     0
 90
       50
176
     0
290
     0
176
     0
 90
       50
176
     0
 62
   256
176
     0
 40
1.0
176
     0
 90
        2
176
     0
  1
strokes_ogs.tif
176
     0
290
     0
176
     0
 40
1.0
176
     0
 40
1.0
176
     0
  0
VISUALSTYLE
  5
174
102
{ACAD_REACTORS
330
165
102
}
330
165
100
AcDbVisualStyle
  2
Facepattern
 70
    15
177
     3
291
     1
 70
    58
 90
        2
176
     1
 90
        2
176
     1
 90
        0
176
     1
 90
        0
176
     1
 40
-0.6
176
     1
 40
-30.0
176
     1
 62
     7
176
     1
 90
        1
176
     1
 90
        4
176
     1
 62
     7
176
     1
 62
   257
176
     1
 90
        1
176
     1
 90
        1
176
     1
 40
1.0
176
     1
 90
        8
176
     1
 62
     7
176
     1
 40
1.0
176
     1
 90
        1
176
     1
 90
        6
176
     1
 90
        2
176
     1
 62
     7
176
     1
 90
        5
176
     1
 90
        0
176
     1
 90
        0
176
     1
290
     0
176
     1
 90
        1
176
     1
 40
0.0
176
     1
 90
        0
176
     1
290
     0
176
     1
290
     1
176
     1
290
     1
176
     1
290
     0
176
     1
290
     0
176
     1
290
     0
176
     1
290
     0
176
     1
290
     0
176
     1
290
     0
176
     1
 90
       50
176
     1
 40
0.0
176
     1
 40
1.0
176
     1
 90
        0
176
     1
 62
    18
420
        0
176
     1
 90
       50
176
     1
 90
        3
176
     1
 62
     5
420
      255
176
     1
290
     0
176
     1
 90
       50
176
     1
 90
       50
176
     1
 90
       50
176
     1
290
     0
176
     1
 90
       50
176
     1
 62
   256
176
     0
 40
1.0
176
     0
 90
        2
176
     1
  1
strokes_ogs.tif
176
     1
290
     0
176
     1
 40
1.0
176
     1
 40
1.0
176
     1
  0
VISUALSTYLE
  5
166
102
{ACAD_REACTORS
330
165
102
}
330
165
100
AcDbVisualStyle
  2
Flat
 70
     0
177
     3
291
     1
 70
    58
 90
        2
176
     1
 90
        1
176
     1
 90
        1
176
     1
 90
        2
176
     1
 40
-0.6
176
     1
 40
30.0
176
     1
 62
     7
176
     1
 90
        0
176
     1
 90
        4
176
     1
 62
     7
176
     1
 62
   257
176
     1
 90
        1
176
     1
 90
        1
176
     1
 40
1.0
176
     1
 90
        8
176
     1
 62
     7
176
     1
 40
1.0
176
     1
 90
        1
176
     1
 90
        6
176
     1
 90
        2
176
     1
 62
     7
176
     1
 90
        5
176
     1
 90
        0
176
     1
 90
        0
176
     1
290
     0
176
     1
 90
       13
176
     1
 40
0.0
176
     1
 90
        0
176
     1
290
     0
176
     1
290
     1
176
     1
290
     1
176
     1
290
     0
176
     1
290
     0
176
     1
290
     0
176
     1
290
     0
176
     1
290
     0
176
     1
290
     0
176
     1
 90
       50
176
     1
 40
0.0
176
     1
 40
1.0
176
     1
 90
        0
176
     1
 62
    18
420
        0
176
     1
 90
       50
176
     1
 90
        3
176
     1
 62
     5
420
      255
176
     1
290
     0
176
     1
 90
       50
176
     1
 90
       50
176
     1
 90
       50
176
     1
290
     0
176
     1
 90
       50
176
     1
 62
   256
176
     0
 40
1.0
176
     0
 90
        2
176
     1
  1
strokes_ogs.tif
176
     1
290
     0
176
     1
 40
1.0
176
     1
 40
1.0
176
     1
  0
VISUALSTYLE
  5
167
102
{ACAD_REACTORS
330
165
102
}
330
165
100
AcDbVisualStyle
  2
FlatWithEdges
 70
     1
177
     3
291
     1
 70
    58
 90
        2
176
     1
 90
        1
176
     1
 90
        1
176
     1
 90
        2
176
     1
 40
-0.6
176
     1
 40
30.0
176
     1
 62
     7
176
     1
 90
        1
176
     1
 90
        4
176
     1
 62
     7
176
     1
 62
   257
176
     1
 90
        1
176
     1
 90
        1
176
     1
 40
1.0
176
     1
 90
        0
176
     1
 62
   257
176
     1
 40
1.0
176
     1
 90
        1
176
     1
 90
        6
176
     1
 90
        2
176
     1
 62
     7
176
     1
 90
        5
176
     1
 90
        0
176
     1
 90
        0
176
     1
290
     0
176
     1
 90
       13
176
     1
 40
0.0
176
     1
 90
        0
176
     1
290
     0
176
     1
290
     1
176
     1
290
     1
176
     1
290
     0
176
     1
290
     0
176
     1
290
     0
176
     1
290
     0
176
     1
290
     0
176
     1
290
     0
176
     1
 90
       50
176
     1
 40
0.0
176
     1
 40
1.0
176
     1
 90
        0
176
     1
 62
    18
420
        0
176
     1
 90
       50
176
     1
 90
        3
176
     1
 62
     5
420
      255
176
     1
290
     0
176
     1
 90
       50
176
     1
 90
       50
176
     1
 90
       50
176
     1
290
     0
176
     1
 90
       50
176
     1
 62
   256
176
     0
 40
1.0
176
     0
 90
        2
176
     1
  1
strokes_ogs.tif
176
     1
290
     0
176
     1
 40
1.0
176
     1
 40
1.0
176
     1
  0
VISUALSTYLE
  5
168
102
{ACAD_REACTORS
330
165
102
}
330
165
100
AcDbVisualStyle
  2
Gouraud
 70
     2
177
     3
291
     1
 70
    58
 90
        2
176
     1
 90
        2
176
     1
 90
        1
176
     1
 90
        2
176
     1
 40
-0.6
176
     1
 40
30.0
176
     1
 62
     7
176
     1
 90
        0
176
     1
 90
        4
176
     1
 62
     7
176
     1
 62
   257
176
     1
 90
        1
176
     1
 90
        1
176
     1
 40
1.0
176
     1
 90
        0
176
     1
 62
     7
176
     1
 40
1.0
176
     1
 90
        1
176
     1
 90
        6
176
     1
 90
        2
176
     1
 62
     7
176
     1
 90
        5
176
     1
 90
        0
176
     1
 90
        0
176
     1
290
     0
176
     1
 90
       13
176
     1
 40
0.0
176
     1
 90
        0
176
     1
290
     0
176
     1
290
     1
176
     1
290
     1
176
     1
290
     0
176
     1
290
     0
176
     1
290
     0
176
     1
290
     0
176
     1
290
     0
176
     1
290
     0
176
     1
 90
       50
176
     1
 40
0.0
176
     1
 40
1.0
176
     1
 90
        0
176
     1
 62
    18
420
        0
176
     1
 90
       50
176
     1
 90
        3
176
     1
 62
     5
420
      255
176
     1
290
     0
176
     1
 90
       50
176
     1
 90
       50
176
     1
 90
       50
176
     1
290
     0
176
     1
 90
       50
176
     1
 62
   256
176
     0
 40
1.0
176
     0
 90
        2
176
     1
  1
strokes_ogs.tif
176
     1
290
     0
176
     1
 40
1.0
176
     1
 40
1.0
176
     1
  0
VISUALSTYLE
  5
169
102
{ACAD_REACTORS
330
165
102
}
330
165
100
AcDbVisualStyle
  2
GouraudWithEdges
 70
     3
177
     3
291
     1
 70
    58
 90
        2
176
     1
 90
        2
176
     1
 90
        1
176
     1
 90
        2
176
     1
 40
-0.6
176
     1
 40
30.0
176
     1
 62
     7
176
     1
 90
        1
176
     1
 90
        4
176
     1
 62
     7
176
     1
 62
   257
176
     1
 90
        1
176
     1
 90
        1
176
     1
 40
1.0
176
     1
 90
        0
176
     1
 62
   257
176
     1
 40
1.0
176
     1
 90
        1
176
     1
 90
        6
176
     1
 90
        2
176
     1
 62
     7
176
     1
 90
        5
176
     1
 90
        0
176
     1
 90
        0
176
     1
290
     0
176
     1
 90
       13
176
     1
 40
0.0
176
     1
 90
        0
176
     1
290
     0
176
     1
290
     1
176
     1
290
     1
176
     1
290
     0
176
     1
290
     0
176
     1
290
     0
176
     1
290
     0
176
     1
290
     0
176
     1
290
     0
176
     1
 90
       50
176
     1
 40
0.0
176
     1
 40
1.0
176
     1
 90
        0
176
     1
 62
    18
420
        0
176
     1
 90
       50
176
     1
 90
        3
176
     1
 62
     5
420
      255
176
     1
290
     0
176
     1
 90
       50
176
     1
 90
       50
176
     1
 90
       50
176
     1
290
     0
176
     1
 90
       50
176
     1
 62
   256
176
     0
 40
1.0
176
     0
 90
        2
176
     1
  1
strokes_ogs.tif
176
     1
290
     0
176
     1
 40
1.0
176
     1
 40
1.0
176
     1
  0
VISUALSTYLE
  5
1C3
102
{ACAD_REACTORS
330
165
102
}
330
165
100
AcDbVisualStyle
  2
Hidden
 70
     6
177
     3
291
     0
 70
    58
 90
        1
176
     1
 90
        2
176
     1
 90
        2
176
     1
 90
        0
176
     1
 40
0.6
176
     1
 40
30.0
176
     1
 62
     7
420
 16777215
176
     1
 90
        2
176
     1
 90
        2
176
     1
 62
     7
176
     1
 62
   257
176
     1
 90
        2
176
     1
 90
        1
176
     1
 40
40.0
176
     1
 90
        0
176
     1
 62
   257
176
     1
 40
1.0
176
     1
 90
        1
176
     1
 90
        6
176
     1
 90
        2
176
     1
 62
     7
176
     1
 90
        3
176
     1
 90
        0
176
     1
 90
        0
176
     1
290
     0
176
     1
 90
        1
176
     1
 40
0.0
176
     1
 90
        0
176
     1
290
     0
176
     1
290
     1
176
     1
290
     1
176
     1
290
     0
176
     1
290
     0
176
     1
290
     0
176
     1
290
     0
176
     1
290
     0
176
     1
290
     0
176
     1
 90
       50
176
     1
 40
0.0
176
     1
 40
1.0
176
     1
 90
        0
176
     1
 62
    18
420
        0
176
     1
 90
       50
176
     1
 90
        3
176
     1
 62
     5
420
      255
176
     1
290
     0
176
     1
 90
       50
176
     1
 90
       50
176
     1
 90
       50
176
     1
290
     0
176
     1
 90
       50
176
     1
 62
   256
176
     0
 40
1.0
176
     0
 90
        2
176
     1
  1
strokes_ogs.tif
176
     1
290
     0
176
     1
 40
1.0
176
     1
 40
1.0
176
     1
  0
VISUALSTYLE
  5
1C4
102
{ACAD_REACTORS
330
165
102
}
330
165
100
AcDbVisualStyle
  2
JitterOff
 70
    20
177
     3
291
     1
 70
    58
 90
        2
176
     0
 90
        2
176
     0
 90
        0
176
     0
 90
        0
176
     0
 40
0.6
176
     0
 40
30.0
176
     0
 62
     7
420
 16777215
176
     0
 90
        1
176
     0
 90
        4
176
     0
 62
     7
176
     0
 62
   257
176
     0
 90
        1
176
     0
 90
        1
176
     0
 40
1.0
176
     0
 90
       10
176
     2
 62
     7
176
     0
 40
1.0
176
     0
 90
        1
176
     0
 90
        6
176
     0
 90
        2
176
     0
 62
     7
176
     0
 90
        5
176
     0
 90
        0
176
     0
 90
        0
176
     0
290
     0
176
     0
 90
        1
176
     0
 40
0.0
176
     0
 90
        0
176
     0
290
     0
176
     0
290
     1
176
     0
290
     1
176
     0
290
     0
176
     0
290
     0
176
     0
290
     0
176
     0
290
     0
176
     0
290
     0
176
     0
290
     0
176
     0
 90
       50
176
     0
 40
0.0
176
     0
 40
1.0
176
     0
 90
        0
176
     0
 62
    18
420
        0
176
     0
 90
       50
176
     0
 90
        3
176
     0
 62
     5
420
      255
176
     0
290
     0
176
     0
 90
       50
176
     0
 90
       50
176
     0
 90
       50
176
     0
290
     0
176
     0
 90
       50
176
     0
 62
   256
176
     0
 40
1.0
176
     0
 90
        2
176
     0
  1
strokes_ogs.tif
176
     0
290
     0
176
     0
 40
1.0
176
     0
 40
1.0
176
     0
  0
VISUALSTYLE
  5
173
102
{ACAD_REACTORS
330
165
102
}
330
165
100
AcDbVisualStyle
  2
Linepattern
 70
    14
177
     3
291
     1
 70
    58
 90
        2
176
     1
 90
        2
176
     1
 90
        0
176
     1
 90
        0
176
     1
 40
-0.6
176
     1
 40
-30.0
176
     1
 62
     7
176
     1
 90
        1
176
     1
 90
        4
176
     1
 62
     7
176
     1
 62
   257
176
     1
 90
        7
176
     1
 90
        7
176
     1
 40
1.0
176
     1
 90
        8
176
     1
 62
     7
176
     1
 40
1.0
176
     1
 90
        1
176
     1
 90
        6
176
     1
 90
        2
176
     1
 62
     7
176
     1
 90
        5
176
     1
 90
        0
176
     1
 90
        0
176
     1
290
     0
176
     1
 90
        1
176
     1
 40
0.0
176
     1
 90
        0
176
     1
290
     0
176
     1
290
     1
176
     1
290
     1
176
     1
290
     0
176
     1
290
     0
176
     1
290
     0
176
     1
290
     0
176
     1
290
     0
176
     1
290
     0
176
     1
 90
       50
176
     1
 40
0.0
176
     1
 40
1.0
176
     1
 90
        0
176
     1
 62
    18
420
        0
176
     1
 90
       50
176
     1
 90
        3
176
     1
 62
     5
420
      255
176
     1
290
     0
176
     1
 90
       50
176
     1
 90
       50
176
     1
 90
       50
176
     1
290
     0
176
     1
 90
       50
176
     1
 62
   256
176
     0
 40
1.0
176
     0
 90
        2
176
     1
  1
strokes_ogs.tif
176
     1
290
     0
176
     1
 40
1.0
176
     1
 40
1.0
176
     1
  0
VISUALSTYLE
  5
1C5
102
{ACAD_REACTORS
330
165
102
}
330
165
100
AcDbVisualStyle
  2
OverhangOff
 70
    21
177
     3
291
     1
 70
    58
 90
        2
176
     0
 90
        2
176
     0
 90
        0
176
     0
 90
        0
176
     0
 40
0.6
176
     0
 40
30.0
176
     0
 62
     7
420
 16777215
176
     0
 90
        1
176
     0
 90
        4
176
     0
 62
     7
176
     0
 62
   257
176
     0
 90
        1
176
     0
 90
        1
176
     0
 40
1.0
176
     0
 90
        9
176
     2
 62
     7
176
     0
 40
1.0
176
     0
 90
        1
176
     0
 90
        6
176
     0
 90
        2
176
     0
 62
     7
176
     0
 90
        5
176
     0
 90
        0
176
     0
 90
        0
176
     0
290
     0
176
     0
 90
        1
176
     0
 40
0.0
176
     0
 90
        0
176
     0
290
     0
176
     0
290
     1
176
     0
290
     1
176
     0
290
     0
176
     0
290
     0
176
     0
290
     0
176
     0
290
     0
176
     0
290
     0
176
     0
290
     0
176
     0
 90
       50
176
     0
 40
0.0
176
     0
 40
1.0
176
     0
 90
        0
176
     0
 62
    18
420
        0
176
     0
 90
       50
176
     0
 90
        3
176
     0
 62
     5
420
      255
176
     0
290
     0
176
     0
 90
       50
176
     0
 90
       50
176
     0
 90
       50
176
     0
290
     0
176
     0
 90
       50
176
     0
 62
   256
176
     0
 40
1.0
176
     0
 90
        2
176
     0
  1
strokes_ogs.tif
176
     0
290
     0
176
     0
 40
1.0
176
     0
 40
1.0
176
     0
  0
VISUALSTYLE
  5
16E
102
{ACAD_REACTORS
330
165
102
}
330
165
100
AcDbVisualStyle
  2
Realistic
 70
     8
177
     3
291
     0
 70
    58
 90
        2
176
     1
 90
        2
176
     1
 90
        0
176
     1
 90
        0
176
     1
 40
-0.6
176
     1
 40
-30.0
176
     1
 62
     7
176
     1
 90
        1
176
     1
 90
        0
176
     1
 62
     7
176
     1
 62
   257
176
     1
 90
        1
176
     1
 90
        1
176
     1
 40
1.0
176
     1
 90
        8
176
     1
 62
     8
176
     1
 40
1.0
176
     1
 90
        1
176
     1
 90
        6
176
     1
 90
        2
176
     1
 62
     7
176
     1
 90
        5
176
     1
 90
        0
176
     1
 90
        0
176
     1
290
     0
176
     1
 90
       13
176
     1
 40
0.0
176
     1
 90
        0
176
     1
290
     0
176
     1
290
     1
176
     1
290
     1
176
     1
290
     0
176
     1
290
     0
176
     1
290
     0
176
     1
290
     0
176
     1
290
     0
176
     1
290
     0
176
     1
 90
       50
176
     1
 40
0.0
176
     1
 40
1.0
176
     1
 90
        0
176
     1
 62
    18
420
        0
176
     1
 90
       50
176
     1
 90
        3
176
     1
 62
     5
420
      255
176
     1
290
     0
176
     1
 90
       50
176
     1
 90
       50
176
     1
 90
       50
176
     1
290
     0
176
     1
 90
       50
176
     1
 62
   256
176
     0
 40
1.0
176
     0
 90
        2
176
     1
  1
strokes_ogs.tif
176
     1
290
     0
176
     1
 40
1.0
176
     1
 40
1.0
176
     1
  0
VISUALSTYLE
  5
1CB
102
{ACAD_REACTORS
330
165
102
}
330
165
100
AcDbVisualStyle
  2
Shaded
 70
    27
177
     3
291
     0
 70
    58
 90
        2
176
     1
 90
        2
176
     1
 90
        1
176
     1
 90
        2
176
     1
 40
0.6
176
     1
 40
30.0
176
     1
 62
     7
420
 16777215
176
     1
 90
        0
176
     1
 90
        4
176
     1
 62
     7
176
     1
 62
   257
176
     1
 90
        1
176
     1
 90
        1
176
     1
 40
1.0
176
     1
 90
        8
176
     1
 62
   257
176
     1
 40
1.0
176
     1
 90
        1
176
     1
 90
        6
176
     1
 90
        2
176
     1
 62
     8
420
  7895160
176
     1
 90
        3
176
     1
 90
        0
176
     1
 90
        0
176
     1
290
     0
176
     1
 90
        5
176
     1
 40
0.0
176
     1
 90
        0
176
     1
290
     0
176
     1
290
     1
176
     1
290
     1
176
     1
290
     0
176
     1
290
     0
176
     1
290
     0
176
     1
290
     0
176
     1
290
     0
176
     1
290
     0
176
     1
 90
       50
176
     1
 40
0.0
176
     1
 40
1.0
176
     1
 90
        0
176
     1
 62
    18
420
        0
176
     1
 90
       50
176
     1
 90
        3
176
     1
 62
     5
420
      255
176
     1
290
     0
176
     1
 90
       50
176
     1
 90
       50
176
     1
 90
       50
176
     1
290
     0
176
     1
 90
       50
176
     1
 62
   256
176
     0
 40
1.0
176
     0
 90
        2
176
     1
  1
strokes_ogs.tif
176
     1
290
     0
176
     1
 40
1.0
176
     1
 40
1.0
176
     1
  0
VISUALSTYLE
  5
1CA
102
{ACAD_REACTORS
330
165
102
}
330
165
100
AcDbVisualStyle
  2
Shaded with edges
 70
    26
177
     3
291
     0
 70
    58
 90
        2
176
     1
 90
        2
176
     1
 90
        1
176
     1
 90
        2
176
     1
 40
0.6
176
     1
 40
30.0
176
     1
 62
     7
420
 16777215
176
     1
 90
        1
176
     1
 90
       10
176
     1
 62
     7
176
     1
 62
   257
176
     1
 90
        2
176
     1
 90
        1
176
     1
 40
1.0
176
     1
 90
        8
176
     1
 62
   257
176
     1
 40
1.0
176
     1
 90
        1
176
     1
 90
        6
176
     1
 90
        2
176
     1
 62
     7
176
     1
 90
        3
176
     1
 90
        0
176
     1
 90
        0
176
     1
290
     0
176
     1
 90
        5
176
     1
 40
0.0
176
     1
 90
        0
176
     1
290
     0
176
     1
290
     1
176
     1
290
     1
176
     1
290
     0
176
     1
290
     0
176
     1
290
     0
176
     1
290
     0
176
     1
290
     0
176
     1
290
     0
176
     1
 90
       50
176
     1
 40
0.0
176
     1
 40
1.0
176
     1
 90
        0
176
     1
 62
    18
420
        0
176
     1
 90
       50
176
     1
 90
        3
176
     1
 62
     5
420
      255
176
     1
290
     0
176
     1
 90
       50
176
     1
 90
       50
176
     1
 90
       50
176
     1
290
     0
176
     1
 90
       50
176
     1
 62
   256
176
     0
 40
1.0
176
     0
 90
        2
176
     1
  1
strokes_ogs.tif
176
     1
290
     0
176
     1
 40
1.0
176
     1
 40
1.0
176
     1
  0
VISUALSTYLE
  5
1C7
102
{ACAD_REACTORS
330
165
102
}
330
165
100
AcDbVisualStyle
  2
Shades of Gray
 70
    23
177
     3
291
     0
 70
    58
 90
        2
176
     1
 90
        2
176
     1
 90
        3
176
     1
 90
        0
176
     1
 40
0.6
176
     1
 40
30.0
176
     1
 62
     7
420
 16777215
176
     1
 90
        2
176
     1
 90
        2
176
     1
 62
     7
176
     1
 62
     7
176
     1
 90
        1
176
     1
 90
        1
176
     1
 40
40.0
176
     1
 90
        8
176
     1
 62
     7
176
     1
 40
1.0
176
     1
 90
        1
176
     1
 90
        6
176
     1
 90
        2
176
     1
 62
     7
176
     1
 90
        3
176
     1
 90
        0
176
     1
 90
        0
176
     1
290
     0
176
     1
 90
        1
176
     1
 40
0.0
176
     1
 90
        0
176
     1
290
     0
176
     1
290
     1
176
     1
290
     1
176
     1
290
     0
176
     1
290
     0
176
     1
290
     0
176
     1
290
     0
176
     1
290
     0
176
     1
290
     0
176
     1
 90
       50
176
     1
 40
0.0
176
     1
 40
1.0
176
     1
 90
        0
176
     1
 62
    18
420
        0
176
     1
 90
       50
176
     1
 90
        3
176
     1
 62
     5
420
      255
176
     1
290
     0
176
     1
 90
       50
176
     1
 90
       50
176
     1
 90
       50
176
     1
290
     0
176
     1
 90
       50
176
     1
 62
   256
176
     0
 40
1.0
176
     0
 90
        2
176
     1
  1
strokes_ogs.tif
176
     1
290
     0
176
     1
 40
1.0
176
     1
 40
1.0
176
     1
  0
VISUALSTYLE
  5
1C8
102
{ACAD_REACTORS
330
165
102
}
330
165
100
AcDbVisualStyle
  2
Sketchy
 70
    24
177
     3
291
     0
 70
    58
 90
        1
176
     1
 90
        2
176
     1
 90
        2
176
     1
 90
        0
176
     1
 40
0.6
176
     1
 40
30.0
176
     1
 62
     7
420
 16777215
176
     1
 90
        2
176
     1
 90
        2
176
     1
 62
     7
176
     1
 62
     7
176
     1
 90
        1
176
     1
 90
        1
176
     1
 40
40.0
176
     1
 90
       11
176
     1
 62
     7
176
     1
 40
1.0
176
     1
 90
        1
176
     1
 90
        6
176
     1
 90
        2
176
     1
 62
     7
176
     1
 90
        6
176
     1
 90
        0
176
     1
 90
        0
176
     1
290
     0
176
     1
 90
        1
176
     1
 40
0.0
176
     1
 90
        0
176
     1
290
     0
176
     1
290
     1
176
     1
290
     1
176
     1
290
     0
176
     1
290
     0
176
     1
290
     0
176
     1
290
     0
176
     1
290
     0
176
     1
290
     0
176
     1
 90
       50
176
     1
 40
0.0
176
     1
 40
1.0
176
     1
 90
        0
176
     1
 62
    18
420
        0
176
     1
 90
       50
176
     1
 90
        3
176
     1
 62
     5
420
      255
176
     1
290
     0
176
     1
 90
       50
176
     1
 90
       50
176
     1
 90
       50
176
     1
290
     0
176
     1
 90
       50
176
     1
 62
   256
176
     0
 40
1.0
176
     0
 90
        2
176
     1
  1
strokes_ogs.tif
176
     1
290
     0
176
     1
 40
1.0
176
     1
 40
1.0
176
     1
  0
VISUALSTYLE
  5
172
102
{ACAD_REACTORS
330
165
102
}
330
165
100
AcDbVisualStyle
  2
Thicken
 70
    13
177
     3
291
     1
 70
    58
 90
        2
176
     1
 90
        2
176
     1
 90
        0
176
     1
 90
        0
176
     1
 40
-0.6
176
     1
 40
-30.0
176
     1
 62
     7
176
     1
 90
        1
176
     1
 90
        4
176
     1
 62
     7
176
     1
 62
   257
176
     1
 90
        1
176
     1
 90
        1
176
     1
 40
1.0
176
     1
 90
       12
176
     1
 62
     7
176
     1
 40
1.0
176
     1
 90
        1
176
     1
 90
        6
176
     1
 90
        2
176
     1
 62
     7
176
     1
 90
        5
176
     1
 90
        0
176
     1
 90
        0
176
     1
290
     0
176
     1
 90
        1
176
     1
 40
0.0
176
     1
 90
        0
176
     1
290
     0
176
     1
290
     1
176
     1
290
     1
176
     1
290
     0
176
     1
290
     0
176
     1
290
     0
176
     1
290
     0
176
     1
290
     0
176
     1
290
     0
176
     1
 90
       50
176
     1
 40
0.0
176
     1
 40
1.0
176
     1
 90
        0
176
     1
 62
    18
420
        0
176
     1
 90
       50
176
     1
 90
        3
176
     1
 62
     5
420
      255
176
     1
290
     0
176
     1
 90
       50
176
     1
 90
       50
176
     1
 90
       50
176
     1
290
     0
176
     1
 90
       50
176
     1
 62
   256
176
     0
 40
1.0
176
     0
 90
        2
176
     1
  1
strokes_ogs.tif
176
     1
290
     0
176
     1
 40
1.0
176
     1
 40
1.0
176
     1
  0
VISUALSTYLE
  5
1C2
102
{ACAD_REACTORS
330
165
102
}
330
165
100
AcDbVisualStyle
  2
Wireframe
 70
     5
177
     3
291
     0
 70
    58
 90
        0
176
     1
 90
        2
176
     1
 90
        0
176
     1
 90
        0
176
     1
 40
0.6
176
     1
 40
30.0
176
     1
 62
     7
420
 16777215
176
     1
 90
        1
176
     1
 90
        4
176
     1
 62
     7
176
     1
 62
   257
176
     1
 90
        1
176
     1
 90
        1
176
     1
 40
1.0
176
     1
 90
        0
176
     1
 62
   257
176
     1
 40
1.0
176
     1
 90
        1
176
     1
 90
        6
176
     1
 90
        2
176
     1
 62
     7
176
     1
 90
        3
176
     1
 90
        0
176
     1
 90
        0
176
     1
290
     0
176
     1
 90
        1
176
     1
 40
0.0
176
     1
 90
        0
176
     1
290
     0
176
     1
290
     1
176
     1
290
     1
176
     1
290
     0
176
     1
290
     0
176
     1
290
     0
176
     1
290
     0
176
     1
290
     0
176
     1
290
     0
176
     1
 90
       50
176
     1
 40
0.0
176
     1
 40
1.0
176
     1
 90
        0
176
     1
 62
    18
420
        0
176
     1
 90
       50
176
     1
 90
        3
176
     1
 62
     5
420
      255
176
     1
290
     0
176
     1
 90
       50
176
     1
 90
       50
176
     1
 90
       50
176
     1
290
     0
176
     1
 90
       50
176
     1
 62
   256
176
     0
 40
1.0
176
     0
 90
        2
176
     1
  1
strokes_ogs.tif
176
     1
290
     0
176
     1
 40
1.0
176
     1
 40
1.0
176
     1
  0
VISUALSTYLE
  5
1C9
102
{ACAD_REACTORS
330
165
102
}
330
165
100
AcDbVisualStyle
  2
X-Ray
 70
    25
177
     3
291
     0
 70
    58
 90
        2
176
     1
 90
        2
176
     1
 90
        1
176
     1
 90
        1
176
     1
 40
0.5
176
     1
 40
30.0
176
     1
 62
     7
420
 16777215
176
     1
 90
        1
176
     1
 90
        0
176
     1
 62
     7
176
     1
 62
   257
176
     1
 90
        1
176
     1
 90
        1
176
     1
 40
1.0
176
     1
 90
        8
176
     1
 62
     7
176
     1
 40
1.0
176
     1
 90
        1
176
     1
 90
        6
176
     1
 90
        2
176
     1
 62
     7
176
     1
 90
        3
176
     1
 90
        0
176
     1
 90
        0
176
     1
290
     0
176
     1
 90
       13
176
     1
 40
0.0
176
     1
 90
        0
176
     1
290
     0
176
     1
290
     1
176
     1
290
     1
176
     1
290
     0
176
     1
290
     0
176
     1
290
     0
176
     1
290
     0
176
     1
290
     0
176
     1
290
     0
176
     1
 90
       50
176
     1
 40
0.0
176
     1
 40
1.0
176
     1
 90
        0
176
     1
 62
    18
420
        0
176
     1
 90
       50
176
     1
 90
        3
176
     1
 62
     5
420
      255
176
     1
290
     0
176
     1
 90
       50
176
     1
 90
       50
176
     1
 90
       50
176
     1
290
     0
176
     1
 90
       50
176
     1
 62
   256
176
     0
 40
1.0
176
     0
 90
        2
176
     1
  1
strokes_ogs.tif
176
     1
290
     0
176
     1
 40
1.0
176
     1
 40
1.0
176
     1
  0
DICTIONARYVAR
  5
229
102
{ACAD_REACTORS
330
181
102
}
330
181
100
DictionaryVariables
280
     0
  1
1:1
  0
DICTIONARYVAR
  5
22B
102
{ACAD_REACTORS
330
181
102
}
330
181
100
DictionaryVariables
280
     0
  1
Standard
  0
DICTIONARYVAR
  5
22A
102
{ACAD_REACTORS
330
181
102
}
330
181
100
DictionaryVariables
280
     0
  1
Standard
  0
DICTIONARYVAR
  5
185
102
{ACAD_REACTORS
330
181
102
}
330
181
100
DictionaryVariables
280
     0
  1
2
  0
DICTIONARYVAR
  5
186
102
{ACAD_REACTORS
330
181
102
}
330
181
100
DictionaryVariables
280
     0
  1
1
  0
DICTIONARYVAR
  5
184
102
{ACAD_REACTORS
330
181
102
}
330
181
100
DictionaryVariables
280
     0
  1
0
  0
DICTIONARY
  5
281
330
1CD
100
AcDbDictionary
280
     1
281
     1
  3
ACAD_ROUNDTRIP_2008_TABLESTYLE_CELLSTYLEMAP
360
282
  0
CELLSTYLEMAP
  5
282
102
{ACAD_REACTORS
330
281
102
}
330
281
100
AcDbCellStyleMap
 90
        3
300
CELLSTYLE
  1
TABLEFORMAT_BEGIN
 90
        5
170
     1
 91
        0
 92
    32768
 62
   257
 93
        1
300
CONTENTFORMAT
  1
CONTENTFORMAT_BEGIN
 90
        0
 91
        0
 92
        4
 93
        0
300

 40
0.0
140
1.0
 94
        5
 62
     0
340
11
144
0.25
309
CONTENTFORMAT_END
171
     1
301
MARGIN
  1
CELLMARGIN_BEGIN
 40
0.06
 40
0.06
 40
0.06
 40
0.06
 40
0.06
 40
0.06
309
CELLMARGIN_END
 94
        6
 95
        1
302
GRIDFORMAT
  1
GRIDFORMAT_BEGIN
 90
        0
 91
        1
 62
     0
 92
       -2
340
14
 93
        0
 40
0.045
309
GRIDFORMAT_END
 95
        2
302
GRIDFORMAT
  1
GRIDFORMAT_BEGIN
 90
        0
 91
        1
 62
     0
 92
       -2
340
14
 93
        0
 40
0.045
309
GRIDFORMAT_END
 95
        4
302
GRIDFORMAT
  1
GRIDFORMAT_BEGIN
 90
        0
 91
        1
 62
     0
 92
       -2
340
14
 93
        0
 40
0.045
309
GRIDFORMAT_END
 95
        8
302
GRIDFORMAT
  1
GRIDFORMAT_BEGIN
 90
        0
 91
        1
 62
     0
 92
       -2
340
14
 93
        0
 40
0.045
309
GRIDFORMAT_END
 95
       16
302
GRIDFORMAT
  1
GRIDFORMAT_BEGIN
 90
        0
 91
        1
 62
     0
 92
       -2
340
14
 93
        0
 40
0.045
309
GRIDFORMAT_END
 95
       32
302
GRIDFORMAT
  1
GRIDFORMAT_BEGIN
 90
        0
 91
        1
 62
     0
 92
       -2
340
14
 93
        0
 40
0.045
309
GRIDFORMAT_END
309
TABLEFORMAT_END
  1
CELLSTYLE_BEGIN
 90
        1
 91
        1
300
_TITLE
309
CELLSTYLE_END
300
CELLSTYLE
  1
TABLEFORMAT_BEGIN
 90
        5
170
     1
 91
        0
 92
        0
 62
   257
 93
        1
300
CONTENTFORMAT
  1
CONTENTFORMAT_BEGIN
 90
        0
 91
        0
 92
        4
 93
        0
300

 40
0.0
140
1.0
 94
        5
 62
     0
340
11
144
0.18
309
CONTENTFORMAT_END
171
     1
301
MARGIN
  1
CELLMARGIN_BEGIN
 40
0.06
 40
0.06
 40
0.06
 40
0.06
 40
0.06
 40
0.06
309
CELLMARGIN_END
 94
        6
 95
        1
302
GRIDFORMAT
  1
GRIDFORMAT_BEGIN
 90
        0
 91
        1
 62
     0
 92
       -2
340
14
 93
        0
 40
0.045
309
GRIDFORMAT_END
 95
        2
302
GRIDFORMAT
  1
GRIDFORMAT_BEGIN
 90
        0
 91
        1
 62
     0
 92
       -2
340
14
 93
        0
 40
0.045
309
GRIDFORMAT_END
 95
        4
302
GRIDFORMAT
  1
GRIDFORMAT_BEGIN
 90
        0
 91
        1
 62
     0
 92
       -2
340
14
 93
        0
 40
0.045
309
GRIDFORMAT_END
 95
        8
302
GRIDFORMAT
  1
GRIDFORMAT_BEGIN
 90
        0
 91
        1
 62
     0
 92
       -2
340
14
 93
        0
 40
0.045
309
GRIDFORMAT_END
 95
       16
302
GRIDFORMAT
  1
GRIDFORMAT_BEGIN
 90
        0
 91
        1
 62
     0
 92
       -2
340
14
 93
        0
 40
0.045
309
GRIDFORMAT_END
 95
       32
302
GRIDFORMAT
  1
GRIDFORMAT_BEGIN
 90
        0
 91
        1
 62
     0
 92
       -2
340
14
 93
        0
 40
0.045
309
GRIDFORMAT_END
309
TABLEFORMAT_END
  1
CELLSTYLE_BEGIN
 90
        2
 91
        1
300
_HEADER
309
CELLSTYLE_END
300
CELLSTYLE
  1
TABLEFORMAT_BEGIN
 90
        5
170
     1
 91
        0
 92
        0
 62
   257
 93
        1
300
CONTENTFORMAT
  1
CONTENTFORMAT_BEGIN
 90
        0
 91
        0
 92
        4
 93
        0
300

 40
0.0
140
1.0
 94
        2
 62
     0
340
11
144
0.18
309
CONTENTFORMAT_END
171
     1
301
MARGIN
  1
CELLMARGIN_BEGIN
 40
0.06
 40
0.06
 40
0.06
 40
0.06
 40
0.06
 40
0.06
309
CELLMARGIN_END
 94
        6
 95
        1
302
GRIDFORMAT
  1
GRIDFORMAT_BEGIN
 90
        0
 91
        1
 62
     0
 92
       -2
340
14
 93
        0
 40
0.045
309
GRIDFORMAT_END
 95
        2
302
GRIDFORMAT
  1
GRIDFORMAT_BEGIN
 90
        0
 91
        1
 62
     0
 92
       -2
340
14
 93
        0
 40
0.045
309
GRIDFORMAT_END
 95
        4
302
GRIDFORMAT
  1
GRIDFORMAT_BEGIN
 90
        0
 91
        1
 62
     0
 92
       -2
340
14
 93
        0
 40
0.045
309
GRIDFORMAT_END
 95
        8
302
GRIDFORMAT
  1
GRIDFORMAT_BEGIN
 90
        0
 91
        1
 62
     0
 92
       -2
340
14
 93
        0
 40
0.045
309
GRIDFORMAT_END
 95
       16
302
GRIDFORMAT
  1
GRIDFORMAT_BEGIN
 90
        0
 91
        1
 62
     0
 92
       -2
340
14
 93
        0
 40
0.045
309
GRIDFORMAT_END
 95
       32
302
GRIDFORMAT
  1
GRIDFORMAT_BEGIN
 90
        0
 91
        1
 62
     0
 92
       -2
340
14
 93
        0
 40
0.045
309
GRIDFORMAT_END
309
TABLEFORMAT_END
  1
CELLSTYLE_BEGIN
 90
        3
 91
        2
300
_DATA
309
CELLSTYLE_END
  0
ENDSEC
  0
EOF
