  0
SECTION
  2
HEADER
  9
$ACADVER
  1
AC1027
  9
$ACADMAINTVER
 70
   105
  9
$DWGCODEPAGE
  3
ANSI_1252
  9
$REQUIREDVERSIONS
160
                 0
  9
$LASTSAVEDBY
  1
matthias.ochs
  9
$INSBASE
 10
0.0
 20
0.0
 30
0.0
  9
$EXTMIN
 10
-186.8178132012038
 20
-79.39763768069103
 30
0.0
  9
$EXTMAX
 10
103.504379790354
 20
78.38616285819928
 30
0.0
  9
$LIMMIN
 10
-153.557270299
 20
-73.04258419
  9
$LIMMAX
 10
76.683016071
 20
68.346536668
  9
$ORTHOMODE
 70
     0
  9
$REGENMODE
 70
     1
  9
$FILLMODE
 70
     1
  9
$QTEXTMODE
 70
     0
  9
$MIRRTEXT
 70
     1
  9
$LTSCALE
 40
1.0
  9
$ATTMODE
 70
     1
  9
$TEXTSIZE
 40
0.2
  9
$TRACEWID
 40
0.05
  9
$TEXTSTYLE
  7
Standard
  9
$CLAYER
  8
SK3
  9
$CELTYPE
  6
ByLayer
  9
$CECOLOR
 62
   256
  9
$CELTSCALE
 40
1.0
  9
$DISPSILH
 70
     0
  9
$DIMSCALE
 40
1.0
  9
$DIMASZ
 40
0.18
  9
$DIMEXO
 40
0.0625
  9
$DIMDLI
 40
0.38
  9
$DIMRND
 40
0.0
  9
$DIMDLE
 40
0.0
  9
$DIMEXE
 40
0.18
  9
$DIMTP
 40
0.0
  9
$DIMTM
 40
0.0
  9
$DIMTXT
 40
0.18
  9
$DIMCEN
 40
0.09
  9
$DIMTSZ
 40
0.0
  9
$DIMTOL
 70
     0
  9
$DIMLIM
 70
     0
  9
$DIMTIH
 70
     1
  9
$DIMTOH
 70
     1
  9
$DIMSE1
 70
     0
  9
$DIMSE2
 70
     0
  9
$DIMTAD
 70
     0
  9
$DIMZIN
 70
     0
  9
$DIMBLK
  1

  9
$DIMASO
 70
     1
  9
$DIMSHO
 70
     1
  9
$DIMPOST
  1

  9
$DIMAPOST
  1

  9
$DIMALT
 70
     0
  9
$DIMALTD
 70
     2
  9
$DIMALTF
 40
25.4
  9
$DIMLFAC
 40
1.0
  9
$DIMTOFL
 70
     0
  9
$DIMTVP
 40
0.0
  9
$DIMTIX
 70
     0
  9
$DIMSOXD
 70
     0
  9
$DIMSAH
 70
     0
  9
$DIMBLK1
  1

  9
$DIMBLK2
  1

  9
$DIMSTYLE
  2
Standard
  9
$DIMCLRD
 70
     0
  9
$DIMCLRE
 70
     0
  9
$DIMCLRT
 70
     0
  9
$DIMTFAC
 40
1.0
  9
$DIMGAP
 40
0.09
  9
$DIMJUST
 70
     0
  9
$DIMSD1
 70
     0
  9
$DIMSD2
 70
     0
  9
$DIMTOLJ
 70
     1
  9
$DIMTZIN
 70
     0
  9
$DIMALTZ
 70
     0
  9
$DIMALTTZ
 70
     0
  9
$DIMUPT
 70
     0
  9
$DIMDEC
 70
     4
  9
$DIMTDEC
 70
     4
  9
$DIMALTU
 70
     2
  9
$DIMALTTD
 70
     2
  9
$DIMTXSTY
  7
Standard
  9
$DIMAUNIT
 70
     0
  9
$DIMADEC
 70
     0
  9
$DIMALTRND
 40
0.0
  9
$DIMAZIN
 70
     0
  9
$DIMDSEP
 70
    46
  9
$DIMATFIT
 70
     3
  9
$DIMFRAC
 70
     0
  9
$DIMLDRBLK
  1

  9
$DIMLUNIT
 70
     2
  9
$DIMLWD
 70
    -2
  9
$DIMLWE
 70
    -2
  9
$DIMTMOVE
 70
     2
  9
$DIMFXL
 40
1.0
  9
$DIMFXLON
 70
     0
  9
$DIMJOGANG
 40
0.7853981633974483
  9
$DIMTFILL
 70
     0
  9
$DIMTFILLCLR
 70
     0
  9
$DIMARCSYM
 70
     0
  9
$DIMLTYPE
  6

  9
$DIMLTEX1
  6

  9
$DIMLTEX2
  6

  9
$DIMTXTDIRECTION
 70
     0
  9
$LUNITS
 70
     2
  9
$LUPREC
 70
     4
  9
$SKETCHINC
 40
0.1
  9
$FILLETRAD
 40
0.5
  9
$AUNITS
 70
     2
  9
$AUPREC
 70
     0
  9
$MENU
  1
.
  9
$ELEVATION
 40
0.0
  9
$PELEVATION
 40
0.0
  9
$THICKNESS
 40
0.0
  9
$LIMCHECK
 70
     0
  9
$CHAMFERA
 40
0.5
  9
$CHAMFERB
 40
0.5
  9
$CHAMFERC
 40
1.0
  9
$CHAMFERD
 40
0.0
  9
$SKPOLY
 70
     0
  9
$TDCREATE
 40
2458327.507675996
  9
$TDUCREATE
 40
2458327.466009329
  9
$TDUPDATE
 40
2458570.365343715
  9
$TDUUPDATE
 40
2458570.323677049
  9
$TDINDWG
 40
0.0116432986
  9
$TDUSRTIMER
 40
0.0080940394
  9
$USRTIMER
 70
     1
  9
$ANGBASE
 50
0.0
  9
$ANGDIR
 70
     0
  9
$PDMODE
 70
     0
  9
$PDSIZE
 40
0.0
  9
$PLINEWID
 40
0.0
  9
$SPLFRAME
 70
     0
  9
$SPLINETYPE
 70
     6
  9
$SPLINESEGS
 70
     8
  9
$HANDSEED
  5
263
  9
$SURFTAB1
 70
     6
  9
$SURFTAB2
 70
     6
  9
$SURFTYPE
 70
     6
  9
$SURFU
 70
     6
  9
$SURFV
 70
     6
  9
$UCSBASE
  2

  9
$UCSNAME
  2

  9
$UCSORG
 10
0.0
 20
0.0
 30
0.0
  9
$UCSXDIR
 10
1.0
 20
0.0
 30
0.0
  9
$UCSYDIR
 10
0.0
 20
1.0
 30
0.0
  9
$UCSORTHOREF
  2

  9
$UCSORTHOVIEW
 70
     0
  9
$UCSORGTOP
 10
0.0
 20
0.0
 30
0.0
  9
$UCSORGBOTTOM
 10
0.0
 20
0.0
 30
0.0
  9
$UCSORGLEFT
 10
0.0
 20
0.0
 30
0.0
  9
$UCSORGRIGHT
 10
0.0
 20
0.0
 30
0.0
  9
$UCSORGFRONT
 10
0.0
 20
0.0
 30
0.0
  9
$UCSORGBACK
 10
0.0
 20
0.0
 30
0.0
  9
$PUCSBASE
  2

  9
$PUCSNAME
  2

  9
$PUCSORG
 10
0.0
 20
0.0
 30
0.0
  9
$PUCSXDIR
 10
1.0
 20
0.0
 30
0.0
  9
$PUCSYDIR
 10
0.0
 20
1.0
 30
0.0
  9
$PUCSORTHOREF
  2

  9
$PUCSORTHOVIEW
 70
     0
  9
$PUCSORGTOP
 10
0.0
 20
0.0
 30
0.0
  9
$PUCSORGBOTTOM
 10
0.0
 20
0.0
 30
0.0
  9
$PUCSORGLEFT
 10
0.0
 20
0.0
 30
0.0
  9
$PUCSORGRIGHT
 10
0.0
 20
0.0
 30
0.0
  9
$PUCSORGFRONT
 10
0.0
 20
0.0
 30
0.0
  9
$PUCSORGBACK
 10
0.0
 20
0.0
 30
0.0
  9
$USERI1
 70
     0
  9
$USERI2
 70
     0
  9
$USERI3
 70
     0
  9
$USERI4
 70
     0
  9
$USERI5
 70
     0
  9
$USERR1
 40
0.0
  9
$USERR2
 40
0.0
  9
$USERR3
 40
0.0
  9
$USERR4
 40
0.0
  9
$USERR5
 40
0.0
  9
$WORLDVIEW
 70
     1
  9
$SHADEDGE
 70
     3
  9
$SHADEDIF
 70
    70
  9
$TILEMODE
 70
     1
  9
$MAXACTVP
 70
    64
  9
$PINSBASE
 10
0.0
 20
0.0
 30
0.0
  9
$PLIMCHECK
 70
     0
  9
$PEXTMIN
 10
1.000000000000000E+20
 20
1.000000000000000E+20
 30
1.000000000000000E+20
  9
$PEXTMAX
 10
-1.000000000000000E+20
 20
-1.000000000000000E+20
 30
-1.000000000000000E+20
  9
$PLIMMIN
 10
0.0
 20
0.0
  9
$PLIMMAX
 10
0.0
 20
0.0
  9
$UNITMODE
 70
     0
  9
$VISRETAIN
 70
     1
  9
$PLINEGEN
 70
     0
  9
$PSLTSCALE
 70
     1
  9
$TREEDEPTH
 70
  3020
  9
$CMLSTYLE
  2
Standard
  9
$CMLJUST
 70
     0
  9
$CMLSCALE
 40
1.0
  9
$PROXYGRAPHICS
 70
     1
  9
$MEASUREMENT
 70
     0
  9
$CELWEIGHT
370
    -1
  9
$ENDCAPS
280
     0
  9
$JOINSTYLE
280
     0
  9
$LWDISPLAY
290
     0
  9
$INSUNITS
 70
     0
  9
$HYPERLINKBASE
  1

  9
$STYLESHEET
  1

  9
$XEDIT
290
     1
  9
$CEPSNTYPE
380
     0
  9
$PSTYLEMODE
290
     1
  9
$FINGERPRINTGUID
  2
{F4AE6E66-556C-454E-8CCC-FF13386CA8F9}
  9
$VERSIONGUID
  2
{FAEB1C32-E019-11D5-929B-00C0DF256EC4}
  9
$EXTNAMES
290
     1
  9
$PSVPSCALE
 40
0.0
  9
$OLESTARTUP
290
     0
  9
$SORTENTS
280
   127
  9
$INDEXCTL
280
     0
  9
$HIDETEXT
280
     1
  9
$XCLIPFRAME
280
     2
  9
$HALOGAP
280
     0
  9
$OBSCOLOR
 70
   257
  9
$OBSLTYPE
280
     0
  9
$INTERSECTIONDISPLAY
280
     0
  9
$INTERSECTIONCOLOR
 70
   257
  9
$DIMASSOC
280
     2
  9
$PROJECTNAME
  1

  9
$CAMERADISPLAY
290
     0
  9
$LENSLENGTH
 40
50.0
  9
$CAMERAHEIGHT
 40
0.0
  9
$STEPSPERSEC
 40
2.0
  9
$STEPSIZE
 40
6.0
  9
$3DDWFPREC
 40
2.0
  9
$PSOLWIDTH
 40
0.25
  9
$PSOLHEIGHT
 40
4.0
  9
$LOFTANG1
 40
1.570796326794897
  9
$LOFTANG2
 40
1.570796326794897
  9
$LOFTMAG1
 40
0.0
  9
$LOFTMAG2
 40
0.0
  9
$LOFTPARAM
 70
     7
  9
$LOFTNORMALS
280
     1
  9
$LATITUDE
 40
37.795
  9
$LONGITUDE
 40
-122.394
  9
$NORTHDIRECTION
 40
0.0
  9
$TIMEZONE
 70
 -8000
  9
$LIGHTGLYPHDISPLAY
280
     1
  9
$TILEMODELIGHTSYNCH
280
     1
  9
$SOLIDHIST
280
     0
  9
$SHOWHIST
280
     1
  9
$DWFFRAME
280
     2
  9
$DGNFRAME
280
     2
  9
$REALWORLDSCALE
290
     1
  9
$INTERFERECOLOR
 62
   256
  9
$CSHADOW
280
     0
  9
$SHADOWPLANELOCATION
 40
0.0
  0
ENDSEC
  0
SECTION
  2
CLASSES
  0
CLASS
  1
ACDBDICTIONARYWDFLT
  2
AcDbDictionaryWithDefault
  3
ObjectDBX Classes
 90
        0
 91
        5
280
     0
281
     0
  0
CLASS
  1
SCALE
  2
AcDbScale
  3
ObjectDBX Classes
 90
     1153
 91
        5
280
     0
281
     0
  0
CLASS
  1
VISUALSTYLE
  2
AcDbVisualStyle
  3
ObjectDBX Classes
 90
     4095
 91
        5
280
     0
281
     0
  0
CLASS
  1
MATERIAL
  2
AcDbMaterial
  3
ObjectDBX Classes
 90
     1153
 91
        5
280
     0
281
     0
  0
CLASS
  1
DICTIONARYVAR
  2
AcDbDictionaryVar
  3
ObjectDBX Classes
 90
        0
 91
        4
280
     0
281
     0
  0
CLASS
  1
ACDBPLACEHOLDER
  2
AcDbPlaceHolder
  3
ObjectDBX Classes
 90
        0
 91
        1
280
     0
281
     0
  0
CLASS
  1
LAYOUT
  2
AcDbLayout
  3
ObjectDBX Classes
 90
        0
 91
        1
280
     0
281
     0
  0
CLASS
  1
TABLESTYLE
  2
AcDbTableStyle
  3
ObjectDBX Classes
 90
     4095
 91
        5
280
     0
281
     0
  0
CLASS
  1
MLEADERSTYLE
  2
AcDbMLeaderStyle
  3
ACDB_MLEADERSTYLE_CLASS
 90
     4095
 91
        5
280
     0
281
     0
  0
CLASS
  1
SUN
  2
AcDbSun
  3
SCENEOE
 90
     1153
 91
        5
280
     0
281
     0
  0
CLASS
  1
DIMASSOC
  2
AcDbDimAssoc
  3
"AcDbDimAssoc|Product Desc:     AcDim ARX App For Dimension|Company:          Autodesk, Inc.|WEB Address:      www.autodesk.com"
 90
        0
 91
        4
280
     0
281
     0
  0
CLASS
  1
CELLSTYLEMAP
  2
AcDbCellStyleMap
  3
ObjectDBX Classes
 90
     1152
 91
        4
280
     0
281
     0
  0
ENDSEC
  0
SECTION
  2
TABLES
  0
TABLE
  2
VPORT
  5
8
330
0
100
AcDbSymbolTable
 70
     1
  0
VPORT
  5
134
330
8
100
AcDbSymbolTableRecord
100
AcDbViewportTableRecord
  2
*Active
 70
     0
 10
0.0
 20
0.0
 11
1.0
 21
1.0
 12
-145.1116215303313
 22
72.86554837603903
 13
0.0
 23
0.0
 14
0.5
 24
0.5
 15
0.5
 25
0.5
 16
0.0
 26
0.0
 36
1.0
 17
0.0
 27
0.0
 37
0.0
 40
528.8359772994828
 41
1.70021645021645
 42
50.0
 43
0.0
 44
0.0
 50
0.0
 51
0.0
 71
    16
 72
   100
 73
     1
 74
     3
 75
     0
 76
     0
 77
     0
 78
     0
281
     0
 65
     1
110
0.0
120
0.0
130
0.0
111
1.0
121
0.0
131
0.0
112
0.0
122
1.0
132
0.0
 79
     0
146
0.0
348
165
 60
     3
 61
     5
292
     1
282
     1
141
0.0
142
0.0
 63
   256
361
1FD
  0
ENDTAB
  0
TABLE
  2
LTYPE
  5
5
330
0
100
AcDbSymbolTable
 70
     8
  0
LTYPE
  5
14
330
5
100
AcDbSymbolTableRecord
100
AcDbLinetypeTableRecord
  2
ByBlock
 70
     0
  3

 72
    65
 73
     0
 40
0.0
  0
LTYPE
  5
15
330
5
100
AcDbSymbolTableRecord
100
AcDbLinetypeTableRecord
  2
ByLayer
 70
     0
  3

 72
    65
 73
     0
 40
0.0
  0
LTYPE
  5
16
330
5
100
AcDbSymbolTableRecord
100
AcDbLinetypeTableRecord
  2
Continuous
 70
     0
  3
Solid line
 72
    65
 73
     0
 40
0.0
  0
LTYPE
  5
20
330
5
100
AcDbSymbolTableRecord
100
AcDbLinetypeTableRecord
  2
PUNKT
 70
     0
  3
..............
 72
    65
 73
     2
 40
1.5
 49
0.7
 74
     0
 49
-0.8
 74
     0
  0
LTYPE
  5
21
330
5
100
AcDbSymbolTableRecord
100
AcDbLinetypeTableRecord
  2
GESTRICHELT
 70
     0
  3
-- -- -- -- --
 72
    65
 73
     7
 40
2.8
 49
0.9
 74
     0
 49
0.0
 74
     0
 49
0.9
 74
     0
 49
0.0
 74
     0
 49
0.2
 74
     0
 49
0.0
 74
     0
 49
-0.8
 74
     0
  0
LTYPE
  5
22
330
5
100
AcDbSymbolTableRecord
100
AcDbLinetypeTableRecord
  2
STRICHPUNKT
 70
     0
  3
--.--.--.--.--
 72
    65
 73
     4
 40
8.8
 49
5.5
 74
     0
 49
-1.3
 74
     0
 49
0.7
 74
     0
 49
-1.3
 74
     0
  0
LTYPE
  5
25
330
5
100
AcDbSymbolTableRecord
100
AcDbLinetypeTableRecord
  2
PHANTOM
 70
     0
  3
--..--..--..--
 72
    65
 73
     6
 40
14.2
 49
7.0
 74
     0
 49
-1.8
 74
     0
 49
0.9
 74
     0
 49
-1.8
 74
     0
 49
0.9
 74
     0
 49
-1.8
 74
     0
  0
LTYPE
  5
1AC
330
5
100
AcDbSymbolTableRecord
100
AcDbLinetypeTableRecord
  2
DASH
 70
     0
  3
DASH _ _ _ _ _
 72
    65
 73
     2
 40
0.75
 49
0.4
 74
     0
 49
-0.35
 74
     0
  0
LTYPE
  5
1AD
330
5
100
AcDbSymbolTableRecord
100
AcDbLinetypeTableRecord
  2
LONGDASH_DASH
 70
     0
  3
LONGDASH_DASH __ . __ . __
 72
    65
 73
     4
 40
0.85
 49
0.4
 74
     0
 49
-0.2
 74
     0
 49
0.05
 74
     0
 49
-0.2
 74
     0
  0
LTYPE
  5
1AE
330
5
100
AcDbSymbolTableRecord
100
AcDbLinetypeTableRecord
  2
LONGDASH_DASH_DASH
 70
     0
  3
LONGDASH_DASH_DASH __ . . __ . . __
 72
    65
 73
     6
 40
1.1
 49
0.4
 74
     0
 49
-0.2
 74
     0
 49
0.05
 74
     0
 49
-0.2
 74
     0
 49
0.05
 74
     0
 49
-0.2
 74
     0
  0
ENDTAB
  0
TABLE
  2
LAYER
  5
2
102
{ACAD_XDICTIONARY
360
1CB
102
}
330
0
100
AcDbSymbolTable
 70
    16
  0
LAYER
  5
176
330
2
100
AcDbSymbolTableRecord
100
AcDbLayerTableRecord
  2
200
 70
     0
 62
     2
  6
Continuous
370
    50
390
F
347
174
348
0
  0
LAYER
  5
1AF
330
2
100
AcDbSymbolTableRecord
100
AcDbLayerTableRecord
  2
0
 70
     0
 62
     1
  6
Continuous
370
    -3
390
F
347
174
348
0
  0
LAYER
  5
1B0
330
2
100
AcDbSymbolTableRecord
100
AcDbLayerTableRecord
  2
1
 70
     0
 62
     4
  6
Continuous
370
    50
390
F
347
174
348
0
  0
LAYER
  5
1B1
330
2
100
AcDbSymbolTableRecord
100
AcDbLayerTableRecord
  2
2
 70
     0
 62
     7
  6
Continuous
370
    25
390
F
347
174
348
0
  0
LAYER
  5
1B2
330
2
100
AcDbSymbolTableRecord
100
AcDbLayerTableRecord
  2
3
 70
     0
 62
     1
  6
DASH
370
    35
390
F
347
174
348
0
  0
LAYER
  5
1B3
330
2
100
AcDbSymbolTableRecord
100
AcDbLayerTableRecord
  2
4
 70
     0
 62
     2
  6
LONGDASH_DASH
370
    25
390
F
347
174
348
0
  0
LAYER
  5
1B4
330
2
100
AcDbSymbolTableRecord
100
AcDbLayerTableRecord
  2
6
 70
     0
 62
     5
  6
Continuous
370
    -3
390
F
347
174
348
0
  0
LAYER
  5
1B5
330
2
100
AcDbSymbolTableRecord
100
AcDbLayerTableRecord
  2
CUT
 70
     0
 62
     1
  6
Continuous
370
    25
390
F
347
174
348
0
  0
LAYER
  5
1B6
330
2
100
AcDbSymbolTableRecord
100
AcDbLayerTableRecord
  2
NOCUT
 70
     0
 62
     7
  6
Continuous
370
    25
390
F
347
174
348
0
  0
LAYER
  5
1B7
330
2
100
AcDbSymbolTableRecord
100
AcDbLayerTableRecord
  2
SK1
 70
     0
 62
     4
  6
Continuous
370
    50
390
F
347
174
348
0
  0
LAYER
  5
1B8
330
2
100
AcDbSymbolTableRecord
100
AcDbLayerTableRecord
  2
SK2
 70
     0
 62
     7
  6
Continuous
370
    25
390
F
347
174
348
0
  0
LAYER
  5
1B9
330
2
100
AcDbSymbolTableRecord
100
AcDbLayerTableRecord
  2
SK3
 70
     0
 62
     1
  6
DASH
370
    35
390
F
347
174
348
0
  0
LAYER
  5
1BA
330
2
100
AcDbSymbolTableRecord
100
AcDbLayerTableRecord
  2
SK4
 70
     0
 62
     2
  6
LONGDASH_DASH
370
    25
390
F
347
174
348
0
  0
LAYER
  5
1BB
330
2
100
AcDbSymbolTableRecord
100
AcDbLayerTableRecord
  2
SK6
 70
     0
 62
     5
  6
Continuous
370
    -3
390
F
347
174
348
0
  0
LAYER
  5
1BC
330
2
100
AcDbSymbolTableRecord
100
AcDbLayerTableRecord
  2
INFTOTAL
 70
     0
 62
     9
  6
Continuous
370
    18
390
F
347
174
348
0
  0
LAYER
  5
1FF
330
2
100
AcDbSymbolTableRecord
100
AcDbLayerTableRecord
  2
Defpoints
 70
     0
 62
     7
  6
Continuous
290
     0
370
    -3
390
F
347
174
348
0
  0
ENDTAB
  0
TABLE
  2
STYLE
  5
3
330
0
100
AcDbSymbolTable
 70
     2
  0
STYLE
  5
11
330
3
100
AcDbSymbolTableRecord
100
AcDbTextStyleTableRecord
  2
Standard
 70
     0
 40
0.0
 41
1.0
 50
0.0
 71
     0
 42
0.2
  3
txt
  4

  0
STYLE
  5
175
330
3
100
AcDbSymbolTableRecord
100
AcDbTextStyleTableRecord
  2
BMG_Text
 70
     0
 40
3.5
 41
1.0
 50
0.0
 71
     0
 42
0.2
  3
monos.ttf
  4

1001
ACAD
1000
Monospac821 BT
1071
       49
  0
ENDTAB
  0
TABLE
  2
VIEW
  5
6
330
0
100
AcDbSymbolTable
 70
     0
  0
ENDTAB
  0
TABLE
  2
UCS
  5
7
330
0
100
AcDbSymbolTable
 70
     0
  0
ENDTAB
  0
TABLE
  2
APPID
  5
9
330
0
100
AcDbSymbolTable
 70
     1
  0
APPID
  5
12
330
9
100
AcDbSymbolTableRecord
100
AcDbRegAppTableRecord
  2
ACAD
 70
     0
  0
ENDTAB
  0
TABLE
  2
DIMSTYLE
  5
A
330
0
100
AcDbSymbolTable
 70
     1
100
AcDbDimStyleTable
  0
DIMSTYLE
105
28
330
A
100
AcDbSymbolTableRecord
100
AcDbDimStyleTableRecord
  2
Standard
 70
     0
178
     0
340
11
  0
ENDTAB
  0
TABLE
  2
BLOCK_RECORD
  5
1
330
0
100
AcDbSymbolTable
 70
     0
  0
BLOCK_RECORD
  5
1D
330
1
100
AcDbSymbolTableRecord
100
AcDbBlockTableRecord
  2
*Model_Space
340
1E
 70
     0
280
     1
281
     0
  0
BLOCK_RECORD
  5
1B
330
1
100
AcDbSymbolTableRecord
100
AcDbBlockTableRecord
  2
*Paper_Space
340
1C
 70
     0
280
     1
281
     0
  0
ENDTAB
  0
ENDSEC
  0
SECTION
  2
BLOCKS
  0
BLOCK
  5
15E
330
1D
100
AcDbEntity
  8
0
100
AcDbBlockBegin
  2
*Model_Space
 70
     0
 10
0.0
 20
0.0
 30
0.0
  3
*Model_Space
  1

  0
ENDBLK
  5
15F
330
1D
100
AcDbEntity
  8
0
100
AcDbBlockEnd
  0
BLOCK
  5
15C
330
1B
100
AcDbEntity
 67
     1
  8
0
100
AcDbBlockBegin
  2
*Paper_Space
 70
     0
 10
0.0
 20
0.0
 30
0.0
  3
*Paper_Space
  1

  0
ENDBLK
  5
15D
330
1B
100
AcDbEntity
 67
     1
  8
0
100
AcDbBlockEnd
  0
ENDSEC
  0
SECTION
  2
ENTITIES
  0
LINE
  5
29
330
1D
100
AcDbEntity
  8
SK3
100
AcDbLine
 10
55.0
 20
-18.25
 30
0.0
 11
54.567016602
 21
-18.0
 31
0.0
  0
LINE
  5
2A
330
1D
100
AcDbEntity
  8
SK3
100
AcDbLine
 10
-9.999938965
 20
-13.0
 30
0.0
 11
-14.228709159
 21
-5.675555853
 31
0.0
  0
LINE
  5
2B
330
1D
100
AcDbEntity
  8
SK3
100
AcDbLine
 10
-14.924993949
 20
-4.469555332
 30
0.0
 11
-17.505493164
 21
0.0
 31
0.0
  0
LINE
  5
2C
330
1D
100
AcDbEntity
  8
SK3
100
AcDbLine
 10
-9.999938965
 20
-13.0
 30
0.0
 11
0.0
 21
-13.0
 31
0.0
  0
LINE
  5
2D
330
1D
100
AcDbEntity
  8
3
100
AcDbLine
 10
13.057922363
 20
-13.0
 30
0.0
 11
14.0
 21
-14.631729126
 31
0.0
  0
ARC
  5
2E
330
1D
100
AcDbEntity
  8
3
100
AcDbCircle
 10
16.0
 20
-16.25
 30
0.0
 40
2.0
100
AcDbArc
 50
180.0
 51
270.0
  0
LINE
  5
2F
330
1D
100
AcDbEntity
  8
3
100
AcDbLine
 10
16.0
 20
-18.25
 30
0.0
 11
18.0
 21
-18.25
 31
0.0
  0
LINE
  5
30
330
1D
100
AcDbEntity
  8
3
100
AcDbLine
 10
18.0
 20
-18.0
 30
0.0
 11
54.566955566
 21
-18.0
 31
0.0
  0
ARC
  5
31
330
1D
100
AcDbEntity
  8
SK1
100
AcDbCircle
 10
-117.198829651
 20
0.000015259
 30
0.0
 40
32.101181083
100
AcDbArc
 50
166.699184507
 51
193.300761849
  0
ARC
  5
32
330
1D
100
AcDbEntity
  8
SK1
100
AcDbCircle
 10
-147.538650513
 20
-6.949996948
 30
0.0
 40
1.000000193
100
AcDbArc
 50
205.80358566
 51
270.0
  0
ARC
  5
33
330
1D
100
AcDbEntity
  8
SK1
100
AcDbCircle
 10
-147.538650513
 20
6.949996948
 30
0.0
 40
1.0
100
AcDbArc
 50
90.0
 51
154.194461692
  0
LINE
  5
34
330
1D
100
AcDbEntity
  8
SK1
100
AcDbLine
 10
-147.538646698
 20
-7.950012207
 30
0.0
 11
-131.479412079
 21
-7.950012207
 31
0.0
  0
LINE
  5
35
330
1D
100
AcDbEntity
  8
SK1
100
AcDbLine
 10
-147.538646698
 20
7.949996948
 30
0.0
 11
-131.479412079
 21
7.949996948
 31
0.0
  0
ARC
  5
36
330
1D
100
AcDbEntity
  8
SK1
100
AcDbCircle
 10
-131.479415894
 20
17.949996948
 30
0.0
 40
10.0
100
AcDbArc
 50
270.0
 51
359.424197851
  0
LINE
  5
37
330
1D
100
AcDbEntity
  8
SK1
100
AcDbLine
 10
-57.600013733
 20
-6.199996948
 30
0.0
 11
-27.999969482
 21
-6.199996948
 31
0.0
  0
LINE
  5
38
330
1D
100
AcDbEntity
  8
SK4
100
AcDbLine
 10
-57.600013733
 20
9.199996948
 30
0.0
 11
-57.600013733
 21
-9.199996948
 31
0.0
  0
LINE
  5
39
330
1D
100
AcDbEntity
  8
SK4
100
AcDbLine
 10
-27.999969482
 20
9.199996948
 30
0.0
 11
-27.999969482
 21
-9.199996948
 31
0.0
  0
ARC
  5
3A
330
1D
100
AcDbEntity
  8
SK1
100
AcDbCircle
 10
-27.999969482
 20
0.000015259
 30
0.0
 40
6.199996813
100
AcDbArc
 50
270.0
 51
90.0
  0
ARC
  5
3B
330
1D
100
AcDbEntity
  8
SK1
100
AcDbCircle
 10
-57.599998474
 20
0.000015259
 30
0.0
 40
6.199996813
100
AcDbArc
 50
90.0
 51
270.0
  0
LINE
  5
3C
330
1D
100
AcDbEntity
  8
SK1
100
AcDbLine
 10
-57.600013733
 20
-7.200012207
 30
0.0
 11
-27.999969482
 21
-7.200012207
 31
0.0
  0
ARC
  5
3D
330
1D
100
AcDbEntity
  8
SK1
100
AcDbCircle
 10
-27.999969482
 20
0.000015259
 30
0.0
 40
7.199996832
100
AcDbArc
 50
270.0
 51
90.0
  0
ARC
  5
3E
330
1D
100
AcDbEntity
  8
SK1
100
AcDbCircle
 10
-58.530540466
 20
0.000015259
 30
0.0
 40
6.26944153
100
AcDbArc
 50
81.464190043
 51
278.535783135
  0
LINE
  5
3F
330
1D
100
AcDbEntity
  8
SK1
100
AcDbLine
 10
-120.299999237
 20
19.029403687
 30
0.0
 11
-121.479412079
 21
17.849960327
 31
0.0
  0
ARC
  5
40
330
1D
100
AcDbEntity
  8
SK1
100
AcDbCircle
 10
-131.479415894
 20
-17.950012207
 30
0.0
 40
10.000001144
100
AcDbArc
 50
0.5757985440000001
 51
90.0
  0
LINE
  5
41
330
1D
100
AcDbEntity
  8
SK1
100
AcDbLine
 10
-121.479412079
 20
17.849960327
 30
0.0
 11
-121.479412079
 21
-17.85005188
 31
0.0
  0
LINE
  5
42
330
1D
100
AcDbEntity
  8
SK1
100
AcDbLine
 10
0.0
 20
-22.194240805
 30
0.0
 11
-120.299968719
 21
-19.029411316
 31
0.0
  0
LINE
  5
43
330
1D
100
AcDbEntity
  8
SK1
100
AcDbLine
 10
-120.299999237
 20
19.029403687
 30
0.0
 11
-120.299999237
 21
-19.029411316
 31
0.0
  0
LINE
  5
44
330
1D
100
AcDbEntity
  8
SK1
100
AcDbLine
 10
-120.299999237
 20
-19.029411316
 30
0.0
 11
-121.479412079
 21
-17.850036621
 31
0.0
  0
LINE
  5
45
330
1D
100
AcDbEntity
  8
SK1
100
AcDbLine
 10
-57.600013733
 20
7.199996948
 30
0.0
 11
-28.000030518
 21
7.199996948
 31
0.0
  0
LINE
  5
46
330
1D
100
AcDbEntity
  8
SK1
100
AcDbLine
 10
-57.600013733
 20
6.199996948
 30
0.0
 11
-27.999969482
 21
6.199996948
 31
0.0
  0
ARC
  5
47
330
1D
100
AcDbEntity
  8
SK1
100
AcDbCircle
 10
-58.557762146
 20
0.000015259
 30
0.0
 40
7.26341981
100
AcDbArc
 50
82.42283328099998
 51
277.577139897
  0
LINE
  5
48
330
1D
100
AcDbEntity
  8
SK1
100
AcDbLine
 10
0.0
 20
22.194233706
 30
0.0
 11
-120.299968719
 21
19.029434204
 31
0.0
  0
ARC
  5
49
330
1D
100
AcDbEntity
  8
1
100
AcDbCircle
 10
6.199981689
 20
-24.525001526
 30
0.0
 40
2.0
100
AcDbArc
 50
9.999784827
 51
90.0
  0
LINE
  5
4A
330
1D
100
AcDbEntity
  8
1
100
AcDbLine
 10
6.199996948
 20
-22.525001526
 30
0.0
 11
6.199996948
 21
0.0
 31
0.0
  0
ARC
  5
4B
330
1D
100
AcDbEntity
  8
1
100
AcDbCircle
 10
6.199981689
 20
24.525001526
 30
0.0
 40
2.0
100
AcDbArc
 50
270.0
 51
350.000215173
  0
LINE
  5
4C
330
1D
100
AcDbEntity
  8
1
100
AcDbLine
 10
6.199996948
 20
22.525001526
 30
0.0
 11
6.199996948
 21
0.0
 31
0.0
  0
LINE
  5
4D
330
1D
100
AcDbEntity
  8
1
100
AcDbLine
 10
2.119491577
 20
-22.25
 30
0.0
 11
6.151504517
 21
-22.25
 31
0.0
  0
LINE
  5
4E
330
1D
100
AcDbEntity
  8
1
100
AcDbLine
 10
2.119644165
 20
22.25
 30
0.0
 11
6.199996948
 21
22.25
 31
0.0
  0
ARC
  5
4F
330
1D
100
AcDbEntity
  8
1
100
AcDbCircle
 10
10.326263428
 20
-30.650001526
 30
0.0
 40
1.0
100
AcDbArc
 50
189.999876022
 51
270.0
  0
ARC
  5
50
330
1D
100
AcDbEntity
  8
1
100
AcDbCircle
 10
10.326278687
 20
30.650001526
 30
0.0
 40
1.0
100
AcDbArc
 50
90.0
 51
170.000123978
  0
LINE
  5
51
330
1D
100
AcDbEntity
  8
1
100
AcDbLine
 10
8.16960144
 20
24.177696228
 30
0.0
 11
9.341491699
 21
30.823646545
 31
0.0
  0
LINE
  5
52
330
1D
100
AcDbEntity
  8
1
100
AcDbLine
 10
8.121139526
 20
-23.902706146
 30
0.0
 11
9.34147644
 21
-30.823646545
 31
0.0
  0
LINE
  5
53
330
1D
100
AcDbEntity
  8
SK4
100
AcDbLine
 10
-151.300012589
 20
0.0
 30
0.0
 11
-14.924993949
 21
0.0
 31
0.0
  0
LINE
  5
54
330
1D
100
AcDbEntity
  8
SK4
100
AcDbLine
 10
-5.917495716
 20
0.0
 30
0.0
 11
57.000015259
 21
0.0
 31
0.0
  0
LINE
  5
55
330
1D
100
AcDbEntity
  8
1
100
AcDbLine
 10
55.0
 20
-31.0
 30
0.0
 11
54.0
 21
-32.0
 31
0.0
  0
LINE
  5
56
330
1D
100
AcDbEntity
  8
1
100
AcDbLine
 10
55.0
 20
-31.0
 30
0.0
 11
55.0
 21
31.0
 31
0.0
  0
LINE
  5
57
330
1D
100
AcDbEntity
  8
1
100
AcDbLine
 10
54.0
 20
32.0
 30
0.0
 11
55.0
 21
31.0
 31
0.0
  0
LINE
  5
58
330
1D
100
AcDbEntity
  8
1
100
AcDbLine
 10
12.549987793
 20
32.0
 30
0.0
 11
54.0
 21
32.0
 31
0.0
  0
LINE
  5
59
330
1D
100
AcDbEntity
  8
1
100
AcDbLine
 10
12.549987793
 20
-32.0
 30
0.0
 11
54.0
 21
-32.0
 31
0.0
  0
LINE
  5
5A
330
1D
100
AcDbEntity
  8
1
100
AcDbLine
 10
12.199996948
 20
-31.650001526
 30
0.0
 11
12.199996948
 21
31.650001526
 31
0.0
  0
LINE
  5
5B
330
1D
100
AcDbEntity
  8
1
100
AcDbLine
 10
10.326293945
 20
31.650001526
 30
0.0
 11
12.199996948
 21
31.650001526
 31
0.0
  0
LINE
  5
5C
330
1D
100
AcDbEntity
  8
1
100
AcDbLine
 10
10.326278687
 20
-31.650001526
 30
0.0
 11
12.199996948
 21
-31.650001526
 31
0.0
  0
LINE
  5
5D
330
1D
100
AcDbEntity
  8
1
100
AcDbLine
 10
12.199996948
 20
31.650001526
 30
0.0
 11
12.549987793
 21
32.0
 31
0.0
  0
LINE
  5
5E
330
1D
100
AcDbEntity
  8
1
100
AcDbLine
 10
12.199996948
 20
-31.650001526
 30
0.0
 11
12.549987793
 21
-32.0
 31
0.0
  0
ARC
  5
5F
330
1D
100
AcDbEntity
  8
3
100
AcDbCircle
 10
16.0
 20
16.25
 30
0.0
 40
2.0
100
AcDbArc
 50
90.0
 51
180.0
  0
LINE
  5
60
330
1D
100
AcDbEntity
  8
3
100
AcDbLine
 10
16.0
 20
18.25
 30
0.0
 11
18.0
 21
18.25
 31
0.0
  0
LINE
  5
61
330
1D
100
AcDbEntity
  8
3
100
AcDbLine
 10
18.0
 20
-18.0
 30
0.0
 11
18.0
 21
18.25
 31
0.0
  0
LINE
  5
62
330
1D
100
AcDbEntity
  8
SK3
100
AcDbLine
 10
55.0
 20
18.25
 30
0.0
 11
54.567016602
 21
18.0
 31
0.0
  0
LINE
  5
63
330
1D
100
AcDbEntity
  8
SK3
100
AcDbLine
 10
-9.999938965
 20
13.0
 30
0.0
 11
0.0
 21
13.0
 31
0.0
  0
LINE
  5
64
330
1D
100
AcDbEntity
  8
3
100
AcDbLine
 10
18.0
 20
18.0
 30
0.0
 11
54.566955566
 21
18.0
 31
0.0
  0
LINE
  5
65
330
1D
100
AcDbEntity
  8
SK3
100
AcDbLine
 10
-9.999938965
 20
-13.0
 30
0.0
 11
-9.999938965
 21
-8.346702009
 31
0.0
  0
LINE
  5
66
330
1D
100
AcDbEntity
  8
SK3
100
AcDbLine
 10
-9.999938965
 20
9.35644352
 30
0.0
 11
-9.999938965
 21
13.0
 31
0.0
  0
LINE
  5
67
330
1D
100
AcDbEntity
  8
SK3
100
AcDbLine
 10
-9.999938965
 20
13.0
 30
0.0
 11
-12.529590162
 21
8.618516007
 31
0.0
  0
LINE
  5
68
330
1D
100
AcDbEntity
  8
SK3
100
AcDbLine
 10
-14.924993949
 20
4.469555332
 30
0.0
 11
-17.505493164
 21
0.0
 31
0.0
  0
LINE
  5
69
330
1D
100
AcDbEntity
  8
3
100
AcDbLine
 10
13.057922363
 20
13.0
 30
0.0
 11
14.0
 21
14.631729126
 31
0.0
  0
LINE
  5
6A
330
1D
100
AcDbEntity
  8
3
100
AcDbLine
 10
13.057922363
 20
13.0
 30
0.0
 11
13.057922363
 21
-13.0
 31
0.0
  0
LINE
  5
6B
330
1D
100
AcDbEntity
  8
3
100
AcDbLine
 10
14.0
 20
16.25
 30
0.0
 11
14.0
 21
-16.25
 31
0.0
  0
LINE
  5
6C
330
1D
100
AcDbEntity
  8
1
100
AcDbLine
 10
0.0
 20
-22.194240805
 30
0.0
 11
0.0
 21
22.194233706
 31
0.0
  0
CIRCLE
  5
6D
330
1D
100
AcDbEntity
  8
1
100
AcDbCircle
 10
38.95
 20
0.0
 30
0.0
 40
6.0
  0
LINE
  5
6E
330
1D
100
AcDbEntity
  8
1
100
AcDbLine
 10
38.95
 20
2.886751346
 30
0.0
 11
36.45
 21
1.443375673
 31
0.0
  0
LINE
  5
6F
330
1D
100
AcDbEntity
  8
1
100
AcDbLine
 10
36.45
 20
1.443375673
 30
0.0
 11
36.45
 21
-1.443375673
 31
0.0
  0
LINE
  5
70
330
1D
100
AcDbEntity
  8
1
100
AcDbLine
 10
36.45
 20
-1.443375673
 30
0.0
 11
38.95
 21
-2.886751346
 31
0.0
  0
LINE
  5
71
330
1D
100
AcDbEntity
  8
1
100
AcDbLine
 10
38.95
 20
-2.886751346
 30
0.0
 11
41.45
 21
-1.443375673
 31
0.0
  0
LINE
  5
72
330
1D
100
AcDbEntity
  8
1
100
AcDbLine
 10
41.45
 20
-1.443375673
 30
0.0
 11
41.45
 21
1.443375673
 31
0.0
  0
LINE
  5
73
330
1D
100
AcDbEntity
  8
1
100
AcDbLine
 10
41.45
 20
1.443375673
 30
0.0
 11
38.95
 21
2.886751346
 31
0.0
  0
LINE
  5
74
330
1D
100
AcDbEntity
  8
SK4
100
AcDbLine
 10
38.95
 20
-9.0
 30
0.0
 11
38.95
 21
9.0
 31
0.0
  0
LINE
  5
75
330
1D
100
AcDbEntity
  8
SK6
100
AcDbLine
 10
-115.245023708
 20
-34.146867902
 30
0.0
 11
-115.245023708
 21
-36.216859972
 31
0.0
  0
ARC
  5
76
330
1D
100
AcDbEntity
  8
SK6
100
AcDbCircle
 10
-118.125009518
 20
-37.296869432
 30
0.0
 40
1.08000004
100
AcDbArc
 50
90.00000763
 51
206.54360962
  0
LINE
  5
77
330
1D
100
AcDbEntity
  8
SK6
100
AcDbLine
 10
-118.125009518
 20
-36.216890492
 30
0.0
 11
-115.245012258
 21
-36.216890492
 31
0.0
  0
ARC
  5
78
330
1D
100
AcDbEntity
  8
SK6
100
AcDbCircle
 10
-119.295019128
 20
-36.846864852
 30
0.0
 40
2.70000005
100
AcDbArc
 50
90.00000763
 51
206.5436554
  0
ARC
  5
79
330
1D
100
AcDbEntity
  8
SK6
100
AcDbCircle
 10
-118.575002648
 20
-46.746874012
 30
0.0
 40
1.08000004
100
AcDbArc
 50
270.0
 51
26.54360962
  0
LINE
  5
7A
330
1D
100
AcDbEntity
  8
SK6
100
AcDbLine
 10
-118.575002648
 20
-47.826875842
 30
0.0
 11
-121.995000818
 21
-47.826875842
 31
0.0
  0
LINE
  5
7B
330
1D
100
AcDbEntity
  8
SK6
100
AcDbLine
 10
-121.710420588
 20
-38.053438342
 30
0.0
 11
-117.608854268
 21
-46.264230882
 31
0.0
  0
ARC
  5
7C
330
1D
100
AcDbEntity
  8
SK6
100
AcDbCircle
 10
-117.405015928
 20
-47.196878592
 30
0.0
 40
2.70000005
100
AcDbArc
 50
270.0
 51
26.54364014
  0
LINE
  5
7D
330
1D
100
AcDbEntity
  8
SK6
100
AcDbLine
 10
-119.091176968
 20
-37.779497302
 30
0.0
 11
-114.989606838
 21
-45.990297472
 31
0.0
  0
LINE
  5
7E
330
1D
100
AcDbEntity
  8
SK6
100
AcDbLine
 10
-121.995023708
 20
-47.826875842
 30
0.0
 11
-121.995023708
 21
-49.896883162
 31
0.0
  0
LINE
  5
7F
330
1D
100
AcDbEntity
  8
SK6
100
AcDbLine
 10
-121.995023708
 20
-49.896883162
 30
0.0
 11
-117.405019738
 21
-49.896883162
 31
0.0
  0
LINE
  5
80
330
1D
100
AcDbEntity
  8
SK6
100
AcDbLine
 10
-112.545019128
 20
-49.896883162
 30
0.0
 11
-112.545019128
 21
-34.146883162
 31
0.0
  0
LINE
  5
81
330
1D
100
AcDbEntity
  8
SK6
100
AcDbLine
 10
-104.265012718
 20
-49.896883162
 30
0.0
 11
-104.265012718
 21
-34.146883162
 31
0.0
  0
LINE
  5
82
330
1D
100
AcDbEntity
  8
SK6
100
AcDbLine
 10
-104.265012718
 20
-49.896883162
 30
0.0
 11
-101.565019588
 21
-49.896883162
 31
0.0
  0
LINE
  5
83
330
1D
100
AcDbEntity
  8
SK6
100
AcDbLine
 10
-101.565019588
 20
-49.896883162
 30
0.0
 11
-101.565019588
 21
-43.056886832
 31
0.0
  0
ARC
  5
84
330
1D
100
AcDbEntity
  8
SK6
100
AcDbCircle
 10
-100.215005858
 20
-44.136873402
 30
0.0
 40
1.08000004
100
AcDbArc
 50
0.0
 51
90.00000763
  0
LINE
  5
85
330
1D
100
AcDbEntity
  8
SK6
100
AcDbLine
 10
-100.215005858
 20
-43.056871572
 30
0.0
 11
-101.565008138
 21
-43.056871572
 31
0.0
  0
LINE
  5
86
330
1D
100
AcDbEntity
  8
SK6
100
AcDbLine
 10
-99.135026908
 20
-47.376878892
 30
0.0
 11
-99.135026908
 21
-48.366869132
 31
0.0
  0
ARC
  5
87
330
1D
100
AcDbEntity
  8
SK6
100
AcDbCircle
 10
-94.005029658
 20
-48.366876752
 30
0.0
 40
2.51999998
100
AcDbArc
 50
180.0
 51
217.38319397
  0
ARC
  5
88
330
1D
100
AcDbEntity
  8
SK6
100
AcDbCircle
 10
-96.615037898
 20
-48.366876752
 30
0.0
 40
2.51999998
100
AcDbArc
 50
180.0
 51
217.38319397
  0
LINE
  5
89
330
1D
100
AcDbEntity
  8
SK6
100
AcDbLine
 10
-96.097421628
 20
-49.896883162
 30
0.0
 11
-98.617422078
 21
-49.896883162
 31
0.0
  0
LINE
  5
8A
330
1D
100
AcDbEntity
  8
SK6
100
AcDbLine
 10
-99.135026908
 20
-44.136888662
 30
0.0
 11
-99.135026908
 21
-48.366876752
 31
0.0
  0
ARC
  5
8B
330
1D
100
AcDbEntity
  8
SK6
100
AcDbCircle
 10
-99.045007688
 20
-44.316881332
 30
0.0
 40
2.51999998
100
AcDbArc
 50
358.70883179
 51
93.06652832
  0
ARC
  5
8C
330
1D
100
AcDbEntity
  8
SK6
100
AcDbCircle
 10
-99.315019588
 20
-39.276880422
 30
0.0
 40
2.51999998
100
AcDbArc
 50
273.06652832
 51
0.0
  0
ARC
  5
8D
330
1D
100
AcDbEntity
  8
SK6
100
AcDbCircle
 10
-99.315019588
 20
-36.666887442
 30
0.0
 40
2.51999998
100
AcDbArc
 50
0.0
 51
90.00000763
  0
LINE
  5
8E
330
1D
100
AcDbEntity
  8
SK6
100
AcDbLine
 10
-96.795007688
 20
-36.666887442
 30
0.0
 11
-96.795007688
 21
-39.276888052
 31
0.0
  0
ARC
  5
8F
330
1D
100
AcDbEntity
  8
SK6
100
AcDbCircle
 10
-99.945016838
 20
-37.116884382
 30
0.0
 40
0.90000004
100
AcDbArc
 50
0.0
 51
90.00000763
  0
LINE
  5
90
330
1D
100
AcDbEntity
  8
SK6
100
AcDbLine
 10
-99.945016838
 20
-36.216890492
 30
0.0
 11
-101.565019588
 21
-36.216890492
 31
0.0
  0
ARC
  5
91
330
1D
100
AcDbEntity
  8
SK6
100
AcDbCircle
 10
-99.945016838
 20
-39.996874012
 30
0.0
 40
0.90000004
100
AcDbArc
 50
270.0
 51
0.0
  0
LINE
  5
92
330
1D
100
AcDbEntity
  8
SK6
100
AcDbLine
 10
-99.045007688
 20
-37.116884382
 30
0.0
 11
-99.045007688
 21
-39.996881642
 31
0.0
  0
LINE
  5
93
330
1D
100
AcDbEntity
  8
SK6
100
AcDbLine
 10
-101.565019588
 20
-36.216890492
 30
0.0
 11
-101.565019588
 21
-40.896883162
 31
0.0
  0
LINE
  5
94
330
1D
100
AcDbEntity
  8
SK6
100
AcDbLine
 10
-99.945016838
 20
-40.896883162
 30
0.0
 11
-101.565019588
 21
-40.896883162
 31
0.0
  0
LINE
  5
95
330
1D
100
AcDbEntity
  8
SK6
100
AcDbLine
 10
-96.525659538
 20
-44.373666922
 30
0.0
 11
-96.525030118
 21
-48.367281112
 31
0.0
  0
LINE
  5
96
330
1D
100
AcDbEntity
  8
SK6
100
AcDbLine
 10
-96.097421628
 20
-49.896883162
 30
0.0
 11
-96.007425288
 21
-49.896883162
 31
0.0
  0
LINE
  5
97
330
1D
100
AcDbEntity
  8
SK6
100
AcDbLine
 10
-119.295019128
 20
-34.146867902
 30
0.0
 11
-115.245016078
 21
-34.146867902
 31
0.0
  0
LINE
  5
98
330
1D
100
AcDbEntity
  8
SK6
100
AcDbLine
 10
-99.315019588
 20
-34.146867902
 30
0.0
 11
-104.265024168
 21
-34.146867902
 31
0.0
  0
LINE
  5
99
330
1D
100
AcDbEntity
  8
SK6
100
AcDbLine
 10
-146.295019128
 20
-49.896883162
 30
0.0
 11
-149.085020048
 21
-49.896883162
 31
0.0
  0
LINE
  5
9A
330
1D
100
AcDbEntity
  8
SK6
100
AcDbLine
 10
-146.295019128
 20
-46.476884992
 30
0.0
 11
-146.295019128
 21
-49.896883162
 31
0.0
  0
LINE
  5
9B
330
1D
100
AcDbEntity
  8
SK6
100
AcDbLine
 10
-145.215017298
 20
-44.406877672
 30
0.0
 11
-146.295019128
 21
-46.476884992
 31
0.0
  0
LINE
  5
9C
330
1D
100
AcDbEntity
  8
SK6
100
AcDbLine
 10
-142.785024618
 20
-49.896883162
 30
0.0
 11
-145.215017298
 21
-44.406877672
 31
0.0
  0
LINE
  5
9D
330
1D
100
AcDbEntity
  8
SK6
100
AcDbLine
 10
-139.995023708
 20
-49.896883162
 30
0.0
 11
-142.785016988
 21
-49.896883162
 31
0.0
  0
LINE
  5
9E
330
1D
100
AcDbEntity
  8
SK6
100
AcDbLine
 10
-143.595029808
 20
-40.896883162
 30
0.0
 11
-139.995023708
 21
-49.896883162
 31
0.0
  0
LINE
  5
9F
330
1D
100
AcDbEntity
  8
SK6
100
AcDbLine
 10
-140.535024618
 20
-34.146883162
 30
0.0
 11
-143.595014548
 21
-40.896883162
 31
0.0
  0
LINE
  5
A0
330
1D
100
AcDbEntity
  8
SK6
100
AcDbLine
 10
-146.295019128
 20
-41.256891402
 30
0.0
 11
-143.325025538
 21
-34.146898422
 31
0.0
  0
LINE
  5
A1
330
1D
100
AcDbEntity
  8
SK6
100
AcDbLine
 10
-146.295019128
 20
-34.146883162
 30
0.0
 11
-146.295019128
 21
-41.256891402
 31
0.0
  0
LINE
  5
A2
330
1D
100
AcDbEntity
  8
SK6
100
AcDbLine
 10
-149.085020048
 20
-49.896883162
 30
0.0
 11
-149.085020048
 21
-34.146883162
 31
0.0
  0
LINE
  5
A3
330
1D
100
AcDbEntity
  8
SK6
100
AcDbLine
 10
-143.325025538
 20
-34.146883162
 30
0.0
 11
-140.535024618
 21
-34.146883162
 31
0.0
  0
LINE
  5
A4
330
1D
100
AcDbEntity
  8
SK6
100
AcDbLine
 10
-149.085020048
 20
-34.146883162
 30
0.0
 11
-146.295019128
 21
-34.146883162
 31
0.0
  0
LINE
  5
A5
330
1D
100
AcDbEntity
  8
SK6
100
AcDbLine
 10
-127.035013178
 20
-34.146883162
 30
0.0
 11
-127.035013178
 21
-49.896883162
 31
0.0
  0
LINE
  5
A6
330
1D
100
AcDbEntity
  8
SK6
100
AcDbLine
 10
-124.155015928
 20
-49.896883162
 30
0.0
 11
-124.155015928
 21
-34.146883162
 31
0.0
  0
LINE
  5
A7
330
1D
100
AcDbEntity
  8
SK6
100
AcDbLine
 10
-127.035013178
 20
-49.896883162
 30
0.0
 11
-124.155015928
 21
-49.896883162
 31
0.0
  0
LINE
  5
A8
330
1D
100
AcDbEntity
  8
SK6
100
AcDbLine
 10
-124.155015928
 20
-34.146883162
 30
0.0
 11
-127.035024618
 21
-34.146883162
 31
0.0
  0
LINE
  5
A9
330
1D
100
AcDbEntity
  8
SK6
100
AcDbLine
 10
-106.695016838
 20
-49.896883162
 30
0.0
 11
-106.695016838
 21
-47.826875842
 31
0.0
  0
LINE
  5
AA
330
1D
100
AcDbEntity
  8
SK6
100
AcDbLine
 10
-112.545019128
 20
-49.896883162
 30
0.0
 11
-106.695016838
 21
-49.896883162
 31
0.0
  0
LINE
  5
AB
330
1D
100
AcDbEntity
  8
SK6
100
AcDbLine
 10
-106.695028288
 20
-36.216875232
 30
0.0
 11
-106.695028288
 21
-34.146883162
 31
0.0
  0
LINE
  5
AC
330
1D
100
AcDbEntity
  8
SK6
100
AcDbLine
 10
-109.665044758
 20
-36.216875232
 30
0.0
 11
-106.695039728
 21
-36.216875232
 31
0.0
  0
LINE
  5
AD
330
1D
100
AcDbEntity
  8
SK6
100
AcDbLine
 10
-109.665044758
 20
-40.896883162
 30
0.0
 11
-109.665044758
 21
-36.216890492
 31
0.0
  0
LINE
  5
AE
330
1D
100
AcDbEntity
  8
SK6
100
AcDbLine
 10
-106.695028288
 20
-40.896883162
 30
0.0
 11
-109.665033318
 21
-40.896883162
 31
0.0
  0
LINE
  5
AF
330
1D
100
AcDbEntity
  8
SK6
100
AcDbLine
 10
-106.695028288
 20
-43.056863942
 30
0.0
 11
-106.695028288
 21
-40.896860282
 31
0.0
  0
LINE
  5
B0
330
1D
100
AcDbEntity
  8
SK6
100
AcDbLine
 10
-109.665044758
 20
-43.056863942
 30
0.0
 11
-106.695039728
 21
-43.056863942
 31
0.0
  0
LINE
  5
B1
330
1D
100
AcDbEntity
  8
SK6
100
AcDbLine
 10
-109.665044758
 20
-47.826875842
 30
0.0
 11
-109.665044758
 21
-43.056863942
 31
0.0
  0
LINE
  5
B2
330
1D
100
AcDbEntity
  8
SK6
100
AcDbLine
 10
-106.695028288
 20
-47.826875842
 30
0.0
 11
-109.665033318
 21
-47.826875842
 31
0.0
  0
LINE
  5
B3
330
1D
100
AcDbEntity
  8
SK6
100
AcDbLine
 10
-106.695028288
 20
-34.146883162
 30
0.0
 11
-112.545030568
 21
-34.146883162
 31
0.0
  0
LINE
  5
B4
330
1D
100
AcDbEntity
  8
SK6
100
AcDbLine
 10
-132.615018828
 20
-49.896883162
 30
0.0
 11
-138.915021878
 21
-49.896883162
 31
0.0
  0
LINE
  5
B5
330
1D
100
AcDbEntity
  8
SK6
100
AcDbLine
 10
-133.065008138
 20
-47.376871262
 30
0.0
 11
-132.615018828
 21
-49.896867902
 31
0.0
  0
LINE
  5
B6
330
1D
100
AcDbEntity
  8
SK6
100
AcDbLine
 10
-135.945028288
 20
-47.376871262
 30
0.0
 11
-133.065031028
 21
-47.376871262
 31
0.0
  0
LINE
  5
B7
330
1D
100
AcDbEntity
  8
SK6
100
AcDbLine
 10
-134.415021878
 20
-38.016885912
 30
0.0
 11
-135.945020658
 21
-47.376894152
 31
0.0
  0
LINE
  5
B8
330
1D
100
AcDbEntity
  8
SK6
100
AcDbLine
 10
-131.355024318
 20
-49.896883162
 30
0.0
 11
-134.415021878
 21
-38.016885912
 31
0.0
  0
LINE
  5
B9
330
1D
100
AcDbEntity
  8
SK6
100
AcDbLine
 10
-128.385015468
 20
-49.896883162
 30
0.0
 11
-131.355009058
 21
-49.896883162
 31
0.0
  0
LINE
  5
BA
330
1D
100
AcDbEntity
  8
SK6
100
AcDbLine
 10
-132.795019128
 20
-33.696878592
 30
0.0
 11
-128.385026908
 21
-49.896883162
 31
0.0
  0
LINE
  5
BB
330
1D
100
AcDbEntity
  8
SK6
100
AcDbLine
 10
-135.855024318
 20
-33.696878592
 30
0.0
 11
-132.795026758
 21
-33.696878592
 31
0.0
  0
LINE
  5
BC
330
1D
100
AcDbEntity
  8
SK6
100
AcDbLine
 10
-138.915021878
 20
-49.896883162
 30
0.0
 11
-135.855024318
 21
-33.696878592
 31
0.0
  0
LINE
  5
BD
330
1D
100
AcDbEntity
  8
2
100
AcDbLine
 10
0.0
 20
42.20083504
 30
0.0
 11
0.0
 21
22.194233706
 31
0.0
  0
LINE
  5
BE
330
1D
100
AcDbEntity
  8
2
100
AcDbLine
 10
0.0
 20
40.20083504
 30
0.0
 11
3.499999991
 21
40.650835112
 31
0.0
  0
LINE
  5
BF
330
1D
100
AcDbEntity
  8
2
100
AcDbLine
 10
3.499999991
 20
40.650835112
 30
0.0
 11
3.500000009
 21
39.750835112
 31
0.0
  0
LINE
  5
C0
330
1D
100
AcDbEntity
  8
2
100
AcDbLine
 10
3.500000009
 20
39.750835112
 30
0.0
 11
0.0
 21
40.20083504
 31
0.0
  0
LINE
  5
C1
330
1D
100
AcDbEntity
  8
2
100
AcDbLine
 10
3.4
 20
40.20083511
 30
0.0
 11
0.1
 21
40.200835042
 31
0.0
  0
LINE
  5
C2
330
1D
100
AcDbEntity
  8
2
100
AcDbLine
 10
3.400000004
 20
40.00083511
 30
0.0
 11
1.65555556
 21
40.000835074
 31
0.0
  0
LINE
  5
C3
330
1D
100
AcDbEntity
  8
2
100
AcDbLine
 10
3.399999996
 20
40.40083511
 30
0.0
 11
1.655555551
 21
40.400835074
 31
0.0
  0
LINE
  5
C4
330
1D
100
AcDbEntity
  8
2
100
AcDbLine
 10
3.400000008
 20
39.80083511
 30
0.0
 11
3.211111119
 21
39.800835106
 31
0.0
  0
LINE
  5
C5
330
1D
100
AcDbEntity
  8
2
100
AcDbLine
 10
3.399999992
 20
40.60083511
 30
0.0
 11
3.211111103
 21
40.600835106
 31
0.0
  0
LINE
  5
C6
330
1D
100
AcDbEntity
  8
2
100
AcDbLine
 10
55.0
 20
42.200836182
 30
0.0
 11
55.0
 21
31.0
 31
0.0
  0
LINE
  5
C7
330
1D
100
AcDbEntity
  8
2
100
AcDbLine
 10
55.0
 20
40.200836182
 30
0.0
 11
51.500000009
 21
39.750836109
 31
0.0
  0
LINE
  5
C8
330
1D
100
AcDbEntity
  8
2
100
AcDbLine
 10
51.500000009
 20
39.750836109
 30
0.0
 11
51.499999991
 21
40.650836109
 31
0.0
  0
LINE
  5
C9
330
1D
100
AcDbEntity
  8
2
100
AcDbLine
 10
51.499999991
 20
40.650836109
 30
0.0
 11
55.0
 21
40.200836182
 31
0.0
  0
LINE
  5
CA
330
1D
100
AcDbEntity
  8
2
100
AcDbLine
 10
51.6
 20
40.200836111
 30
0.0
 11
54.9
 21
40.20083618
 31
0.0
  0
LINE
  5
CB
330
1D
100
AcDbEntity
  8
2
100
AcDbLine
 10
51.599999996
 20
40.400836111
 30
0.0
 11
53.34444444
 21
40.400836147
 31
0.0
  0
LINE
  5
CC
330
1D
100
AcDbEntity
  8
2
100
AcDbLine
 10
51.600000004
 20
40.000836111
 30
0.0
 11
53.344444449
 21
40.000836147
 31
0.0
  0
LINE
  5
CD
330
1D
100
AcDbEntity
  8
2
100
AcDbLine
 10
51.599999992
 20
40.600836111
 30
0.0
 11
51.788888881
 21
40.600836115
 31
0.0
  0
LINE
  5
CE
330
1D
100
AcDbEntity
  8
2
100
AcDbLine
 10
51.600000008
 20
39.800836111
 30
0.0
 11
51.788888897
 21
39.800836115
 31
0.0
  0
LINE
  5
CF
330
1D
100
AcDbEntity
  8
2
100
AcDbLine
 10
3.5
 20
40.200835112
 30
0.0
 11
51.5
 21
40.200836109
 31
0.0
  0
TEXT
  5
D0
330
1D
100
AcDbEntity
  8
2
100
AcDbText
 10
26.054061854
 20
41.700835581
 30
0.0
 40
3.5
  1
55
 50
0.00000119
  7
BMG_Text
100
AcDbText
  0
LINE
  5
D1
330
1D
100
AcDbEntity
  8
2
100
AcDbLine
 10
-9.719400883
 20
-22.194240805
 30
0.0
 11
0.0
 21
-22.194240805
 31
0.0
  0
LINE
  5
D2
330
1D
100
AcDbEntity
  8
2
100
AcDbLine
 10
-7.719400883
 20
-22.194240805
 30
0.0
 11
-8.169400883
 21
-18.694240805
 31
0.0
  0
LINE
  5
D3
330
1D
100
AcDbEntity
  8
2
100
AcDbLine
 10
-8.169400883
 20
-18.694240805
 30
0.0
 11
-7.269400883
 21
-18.694240805
 31
0.0
  0
LINE
  5
D4
330
1D
100
AcDbEntity
  8
2
100
AcDbLine
 10
-7.269400883
 20
-18.694240805
 30
0.0
 11
-7.719400883
 21
-22.194240805
 31
0.0
  0
LINE
  5
D5
330
1D
100
AcDbEntity
  8
2
100
AcDbLine
 10
-7.719400883
 20
-18.794240805
 30
0.0
 11
-7.719400883
 21
-22.094240805
 31
0.0
  0
LINE
  5
D6
330
1D
100
AcDbEntity
  8
2
100
AcDbLine
 10
-7.519400883
 20
-18.794240805
 30
0.0
 11
-7.519400883
 21
-20.538685249
 31
0.0
  0
LINE
  5
D7
330
1D
100
AcDbEntity
  8
2
100
AcDbLine
 10
-7.919400883
 20
-18.794240805
 30
0.0
 11
-7.919400883
 21
-20.538685249
 31
0.0
  0
LINE
  5
D8
330
1D
100
AcDbEntity
  8
2
100
AcDbLine
 10
-7.319400883
 20
-18.794240805
 30
0.0
 11
-7.319400883
 21
-18.983129694
 31
0.0
  0
LINE
  5
D9
330
1D
100
AcDbEntity
  8
2
100
AcDbLine
 10
-8.119400883
 20
-18.794240805
 30
0.0
 11
-8.119400883
 21
-18.983129694
 31
0.0
  0
LINE
  5
DA
330
1D
100
AcDbEntity
  8
2
100
AcDbLine
 10
-9.719400883
 20
22.194233706
 30
0.0
 11
0.0
 21
22.194233706
 31
0.0
  0
LINE
  5
DB
330
1D
100
AcDbEntity
  8
2
100
AcDbLine
 10
-7.719400883
 20
22.194233706
 30
0.0
 11
-7.269400883
 21
18.694233706
 31
0.0
  0
LINE
  5
DC
330
1D
100
AcDbEntity
  8
2
100
AcDbLine
 10
-7.269400883
 20
18.694233706
 30
0.0
 11
-8.169400883
 21
18.694233706
 31
0.0
  0
LINE
  5
DD
330
1D
100
AcDbEntity
  8
2
100
AcDbLine
 10
-8.169400883
 20
18.694233706
 30
0.0
 11
-7.719400883
 21
22.194233706
 31
0.0
  0
LINE
  5
DE
330
1D
100
AcDbEntity
  8
2
100
AcDbLine
 10
-7.719400883
 20
18.794233706
 30
0.0
 11
-7.719400883
 21
22.094233706
 31
0.0
  0
LINE
  5
DF
330
1D
100
AcDbEntity
  8
2
100
AcDbLine
 10
-7.919400883
 20
18.794233706
 30
0.0
 11
-7.919400883
 21
20.53867815
 31
0.0
  0
LINE
  5
E0
330
1D
100
AcDbEntity
  8
2
100
AcDbLine
 10
-7.519400883
 20
18.794233706
 30
0.0
 11
-7.519400883
 21
20.53867815
 31
0.0
  0
LINE
  5
E1
330
1D
100
AcDbEntity
  8
2
100
AcDbLine
 10
-8.119400883
 20
18.794233706
 30
0.0
 11
-8.119400883
 21
18.983122595
 31
0.0
  0
LINE
  5
E2
330
1D
100
AcDbEntity
  8
2
100
AcDbLine
 10
-7.319400883
 20
18.794233706
 30
0.0
 11
-7.319400883
 21
18.983122595
 31
0.0
  0
LINE
  5
E3
330
1D
100
AcDbEntity
  8
2
100
AcDbLine
 10
-7.719400883
 20
-18.694240805
 30
0.0
 11
-7.719400883
 21
18.694233706
 31
0.0
  0
TEXT
  5
E4
330
1D
100
AcDbEntity
  8
2
100
AcDbText
 10
-9.219400883
 20
-3.469379046
 30
0.0
 40
3.5
  1
44.399
 50
90.0
  7
BMG_Text
100
AcDbText
  0
CIRCLE
  5
E5
330
1D
100
AcDbEntity
  8
2
100
AcDbCircle
 10
-10.469400883
 20
-5.719379046
 30
0.0
 40
1.25
  0
LINE
  5
E6
330
1D
100
AcDbEntity
  8
2
100
AcDbLine
 10
-9.219400883
 20
-6.969379046
 30
0.0
 11
-11.719400883
 21
-4.469379046
 31
0.0
  0
LINE
  5
E7
330
1D
100
AcDbEntity
  8
2
100
AcDbLine
 10
0.0
 20
-46.481419746
 30
0.0
 11
0.0
 21
-22.204760734
 31
0.0
  0
LINE
  5
E8
330
1D
100
AcDbEntity
  8
2
100
AcDbLine
 10
0.0
 20
-44.481419746
 30
0.0
 11
3.499999993
 21
-44.031419688
 31
0.0
  0
LINE
  5
E9
330
1D
100
AcDbEntity
  8
2
100
AcDbLine
 10
3.499999993
 20
-44.031419688
 30
0.0
 11
3.500000007
 21
-44.931419688
 31
0.0
  0
LINE
  5
EA
330
1D
100
AcDbEntity
  8
2
100
AcDbLine
 10
3.500000007
 20
-44.931419688
 30
0.0
 11
0.0
 21
-44.481419746
 31
0.0
  0
LINE
  5
EB
330
1D
100
AcDbEntity
  8
2
100
AcDbLine
 10
3.4
 20
-44.481419689
 30
0.0
 11
0.1
 21
-44.481419744
 31
0.0
  0
LINE
  5
EC
330
1D
100
AcDbEntity
  8
2
100
AcDbLine
 10
3.400000003
 20
-44.681419689
 30
0.0
 11
1.655555559
 21
-44.681419718
 31
0.0
  0
LINE
  5
ED
330
1D
100
AcDbEntity
  8
2
100
AcDbLine
 10
3.399999997
 20
-44.281419689
 30
0.0
 11
1.655555552
 21
-44.281419718
 31
0.0
  0
LINE
  5
EE
330
1D
100
AcDbEntity
  8
2
100
AcDbLine
 10
3.400000007
 20
-44.881419689
 30
0.0
 11
3.211111118
 21
-44.881419693
 31
0.0
  0
LINE
  5
EF
330
1D
100
AcDbEntity
  8
2
100
AcDbLine
 10
3.399999993
 20
-44.081419689
 30
0.0
 11
3.211111104
 21
-44.081419693
 31
0.0
  0
LINE
  5
F0
330
1D
100
AcDbEntity
  8
2
100
AcDbLine
 10
11.0
 20
-46.481419563
 30
0.0
 11
11.0
 21
-31.650001526
 31
0.0
  0
LINE
  5
F1
330
1D
100
AcDbEntity
  8
2
100
AcDbLine
 10
11.0
 20
-44.481419563
 30
0.0
 11
7.500000007
 21
-44.931419621
 31
0.0
  0
LINE
  5
F2
330
1D
100
AcDbEntity
  8
2
100
AcDbLine
 10
7.500000007
 20
-44.931419621
 30
0.0
 11
7.499999993
 21
-44.031419621
 31
0.0
  0
LINE
  5
F3
330
1D
100
AcDbEntity
  8
2
100
AcDbLine
 10
7.499999993
 20
-44.031419621
 30
0.0
 11
11.0
 21
-44.481419563
 31
0.0
  0
LINE
  5
F4
330
1D
100
AcDbEntity
  8
2
100
AcDbLine
 10
7.6
 20
-44.48141962
 30
0.0
 11
10.9
 21
-44.481419565
 31
0.0
  0
LINE
  5
F5
330
1D
100
AcDbEntity
  8
2
100
AcDbLine
 10
7.599999997
 20
-44.28141962
 30
0.0
 11
9.344444441
 21
-44.281419591
 31
0.0
  0
LINE
  5
F6
330
1D
100
AcDbEntity
  8
2
100
AcDbLine
 10
7.600000003
 20
-44.68141962
 30
0.0
 11
9.344444448
 21
-44.681419591
 31
0.0
  0
LINE
  5
F7
330
1D
100
AcDbEntity
  8
2
100
AcDbLine
 10
7.599999993
 20
-44.08141962
 30
0.0
 11
7.788888882
 21
-44.081419617
 31
0.0
  0
LINE
  5
F8
330
1D
100
AcDbEntity
  8
2
100
AcDbLine
 10
7.600000007
 20
-44.88141962
 30
0.0
 11
7.788888896
 21
-44.881419617
 31
0.0
  0
LINE
  5
F9
330
1D
100
AcDbEntity
  8
2
100
AcDbLine
 10
3.5
 20
-44.481419688
 30
0.0
 11
7.5
 21
-44.481419621
 31
0.0
  0
TEXT
  5
FA
330
1D
100
AcDbEntity
  8
2
100
AcDbText
 10
4.600937352
 20
-42.98141967
 30
0.0
 40
3.5
  1
11
 50
0.00000095
  7
BMG_Text
100
AcDbText
  0
LINE
  5
FB
330
1D
100
AcDbEntity
  8
2
100
AcDbLine
 10
11.0
 20
-46.481419563
 30
0.0
 11
11.0
 21
-31.650001526
 31
0.0
  0
LINE
  5
FC
330
1D
100
AcDbEntity
  8
2
100
AcDbLine
 10
11.0
 20
-44.481419563
 30
0.0
 11
14.5
 21
-44.031419563
 31
0.0
  0
LINE
  5
FD
330
1D
100
AcDbEntity
  8
2
100
AcDbLine
 10
14.5
 20
-44.031419563
 30
0.0
 11
14.5
 21
-44.931419563
 31
0.0
  0
LINE
  5
FE
330
1D
100
AcDbEntity
  8
2
100
AcDbLine
 10
14.5
 20
-44.931419563
 30
0.0
 11
11.0
 21
-44.481419563
 31
0.0
  0
LINE
  5
FF
330
1D
100
AcDbEntity
  8
2
100
AcDbLine
 10
14.4
 20
-44.481419563
 30
0.0
 11
11.1
 21
-44.481419563
 31
0.0
  0
LINE
  5
100
330
1D
100
AcDbEntity
  8
2
100
AcDbLine
 10
14.4
 20
-44.681419563
 30
0.0
 11
12.655555556
 21
-44.681419563
 31
0.0
  0
LINE
  5
101
330
1D
100
AcDbEntity
  8
2
100
AcDbLine
 10
14.4
 20
-44.281419563
 30
0.0
 11
12.655555556
 21
-44.281419563
 31
0.0
  0
LINE
  5
102
330
1D
100
AcDbEntity
  8
2
100
AcDbLine
 10
14.4
 20
-44.881419563
 30
0.0
 11
14.211111111
 21
-44.881419563
 31
0.0
  0
LINE
  5
103
330
1D
100
AcDbEntity
  8
2
100
AcDbLine
 10
14.4
 20
-44.081419563
 30
0.0
 11
14.211111111
 21
-44.081419563
 31
0.0
  0
LINE
  5
104
330
1D
100
AcDbEntity
  8
2
100
AcDbLine
 10
14.5
 20
-44.481419563
 30
0.0
 11
59.4
 21
-44.481419563
 31
0.0
  0
TEXT
  5
105
330
1D
100
AcDbEntity
  8
2
100
AcDbText
 10
58.24372812526521
 20
-42.981419563
 30
0.0
 40
3.5
  1
115
  7
BMG_Text
100
AcDbText
  0
TEXT
  5
106
330
1D
100
AcDbEntity
  8
2
100
AcDbText
 10
21.429218209
 20
-42.981419563
 30
0.0
 40
3.5
  1
Ausdrehtiefe
  7
BMG_Text
100
AcDbText
  0
LINE
  5
107
330
1D
100
AcDbEntity
  8
2
100
AcDbLine
 10
76.425758362
 20
-32.0
 30
0.0
 11
54.0
 21
-32.0
 31
0.0
  0
LINE
  5
108
330
1D
100
AcDbEntity
  8
2
100
AcDbLine
 10
74.425758362
 20
-32.0
 30
0.0
 11
73.975758362
 21
-28.5
 31
0.0
  0
LINE
  5
109
330
1D
100
AcDbEntity
  8
2
100
AcDbLine
 10
73.975758362
 20
-28.5
 30
0.0
 11
74.875758362
 21
-28.5
 31
0.0
  0
LINE
  5
10A
330
1D
100
AcDbEntity
  8
2
100
AcDbLine
 10
74.875758362
 20
-28.5
 30
0.0
 11
74.425758362
 21
-32.0
 31
0.0
  0
LINE
  5
10B
330
1D
100
AcDbEntity
  8
2
100
AcDbLine
 10
74.425758362
 20
-28.6
 30
0.0
 11
74.425758362
 21
-31.9
 31
0.0
  0
LINE
  5
10C
330
1D
100
AcDbEntity
  8
2
100
AcDbLine
 10
74.625758362
 20
-28.6
 30
0.0
 11
74.625758362
 21
-30.344444444
 31
0.0
  0
LINE
  5
10D
330
1D
100
AcDbEntity
  8
2
100
AcDbLine
 10
74.225758362
 20
-28.6
 30
0.0
 11
74.225758362
 21
-30.344444444
 31
0.0
  0
LINE
  5
10E
330
1D
100
AcDbEntity
  8
2
100
AcDbLine
 10
74.825758362
 20
-28.6
 30
0.0
 11
74.825758362
 21
-28.788888889
 31
0.0
  0
LINE
  5
10F
330
1D
100
AcDbEntity
  8
2
100
AcDbLine
 10
74.025758362
 20
-28.6
 30
0.0
 11
74.025758362
 21
-28.788888889
 31
0.0
  0
LINE
  5
110
330
1D
100
AcDbEntity
  8
2
100
AcDbLine
 10
76.425758362
 20
32.0
 30
0.0
 11
54.0
 21
32.0
 31
0.0
  0
LINE
  5
111
330
1D
100
AcDbEntity
  8
2
100
AcDbLine
 10
74.425758362
 20
32.0
 30
0.0
 11
74.875758362
 21
28.5
 31
0.0
  0
LINE
  5
112
330
1D
100
AcDbEntity
  8
2
100
AcDbLine
 10
74.875758362
 20
28.5
 30
0.0
 11
73.975758362
 21
28.5
 31
0.0
  0
LINE
  5
113
330
1D
100
AcDbEntity
  8
2
100
AcDbLine
 10
73.975758362
 20
28.5
 30
0.0
 11
74.425758362
 21
32.0
 31
0.0
  0
LINE
  5
114
330
1D
100
AcDbEntity
  8
2
100
AcDbLine
 10
74.425758362
 20
28.6
 30
0.0
 11
74.425758362
 21
31.9
 31
0.0
  0
LINE
  5
115
330
1D
100
AcDbEntity
  8
2
100
AcDbLine
 10
74.225758362
 20
28.6
 30
0.0
 11
74.225758362
 21
30.344444444
 31
0.0
  0
LINE
  5
116
330
1D
100
AcDbEntity
  8
2
100
AcDbLine
 10
74.625758362
 20
28.6
 30
0.0
 11
74.625758362
 21
30.344444444
 31
0.0
  0
LINE
  5
117
330
1D
100
AcDbEntity
  8
2
100
AcDbLine
 10
74.025758362
 20
28.6
 30
0.0
 11
74.025758362
 21
28.788888889
 31
0.0
  0
LINE
  5
118
330
1D
100
AcDbEntity
  8
2
100
AcDbLine
 10
74.825758362
 20
28.6
 30
0.0
 11
74.825758362
 21
28.788888889
 31
0.0
  0
LINE
  5
119
330
1D
100
AcDbEntity
  8
2
100
AcDbLine
 10
74.425758362
 20
-28.5
 30
0.0
 11
74.425758362
 21
28.5
 31
0.0
  0
TEXT
  5
11A
330
1D
100
AcDbEntity
  8
2
100
AcDbText
 10
72.925758362
 20
0.139999285
 30
0.0
 40
3.5
  1
64
 50
90.0
  7
BMG_Text
100
AcDbText
  0
CIRCLE
  5
11B
330
1D
100
AcDbEntity
  8
2
100
AcDbCircle
 10
71.675758362
 20
-2.110000715
 30
0.0
 40
1.25
  0
LINE
  5
11C
330
1D
100
AcDbEntity
  8
2
100
AcDbLine
 10
72.925758362
 20
-3.360000715
 30
0.0
 11
70.425758362
 21
-0.860000715
 31
0.0
  0
LINE
  5
11D
330
1D
100
AcDbEntity
  8
2
100
AcDbLine
 10
67.074238778
 20
-18.0
 30
0.0
 11
54.567016602
 21
-18.0
 31
0.0
  0
LINE
  5
11E
330
1D
100
AcDbEntity
  8
2
100
AcDbLine
 10
65.074238778
 20
-18.0
 30
0.0
 11
64.624238778
 21
-14.5
 31
0.0
  0
LINE
  5
11F
330
1D
100
AcDbEntity
  8
2
100
AcDbLine
 10
64.624238778
 20
-14.5
 30
0.0
 11
65.524238778
 21
-14.5
 31
0.0
  0
LINE
  5
120
330
1D
100
AcDbEntity
  8
2
100
AcDbLine
 10
65.524238778
 20
-14.5
 30
0.0
 11
65.074238778
 21
-18.0
 31
0.0
  0
LINE
  5
121
330
1D
100
AcDbEntity
  8
2
100
AcDbLine
 10
65.074238778
 20
-14.6
 30
0.0
 11
65.074238778
 21
-17.9
 31
0.0
  0
LINE
  5
122
330
1D
100
AcDbEntity
  8
2
100
AcDbLine
 10
65.274238778
 20
-14.6
 30
0.0
 11
65.274238778
 21
-16.344444444
 31
0.0
  0
LINE
  5
123
330
1D
100
AcDbEntity
  8
2
100
AcDbLine
 10
64.874238778
 20
-14.6
 30
0.0
 11
64.874238778
 21
-16.344444444
 31
0.0
  0
LINE
  5
124
330
1D
100
AcDbEntity
  8
2
100
AcDbLine
 10
65.474238778
 20
-14.6
 30
0.0
 11
65.474238778
 21
-14.788888889
 31
0.0
  0
LINE
  5
125
330
1D
100
AcDbEntity
  8
2
100
AcDbLine
 10
64.674238778
 20
-14.6
 30
0.0
 11
64.674238778
 21
-14.788888889
 31
0.0
  0
LINE
  5
126
330
1D
100
AcDbEntity
  8
2
100
AcDbLine
 10
67.074238778
 20
18.0
 30
0.0
 11
54.567016602
 21
18.0
 31
0.0
  0
LINE
  5
127
330
1D
100
AcDbEntity
  8
2
100
AcDbLine
 10
65.074238778
 20
18.0
 30
0.0
 11
65.524238778
 21
14.5
 31
0.0
  0
LINE
  5
128
330
1D
100
AcDbEntity
  8
2
100
AcDbLine
 10
65.524238778
 20
14.5
 30
0.0
 11
64.624238778
 21
14.5
 31
0.0
  0
LINE
  5
129
330
1D
100
AcDbEntity
  8
2
100
AcDbLine
 10
64.624238778
 20
14.5
 30
0.0
 11
65.074238778
 21
18.0
 31
0.0
  0
LINE
  5
12A
330
1D
100
AcDbEntity
  8
2
100
AcDbLine
 10
65.074238778
 20
14.6
 30
0.0
 11
65.074238778
 21
17.9
 31
0.0
  0
LINE
  5
12B
330
1D
100
AcDbEntity
  8
2
100
AcDbLine
 10
64.874238778
 20
14.6
 30
0.0
 11
64.874238778
 21
16.344444444
 31
0.0
  0
LINE
  5
12C
330
1D
100
AcDbEntity
  8
2
100
AcDbLine
 10
65.274238778
 20
14.6
 30
0.0
 11
65.274238778
 21
16.344444444
 31
0.0
  0
LINE
  5
12D
330
1D
100
AcDbEntity
  8
2
100
AcDbLine
 10
64.674238778
 20
14.6
 30
0.0
 11
64.674238778
 21
14.788888889
 31
0.0
  0
LINE
  5
12E
330
1D
100
AcDbEntity
  8
2
100
AcDbLine
 10
65.474238778
 20
14.6
 30
0.0
 11
65.474238778
 21
14.788888889
 31
0.0
  0
LINE
  5
12F
330
1D
100
AcDbEntity
  8
2
100
AcDbLine
 10
65.074238778
 20
-14.5
 30
0.0
 11
65.074238778
 21
14.5
 31
0.0
  0
TEXT
  5
130
330
1D
100
AcDbEntity
  8
2
100
AcDbText
 10
63.574238778
 20
0.331405848
 30
0.0
 40
3.5
  1
36
 50
90.0
  7
BMG_Text
100
AcDbText
  0
CIRCLE
  5
131
330
1D
100
AcDbEntity
  8
2
100
AcDbCircle
 10
62.324238778
 20
-1.918594152
 30
0.0
 40
1.25
  0
LINE
  5
132
330
1D
100
AcDbEntity
  8
2
100
AcDbLine
 10
63.574238778
 20
-3.168594152
 30
0.0
 11
61.074238778
 21
-0.668594152
 31
0.0
  0
TEXT
  5
133
330
1D
100
AcDbEntity
  8
SK6
100
AcDbText
 10
77.35596603556675
 20
-75.90349658599858
 30
0.0
 40
3.5
  1
323.563
  7
BMG_Text
100
AcDbText
  0
LWPOLYLINE
  5
1F7
330
1D
100
AcDbEntity
  8
INFTOTAL
100
AcDbPolyline
 90
        4
 70
     1
 43
0.0
 10
-186.8178132012038
 20
78.38616285819928
 10
-186.8178132012038
 20
-79.39763768069103
 10
103.504379790354
 20
-79.39763768069103
 10
103.504379790354
 20
78.38616285819928
  0
LINE
  5
213
330
1D
100
AcDbEntity
  8
1
100
AcDbLine
 10
0.0
 20
22.194233706
 30
0.0
 11
2.119781494
 21
22.25
 31
0.0
  0
LINE
  5
214
330
1D
100
AcDbEntity
  8
1
100
AcDbLine
 10
0.0
 20
-22.194240805
 30
0.0
 11
2.119491577
 21
-22.25
 31
0.0
  0
LINE
  5
21A
330
1D
100
AcDbEntity
  8
SK1
100
AcDbLine
 10
0.0
 20
22.194233706
 30
0.0
 11
0.0
 21
-22.194240805
 31
0.0
  0
LINE
  5
21D
330
1D
100
AcDbEntity
  8
4
100
AcDbLine
 10
38.95
 20
-9.0
 30
0.0
 11
38.95
 21
9.0
 31
0.0
  0
LINE
  5
21E
330
1D
100
AcDbEntity
  8
4
100
AcDbLine
 10
57.000015259
 20
0.0
 30
0.0
 11
0.0
 21
-0.0000035495000006
 31
0.0
  0
LINE
  5
221
330
1D
100
AcDbEntity
  8
3
100
AcDbLine
 10
0.0
 20
13.0
 30
0.0
 11
13.057922363
 21
13.0
 31
0.0
  0
LINE
  5
222
330
1D
100
AcDbEntity
  8
3
100
AcDbLine
 10
0.0
 20
-13.0
 30
0.0
 11
13.057922363
 21
-13.0
 31
0.0
  0
ARC
  5
234
330
1D
100
AcDbEntity
  8
NOCUT
100
AcDbCircle
 10
6.199981688999998
 20
24.525001526
 30
0.0
 40
2.0
100
AcDbArc
 50
270.0
 51
350.0002151730001
  0
LINE
  5
235
330
1D
100
AcDbEntity
  8
NOCUT
100
AcDbLine
 10
2.119644164999997
 20
22.25
 30
0.0
 11
6.199996948000006
 21
22.25
 31
0.0
  0
ARC
  5
236
330
1D
100
AcDbEntity
  8
NOCUT
100
AcDbCircle
 10
10.32627868700001
 20
30.650001526
 30
0.0
 40
1.0
100
AcDbArc
 50
90.0
 51
170.0001239780001
  0
LINE
  5
237
330
1D
100
AcDbEntity
  8
NOCUT
100
AcDbLine
 10
8.169601440000008
 20
24.177696228
 30
0.0
 11
9.341491698999988
 21
30.823646545
 31
0.0
  0
LINE
  5
239
330
1D
100
AcDbEntity
  8
NOCUT
100
AcDbLine
 10
54.0
 20
32.0
 30
0.0
 11
55.0
 21
31.0
 31
0.0
  0
LINE
  5
23A
330
1D
100
AcDbEntity
  8
NOCUT
100
AcDbLine
 10
12.54998779299999
 20
32.0
 30
0.0
 11
54.0
 21
32.0
 31
0.0
  0
LINE
  5
23B
330
1D
100
AcDbEntity
  8
NOCUT
100
AcDbLine
 10
10.326293945
 20
31.650001526
 30
0.0
 11
12.19999694800001
 21
31.650001526
 31
0.0
  0
LINE
  5
23C
330
1D
100
AcDbEntity
  8
NOCUT
100
AcDbLine
 10
12.19999694800001
 20
31.650001526
 30
0.0
 11
12.54998779299999
 21
32.0
 31
0.0
  0
LINE
  5
23D
330
1D
100
AcDbEntity
  8
NOCUT
100
AcDbLine
 10
0.0
 20
22.19423370600001
 30
0.0
 11
2.119781493999994
 21
22.25
 31
0.0
  0
LINE
  5
23F
330
1D
100
AcDbEntity
  8
NOCUT
100
AcDbLine
 10
55.0
 20
31.0
 30
0.0
 11
55.0
 21
0.0
 31
0.0
  0
LINE
  5
240
330
1D
100
AcDbEntity
  8
NOCUT
100
AcDbLine
 10
55.0
 20
0.0
 30
0.0
 11
0.0
 21
-0.0000035495000006
 31
0.0
  0
LINE
  5
241
330
1D
100
AcDbEntity
  8
NOCUT
100
AcDbLine
 10
0.0
 20
-0.0000035495000006
 30
0.0
 11
0.0
 21
22.194233706
 31
0.0
  0
ENDSEC
  0
SECTION
  2
OBJECTS
  0
DICTIONARY
  5
C
330
0
100
AcDbDictionary
281
     1
  3
ACAD_DETAILVIEWSTYLE
350
1FB
  3
ACAD_GROUP
350
D
  3
ACAD_LAYOUT
350
1A
  3
ACAD_MATERIAL
350
171
  3
ACAD_MLEADERSTYLE
350
17E
  3
ACAD_MLINESTYLE
350
17
  3
ACAD_PLOTSETTINGS
350
19
  3
ACAD_PLOTSTYLENAME
350
E
  3
ACAD_SCALELIST
350
13A
  3
ACAD_SECTIONVIEWSTYLE
350
1FC
  3
ACAD_TABLESTYLE
350
1C7
  3
ACAD_VISUALSTYLE
350
160
  3
ACDB_RECOMPOSE_DATA
350
262
  3
AcDbVariableDictionary
350
17C
  3
APPDATA
350
1CA
  0
SUN
  5
1FD
330
134
100
AcDbSun
 90
        1
290
     0
 63
     7
421
 16777215
 40
1.0
291
     1
 91
  2455826
 92
 54000000
292
     0
 70
     2
 71
   256
280
     1
  0
DICTIONARY
  5
1CB
330
2
100
AcDbDictionary
280
     1
281
     1
  3
ACAD_LAYERSTATES
360
1CC
  0
DICTIONARY
  5
1FB
102
{ACAD_REACTORS
330
C
102
}
330
C
100
AcDbDictionary
281
     1
  0
DICTIONARY
  5
D
102
{ACAD_REACTORS
330
C
102
}
330
C
100
AcDbDictionary
281
     1
  0
DICTIONARY
  5
1A
102
{ACAD_REACTORS
330
C
102
}
330
C
100
AcDbDictionary
281
     1
  3
Layout1
350
1C
  3
Model
350
1E
  0
DICTIONARY
  5
171
102
{ACAD_REACTORS
330
C
102
}
330
C
100
AcDbDictionary
281
     1
  3
ByBlock
350
173
  3
ByLayer
350
172
  3
Global
350
174
  0
DICTIONARY
  5
17E
102
{ACAD_REACTORS
330
C
102
}
330
C
100
AcDbDictionary
281
     1
  3
Standard
350
1C9
  0
DICTIONARY
  5
17
102
{ACAD_REACTORS
330
C
102
}
330
C
100
AcDbDictionary
281
     1
  3
Standard
350
18
  0
DICTIONARY
  5
19
102
{ACAD_REACTORS
330
C
102
}
330
C
100
AcDbDictionary
281
     1
  0
ACDBDICTIONARYWDFLT
  5
E
102
{ACAD_REACTORS
330
C
102
}
330
C
100
AcDbDictionary
281
     1
  3
Normal
350
F
100
AcDbDictionaryWithDefault
340
F
  0
DICTIONARY
  5
13A
102
{ACAD_REACTORS
330
C
102
}
330
C
100
AcDbDictionary
281
     1
  3
A0
350
13B
  3
A1
350
13C
  3
A2
350
13D
  3
A3
350
13E
  3
A4
350
13F
  3
A5
350
140
  3
A6
350
141
  3
A7
350
142
  3
A8
350
143
  3
A9
350
144
  3
B0
350
145
  3
B1
350
146
  3
B2
350
147
  3
B3
350
148
  3
B4
350
149
  3
B5
350
14A
  3
B6
350
14B
  3
B7
350
14C
  3
B8
350
14D
  3
B9
350
14E
  3
C0
350
14F
  3
C1
350
150
  3
C2
350
151
  3
C3
350
152
  3
C4
350
153
  3
C5
350
154
  3
C6
350
155
  3
C7
350
156
  3
C8
350
157
  3
C9
350
158
  3
D0
350
159
  3
D1
350
15A
  3
D2
350
15B
  0
DICTIONARY
  5
1FC
102
{ACAD_REACTORS
330
C
102
}
330
C
100
AcDbDictionary
281
     1
  0
DICTIONARY
  5
1C7
102
{ACAD_REACTORS
330
C
102
}
330
C
100
AcDbDictionary
281
     1
  3
Standard
350
1C8
  0
DICTIONARY
  5
160
102
{ACAD_REACTORS
330
C
102
}
330
C
100
AcDbDictionary
281
     1
  3
2dWireframe
350
165
  3
3D Hidden
350
167
  3
3dWireframe
350
166
  3
Basic
350
168
  3
Brighten
350
16C
  3
ColorChange
350
170
  3
Conceptual
350
16A
  3
Dim
350
16B
  3
EdgeColorOff
350
1C1
  3
Facepattern
350
16F
  3
Flat
350
161
  3
FlatWithEdges
350
162
  3
Gouraud
350
163
  3
GouraudWithEdges
350
164
  3
Hidden
350
1BE
  3
JitterOff
350
1BF
  3
Linepattern
350
16E
  3
OverhangOff
350
1C0
  3
Realistic
350
169
  3
Shaded
350
1C6
  3
Shaded with edges
350
1C5
  3
Shades of Gray
350
1C2
  3
Sketchy
350
1C3
  3
Thicken
350
16D
  3
Wireframe
350
1BD
  3
X-Ray
350
1C4
  0
XRECORD
  5
262
102
{ACAD_REACTORS
330
C
102
}
330
C
100
AcDbXrecord
280
     1
 90
        1
330
1C8
  0
DICTIONARY
  5
17C
102
{ACAD_REACTORS
330
C
102
}
330
C
100
AcDbDictionary
281
     1
  3
CANNOSCALE
350
1F8
  3
CMLEADERSTYLE
350
1FA
  3
CTABLESTYLE
350
1F9
  3
DIMASSOC
350
180
  3
HIDETEXT
350
181
  3
MSLTSCALE
350
17F
  0
DICTIONARY
  5
1CA
102
{ACAD_REACTORS
330
C
102
}
330
C
100
AcDbDictionary
281
     1
  0
DICTIONARY
  5
1CC
102
{ACAD_REACTORS
330
1CB
102
}
330
1CB
100
AcDbDictionary
281
     1
  0
LAYOUT
  5
1C
102
{ACAD_REACTORS
330
1A
102
}
330
1A
100
AcDbPlotSettings
  1

  2
none_device
  4

  6

 40
0.0
 41
0.0
 42
0.0
 43
0.0
 44
0.0
 45
0.0
 46
0.0
 47
0.0
 48
0.0
 49
0.0
140
0.0
141
0.0
142
1.0
143
1.0
 70
   688
 72
     0
 73
     0
 74
     5
  7

 75
    16
 76
     0
 77
     2
 78
   300
147
1.0
148
0.0
149
0.0
100
AcDbLayout
  1
Layout1
 70
     1
 71
     1
 10
0.0
 20
0.0
 11
12.0
 21
9.0
 12
0.0
 22
0.0
 32
0.0
 14
1.000000000000000E+20
 24
1.000000000000000E+20
 34
1.000000000000000E+20
 15
-1.000000000000000E+20
 25
-1.000000000000000E+20
 35
-1.000000000000000E+20
146
0.0
 13
0.0
 23
0.0
 33
0.0
 16
1.0
 26
0.0
 36
0.0
 17
0.0
 27
1.0
 37
0.0
 76
     0
330
1B
  0
LAYOUT
  5
1E
102
{ACAD_REACTORS
330
1A
102
}
330
1A
100
AcDbPlotSettings
  1

  2
none_device
  4

  6

 40
0.0
 41
0.0
 42
0.0
 43
0.0
 44
0.0
 45
0.0
 46
0.0
 47
0.0
 48
0.0
 49
0.0
140
0.0
141
0.0
142
1.0
143
1.0
 70
  1712
 72
     0
 73
     0
 74
     0
  7

 75
     0
 76
     0
 77
     2
 78
   300
147
1.0
148
0.0
149
0.0
100
AcDbLayout
  1
Model
 70
     1
 71
     0
 10
0.0
 20
0.0
 11
12.0
 21
9.0
 12
0.0
 22
0.0
 32
0.0
 14
-186.8178132012038
 24
-79.39763768069103
 34
0.0
 15
103.504379790354
 25
78.38616285819928
 35
0.0
146
0.0
 13
0.0
 23
0.0
 33
0.0
 16
1.0
 26
0.0
 36
0.0
 17
0.0
 27
1.0
 37
0.0
 76
     0
330
1D
331
134
  0
MATERIAL
  5
173
102
{ACAD_REACTORS
330
171
102
}
330
171
100
AcDbMaterial
  1
ByBlock
 72
     1
 94
      127
  0
MATERIAL
  5
172
102
{ACAD_REACTORS
330
171
102
}
330
171
100
AcDbMaterial
  1
ByLayer
 72
     1
 94
      127
  0
MATERIAL
  5
174
102
{ACAD_REACTORS
330
171
102
}
330
171
100
AcDbMaterial
  1
Global
 72
     1
 94
      127
  0
MLEADERSTYLE
  5
1C9
102
{ACAD_REACTORS
330
17E
102
}
330
17E
100
AcDbMLeaderStyle
179
     2
170
     2
171
     1
172
     0
 90
        2
 40
0.0
 41
0.0
173
     1
 91
-1056964608
340
14
 92
       -2
290
     1
 42
0.09
291
     1
 43
0.36
  3
Standard
341
0
 44
0.18
300

342
11
174
     1
178
     1
175
     1
176
     0
 93
-1056964608
 45
0.18
292
     0
297
     0
 46
0.18
343
0
 94
-1056964608
 47
1.0
 49
1.0
140
1.0
293
     1
141
0.0
294
     1
177
     0
142
1.0
295
     0
296
     0
143
0.125
271
     0
272
     9
273
     9
298
     0
  0
MLINESTYLE
  5
18
102
{ACAD_REACTORS
330
17
102
}
330
17
100
AcDbMlineStyle
  2
Standard
 70
     0
  3

 62
   256
 51
90.0
 52
90.0
 71
     2
 49
0.5
 62
   256
  6
BYLAYER
 49
-0.5
 62
   256
  6
BYLAYER
  0
ACDBPLACEHOLDER
  5
F
102
{ACAD_REACTORS
330
E
102
}
330
E
  0
SCALE
  5
13B
102
{ACAD_REACTORS
330
13A
102
}
330
13A
100
AcDbScale
 70
     0
300
1:1
140
1.0
141
1.0
290
     1
  0
SCALE
  5
13C
102
{ACAD_REACTORS
330
13A
102
}
330
13A
100
AcDbScale
 70
     0
300
1:2
140
1.0
141
2.0
290
     0
  0
SCALE
  5
13D
102
{ACAD_REACTORS
330
13A
102
}
330
13A
100
AcDbScale
 70
     0
300
1:4
140
1.0
141
4.0
290
     0
  0
SCALE
  5
13E
102
{ACAD_REACTORS
330
13A
102
}
330
13A
100
AcDbScale
 70
     0
300
1:5
140
1.0
141
5.0
290
     0
  0
SCALE
  5
13F
102
{ACAD_REACTORS
330
13A
102
}
330
13A
100
AcDbScale
 70
     0
300
1:8
140
1.0
141
8.0
290
     0
  0
SCALE
  5
140
102
{ACAD_REACTORS
330
13A
102
}
330
13A
100
AcDbScale
 70
     0
300
1:10
140
1.0
141
10.0
290
     0
  0
SCALE
  5
141
102
{ACAD_REACTORS
330
13A
102
}
330
13A
100
AcDbScale
 70
     0
300
1:16
140
1.0
141
16.0
290
     0
  0
SCALE
  5
142
102
{ACAD_REACTORS
330
13A
102
}
330
13A
100
AcDbScale
 70
     0
300
1:20
140
1.0
141
20.0
290
     0
  0
SCALE
  5
143
102
{ACAD_REACTORS
330
13A
102
}
330
13A
100
AcDbScale
 70
     0
300
1:30
140
1.0
141
30.0
290
     0
  0
SCALE
  5
144
102
{ACAD_REACTORS
330
13A
102
}
330
13A
100
AcDbScale
 70
     0
300
1:40
140
1.0
141
40.0
290
     0
  0
SCALE
  5
145
102
{ACAD_REACTORS
330
13A
102
}
330
13A
100
AcDbScale
 70
     0
300
1:50
140
1.0
141
50.0
290
     0
  0
SCALE
  5
146
102
{ACAD_REACTORS
330
13A
102
}
330
13A
100
AcDbScale
 70
     0
300
1:100
140
1.0
141
100.0
290
     0
  0
SCALE
  5
147
102
{ACAD_REACTORS
330
13A
102
}
330
13A
100
AcDbScale
 70
     0
300
2:1
140
2.0
141
1.0
290
     0
  0
SCALE
  5
148
102
{ACAD_REACTORS
330
13A
102
}
330
13A
100
AcDbScale
 70
     0
300
4:1
140
4.0
141
1.0
290
     0
  0
SCALE
  5
149
102
{ACAD_REACTORS
330
13A
102
}
330
13A
100
AcDbScale
 70
     0
300
8:1
140
8.0
141
1.0
290
     0
  0
SCALE
  5
14A
102
{ACAD_REACTORS
330
13A
102
}
330
13A
100
AcDbScale
 70
     0
300
10:1
140
10.0
141
1.0
290
     0
  0
SCALE
  5
14B
102
{ACAD_REACTORS
330
13A
102
}
330
13A
100
AcDbScale
 70
     0
300
100:1
140
100.0
141
1.0
290
     0
  0
SCALE
  5
14C
102
{ACAD_REACTORS
330
13A
102
}
330
13A
100
AcDbScale
 70
     0
300
1/128" = 1'-0"
140
0.0078125
141
12.0
290
     0
  0
SCALE
  5
14D
102
{ACAD_REACTORS
330
13A
102
}
330
13A
100
AcDbScale
 70
     0
300
1/64" = 1'-0"
140
0.015625
141
12.0
290
     0
  0
SCALE
  5
14E
102
{ACAD_REACTORS
330
13A
102
}
330
13A
100
AcDbScale
 70
     0
300
1/32" = 1'-0"
140
0.03125
141
12.0
290
     0
  0
SCALE
  5
14F
102
{ACAD_REACTORS
330
13A
102
}
330
13A
100
AcDbScale
 70
     0
300
1/16" = 1'-0"
140
0.0625
141
12.0
290
     0
  0
SCALE
  5
150
102
{ACAD_REACTORS
330
13A
102
}
330
13A
100
AcDbScale
 70
     0
300
3/32" = 1'-0"
140
0.09375
141
12.0
290
     0
  0
SCALE
  5
151
102
{ACAD_REACTORS
330
13A
102
}
330
13A
100
AcDbScale
 70
     0
300
1/8" = 1'-0"
140
0.125
141
12.0
290
     0
  0
SCALE
  5
152
102
{ACAD_REACTORS
330
13A
102
}
330
13A
100
AcDbScale
 70
     0
300
3/16" = 1'-0"
140
0.1875
141
12.0
290
     0
  0
SCALE
  5
153
102
{ACAD_REACTORS
330
13A
102
}
330
13A
100
AcDbScale
 70
     0
300
1/4" = 1'-0"
140
0.25
141
12.0
290
     0
  0
SCALE
  5
154
102
{ACAD_REACTORS
330
13A
102
}
330
13A
100
AcDbScale
 70
     0
300
3/8" = 1'-0"
140
0.375
141
12.0
290
     0
  0
SCALE
  5
155
102
{ACAD_REACTORS
330
13A
102
}
330
13A
100
AcDbScale
 70
     0
300
1/2" = 1'-0"
140
0.5
141
12.0
290
     0
  0
SCALE
  5
156
102
{ACAD_REACTORS
330
13A
102
}
330
13A
100
AcDbScale
 70
     0
300
3/4" = 1'-0"
140
0.75
141
12.0
290
     0
  0
SCALE
  5
157
102
{ACAD_REACTORS
330
13A
102
}
330
13A
100
AcDbScale
 70
     0
300
1" = 1'-0"
140
1.0
141
12.0
290
     0
  0
SCALE
  5
158
102
{ACAD_REACTORS
330
13A
102
}
330
13A
100
AcDbScale
 70
     0
300
1-1/2" = 1'-0"
140
1.5
141
12.0
290
     0
  0
SCALE
  5
159
102
{ACAD_REACTORS
330
13A
102
}
330
13A
100
AcDbScale
 70
     0
300
3" = 1'-0"
140
3.0
141
12.0
290
     0
  0
SCALE
  5
15A
102
{ACAD_REACTORS
330
13A
102
}
330
13A
100
AcDbScale
 70
     0
300
6" = 1'-0"
140
6.0
141
12.0
290
     0
  0
SCALE
  5
15B
102
{ACAD_REACTORS
330
13A
102
}
330
13A
100
AcDbScale
 70
     0
300
1'-0" = 1'-0"
140
12.0
141
12.0
290
     0
  0
TABLESTYLE
  5
1C8
102
{ACAD_REACTORS
330
1C7
102
}
102
{ACAD_XDICTIONARY
360
260
102
}
330
1C7
100
AcDbTableStyle
  3
Standard
 70
     0
 71
     0
 40
0.06
 41
0.06
280
     0
281
     0
  7
Standard
140
0.18
170
     2
 62
     0
 63
   257
283
     0
 90
        4
 91
        0
  1

274
    -2
284
     1
 64
     0
275
    -2
285
     1
 65
     0
276
    -2
286
     1
 66
     0
277
    -2
287
     1
 67
     0
278
    -2
288
     1
 68
     0
279
    -2
289
     1
 69
     0
  7
Standard
140
0.25
170
     5
 62
     0
 63
   257
283
     0
 90
        4
 91
        0
  1

274
    -2
284
     1
 64
     0
275
    -2
285
     1
 65
     0
276
    -2
286
     1
 66
     0
277
    -2
287
     1
 67
     0
278
    -2
288
     1
 68
     0
279
    -2
289
     1
 69
     0
  7
Standard
140
0.18
170
     5
 62
     0
 63
   257
283
     0
 90
        4
 91
        0
  1

274
    -2
284
     1
 64
     0
275
    -2
285
     1
 65
     0
276
    -2
286
     1
 66
     0
277
    -2
287
     1
 67
     0
278
    -2
288
     1
 68
     0
279
    -2
289
     1
 69
     0
  0
VISUALSTYLE
  5
165
102
{ACAD_REACTORS
330
160
102
}
330
160
100
AcDbVisualStyle
  2
2dWireframe
 70
     4
177
     3
291
     0
 70
    58
 90
        0
176
     1
 90
        2
176
     1
 90
        0
176
     1
 90
        0
176
     1
 40
-0.6
176
     1
 40
-30.0
176
     1
 62
     7
176
     1
 90
        1
176
     1
 90
        4
176
     1
 62
     7
176
     1
 62
   257
176
     1
 90
        1
176
     1
 90
        1
176
     1
 40
1.0
176
     1
 90
        0
176
     1
 62
   257
176
     1
 40
1.0
176
     1
 90
        1
176
     1
 90
        6
176
     1
 90
        2
176
     1
 62
     7
176
     1
 90
        5
176
     1
 90
        0
176
     1
 90
        0
176
     1
290
     0
176
     1
 90
        1
176
     1
 40
0.0
176
     1
 90
        0
176
     1
290
     1
176
     1
290
     1
176
     1
290
     0
176
     1
290
     0
176
     1
290
     0
176
     1
290
     0
176
     1
290
     0
176
     1
290
     0
176
     1
290
     0
176
     1
 90
       50
176
     1
 40
0.0
176
     1
 40
1.0
176
     1
 90
        0
176
     1
 62
    18
420
        0
176
     1
 90
       50
176
     1
 90
        3
176
     1
 62
     5
420
      255
176
     1
290
     0
176
     1
 90
       50
176
     1
 90
       50
176
     1
 90
       50
176
     1
290
     0
176
     1
 90
       50
176
     1
 62
   256
176
     0
 40
1.0
176
     0
 90
        2
176
     1
  1
strokes_ogs.tif
176
     1
290
     0
176
     1
 40
1.0
176
     1
 40
1.0
176
     1
  0
VISUALSTYLE
  5
167
102
{ACAD_REACTORS
330
160
102
}
330
160
100
AcDbVisualStyle
  2
3D Hidden
 70
     6
177
     3
291
     0
 70
    58
 90
        1
176
     1
 90
        2
176
     1
 90
        2
176
     1
 90
        0
176
     1
 40
-0.6
176
     1
 40
-30.0
176
     1
 62
     7
176
     1
 90
        2
176
     1
 90
        2
176
     1
 62
     7
176
     1
 62
   257
176
     1
 90
        2
176
     1
 90
        1
176
     1
 40
40.0
176
     1
 90
        0
176
     1
 62
   257
176
     1
 40
1.0
176
     1
 90
        1
176
     1
 90
        6
176
     1
 90
        2
176
     1
 62
     7
176
     1
 90
        3
176
     1
 90
        0
176
     1
 90
        0
176
     1
290
     0
176
     1
 90
        1
176
     1
 40
0.0
176
     1
 90
        0
176
     1
290
     0
176
     1
290
     1
176
     1
290
     1
176
     1
290
     0
176
     1
290
     0
176
     1
290
     0
176
     1
290
     0
176
     1
290
     0
176
     1
290
     0
176
     1
 90
       50
176
     1
 40
0.0
176
     1
 40
1.0
176
     1
 90
        0
176
     1
 62
    18
420
        0
176
     1
 90
       50
176
     1
 90
        3
176
     1
 62
     5
420
      255
176
     1
290
     0
176
     1
 90
       50
176
     1
 90
       50
176
     1
 90
       50
176
     1
290
     0
176
     1
 90
       50
176
     1
 62
   256
176
     0
 40
1.0
176
     0
 90
        2
176
     1
  1
strokes_ogs.tif
176
     1
290
     0
176
     1
 40
1.0
176
     1
 40
1.0
176
     1
  0
VISUALSTYLE
  5
166
102
{ACAD_REACTORS
330
160
102
}
330
160
100
AcDbVisualStyle
  2
3dWireframe
 70
     5
177
     3
291
     0
 70
    58
 90
        0
176
     1
 90
        2
176
     1
 90
        0
176
     1
 90
        0
176
     1
 40
-0.6
176
     1
 40
-30.0
176
     1
 62
     7
176
     1
 90
        1
176
     1
 90
        4
176
     1
 62
     7
176
     1
 62
   257
176
     1
 90
        1
176
     1
 90
        1
176
     1
 40
1.0
176
     1
 90
        0
176
     1
 62
   257
176
     1
 40
1.0
176
     1
 90
        1
176
     1
 90
        6
176
     1
 90
        2
176
     1
 62
     7
176
     1
 90
        5
176
     1
 90
        0
176
     1
 90
        0
176
     1
290
     0
176
     1
 90
        1
176
     1
 40
0.0
176
     1
 90
        0
176
     1
290
     0
176
     1
290
     1
176
     1
290
     1
176
     1
290
     0
176
     1
290
     0
176
     1
290
     0
176
     1
290
     0
176
     1
290
     0
176
     1
290
     0
176
     1
 90
       50
176
     1
 40
0.0
176
     1
 40
1.0
176
     1
 90
        0
176
     1
 62
    18
420
        0
176
     1
 90
       50
176
     1
 90
        3
176
     1
 62
     5
420
      255
176
     1
290
     0
176
     1
 90
       50
176
     1
 90
       50
176
     1
 90
       50
176
     1
290
     0
176
     1
 90
       50
176
     1
 62
   256
176
     0
 40
1.0
176
     0
 90
        2
176
     1
  1
strokes_ogs.tif
176
     1
290
     0
176
     1
 40
1.0
176
     1
 40
1.0
176
     1
  0
VISUALSTYLE
  5
168
102
{ACAD_REACTORS
330
160
102
}
330
160
100
AcDbVisualStyle
  2
Basic
 70
     7
177
     3
291
     1
 70
    58
 90
        1
176
     1
 90
        0
176
     1
 90
        1
176
     1
 90
        0
176
     1
 40
-0.6
176
     1
 40
-30.0
176
     1
 62
     7
176
     1
 90
        0
176
     1
 90
        4
176
     1
 62
     7
176
     1
 62
   257
176
     1
 90
        1
176
     1
 90
        1
176
     1
 40
1.0
176
     1
 90
        8
176
     1
 62
     7
176
     1
 40
1.0
176
     1
 90
        1
176
     1
 90
        6
176
     1
 90
        2
176
     1
 62
     7
176
     1
 90
        5
176
     1
 90
        0
176
     1
 90
        0
176
     1
290
     0
176
     1
 90
        1
176
     1
 40
0.0
176
     1
 90
        0
176
     1
290
     0
176
     1
290
     1
176
     1
290
     1
176
     1
290
     0
176
     1
290
     0
176
     1
290
     0
176
     1
290
     0
176
     1
290
     0
176
     1
290
     0
176
     1
 90
       50
176
     1
 40
0.0
176
     1
 40
1.0
176
     1
 90
        0
176
     1
 62
    18
420
        0
176
     1
 90
       50
176
     1
 90
        3
176
     1
 62
     5
420
      255
176
     1
290
     0
176
     1
 90
       50
176
     1
 90
       50
176
     1
 90
       50
176
     1
290
     0
176
     1
 90
       50
176
     1
 62
   256
176
     0
 40
1.0
176
     0
 90
        2
176
     1
  1
strokes_ogs.tif
176
     1
290
     0
176
     1
 40
1.0
176
     1
 40
1.0
176
     1
  0
VISUALSTYLE
  5
16C
102
{ACAD_REACTORS
330
160
102
}
330
160
100
AcDbVisualStyle
  2
Brighten
 70
    12
177
     3
291
     1
 70
    58
 90
        2
176
     1
 90
        2
176
     1
 90
        0
176
     1
 90
        0
176
     1
 40
-0.6
176
     1
 40
-30.0
176
     1
 62
     7
176
     1
 90
        1
176
     1
 90
        4
176
     1
 62
     7
176
     1
 62
   257
176
     1
 90
        1
176
     1
 90
        1
176
     1
 40
1.0
176
     1
 90
        8
176
     1
 62
     7
176
     1
 40
1.0
176
     1
 90
        1
176
     1
 90
        6
176
     1
 90
        2
176
     1
 62
     7
176
     1
 90
        5
176
     1
 90
        0
176
     1
 90
        0
176
     1
290
     0
176
     1
 90
        1
176
     1
 40
50.0
176
     1
 90
        0
176
     1
290
     0
176
     1
290
     1
176
     1
290
     1
176
     1
290
     0
176
     1
290
     0
176
     1
290
     0
176
     1
290
     0
176
     1
290
     0
176
     1
290
     0
176
     1
 90
       50
176
     1
 40
0.0
176
     1
 40
1.0
176
     1
 90
        0
176
     1
 62
    18
420
        0
176
     1
 90
       50
176
     1
 90
        3
176
     1
 62
     5
420
      255
176
     1
290
     0
176
     1
 90
       50
176
     1
 90
       50
176
     1
 90
       50
176
     1
290
     0
176
     1
 90
       50
176
     1
 62
   256
176
     0
 40
1.0
176
     0
 90
        2
176
     1
  1
strokes_ogs.tif
176
     1
290
     0
176
     1
 40
1.0
176
     1
 40
1.0
176
     1
  0
VISUALSTYLE
  5
170
102
{ACAD_REACTORS
330
160
102
}
330
160
100
AcDbVisualStyle
  2
ColorChange
 70
    16
177
     3
291
     1
 70
    58
 90
        2
176
     1
 90
        2
176
     1
 90
        3
176
     1
 90
        0
176
     1
 40
-0.6
176
     1
 40
-30.0
176
     1
 62
     8
176
     1
 90
        1
176
     1
 90
        4
176
     1
 62
     7
176
     1
 62
   257
176
     1
 90
        1
176
     1
 90
        1
176
     1
 40
1.0
176
     1
 90
        8
176
     1
 62
     8
176
     1
 40
1.0
176
     1
 90
        1
176
     1
 90
        6
176
     1
 90
        2
176
     1
 62
     7
176
     1
 90
        5
176
     1
 90
        0
176
     1
 90
        0
176
     1
290
     0
176
     1
 90
        1
176
     1
 40
0.0
176
     1
 90
        0
176
     1
290
     0
176
     1
290
     1
176
     1
290
     1
176
     1
290
     0
176
     1
290
     0
176
     1
290
     0
176
     1
290
     0
176
     1
290
     0
176
     1
290
     0
176
     1
 90
       50
176
     1
 40
0.0
176
     1
 40
1.0
176
     1
 90
        0
176
     1
 62
    18
420
        0
176
     1
 90
       50
176
     1
 90
        3
176
     1
 62
     5
420
      255
176
     1
290
     0
176
     1
 90
       50
176
     1
 90
       50
176
     1
 90
       50
176
     1
290
     0
176
     1
 90
       50
176
     1
 62
   256
176
     0
 40
1.0
176
     0
 90
        2
176
     1
  1
strokes_ogs.tif
176
     1
290
     0
176
     1
 40
1.0
176
     1
 40
1.0
176
     1
  0
VISUALSTYLE
  5
16A
102
{ACAD_REACTORS
330
160
102
}
330
160
100
AcDbVisualStyle
  2
Conceptual
 70
     9
177
     3
291
     0
 70
    58
 90
        3
176
     1
 90
        2
176
     1
 90
        0
176
     1
 90
        0
176
     1
 40
-0.6
176
     1
 40
-30.0
176
     1
 62
     7
176
     1
 90
        2
176
     1
 90
        2
176
     1
 62
     7
176
     1
 62
   257
176
     1
 90
        1
176
     1
 90
        1
176
     1
 40
40.0
176
     1
 90
        8
176
     1
 62
     7
176
     1
 40
1.0
176
     1
 90
        1
176
     1
 90
        6
176
     1
 90
        2
176
     1
 62
     7
176
     1
 90
        3
176
     1
 90
        0
176
     1
 90
        0
176
     1
290
     0
176
     1
 90
        1
176
     1
 40
0.0
176
     1
 90
        0
176
     1
290
     0
176
     1
290
     1
176
     1
290
     1
176
     1
290
     0
176
     1
290
     0
176
     1
290
     0
176
     1
290
     0
176
     1
290
     0
176
     1
290
     0
176
     1
 90
       50
176
     1
 40
0.0
176
     1
 40
1.0
176
     1
 90
        0
176
     1
 62
    18
420
        0
176
     1
 90
       50
176
     1
 90
        3
176
     1
 62
     5
420
      255
176
     1
290
     0
176
     1
 90
       50
176
     1
 90
       50
176
     1
 90
       50
176
     1
290
     0
176
     1
 90
       50
176
     1
 62
   256
176
     0
 40
1.0
176
     0
 90
        2
176
     1
  1
strokes_ogs.tif
176
     1
290
     0
176
     1
 40
1.0
176
     1
 40
1.0
176
     1
  0
VISUALSTYLE
  5
16B
102
{ACAD_REACTORS
330
160
102
}
330
160
100
AcDbVisualStyle
  2
Dim
 70
    11
177
     3
291
     1
 70
    58
 90
        2
176
     1
 90
        2
176
     1
 90
        0
176
     1
 90
        0
176
     1
 40
-0.6
176
     1
 40
-30.0
176
     1
 62
     7
176
     1
 90
        1
176
     1
 90
        4
176
     1
 62
     7
176
     1
 62
   257
176
     1
 90
        1
176
     1
 90
        1
176
     1
 40
1.0
176
     1
 90
        8
176
     1
 62
     7
176
     1
 40
1.0
176
     1
 90
        1
176
     1
 90
        6
176
     1
 90
        2
176
     1
 62
     7
176
     1
 90
        5
176
     1
 90
        0
176
     1
 90
        0
176
     1
290
     0
176
     1
 90
        1
176
     1
 40
-50.0
176
     1
 90
        0
176
     1
290
     0
176
     1
290
     1
176
     1
290
     1
176
     1
290
     0
176
     1
290
     0
176
     1
290
     0
176
     1
290
     0
176
     1
290
     0
176
     1
290
     0
176
     1
 90
       50
176
     1
 40
0.0
176
     1
 40
1.0
176
     1
 90
        0
176
     1
 62
    18
420
        0
176
     1
 90
       50
176
     1
 90
        3
176
     1
 62
     5
420
      255
176
     1
290
     0
176
     1
 90
       50
176
     1
 90
       50
176
     1
 90
       50
176
     1
290
     0
176
     1
 90
       50
176
     1
 62
   256
176
     0
 40
1.0
176
     0
 90
        2
176
     1
  1
strokes_ogs.tif
176
     1
290
     0
176
     1
 40
1.0
176
     1
 40
1.0
176
     1
  0
VISUALSTYLE
  5
1C1
102
{ACAD_REACTORS
330
160
102
}
330
160
100
AcDbVisualStyle
  2
EdgeColorOff
 70
    22
177
     3
291
     1
 70
    58
 90
        2
176
     0
 90
        2
176
     0
 90
        0
176
     0
 90
        0
176
     0
 40
0.6
176
     0
 40
30.0
176
     0
 62
     7
420
 16777215
176
     0
 90
        1
176
     0
 90
        4
176
     0
 62
     7
176
     0
 62
   257
176
     0
 90
        1
176
     0
 90
        1
176
     0
 40
1.0
176
     0
 90
        8
176
     2
 62
     7
176
     0
 40
1.0
176
     0
 90
        1
176
     0
 90
        6
176
     0
 90
        2
176
     0
 62
     7
176
     0
 90
        5
176
     0
 90
        0
176
     0
 90
        0
176
     0
290
     0
176
     0
 90
        1
176
     0
 40
0.0
176
     0
 90
        0
176
     0
290
     0
176
     0
290
     1
176
     0
290
     1
176
     0
290
     0
176
     0
290
     0
176
     0
290
     0
176
     0
290
     0
176
     0
290
     0
176
     0
290
     0
176
     0
 90
       50
176
     0
 40
0.0
176
     0
 40
1.0
176
     0
 90
        0
176
     0
 62
    18
420
        0
176
     0
 90
       50
176
     0
 90
        3
176
     0
 62
     5
420
      255
176
     0
290
     0
176
     0
 90
       50
176
     0
 90
       50
176
     0
 90
       50
176
     0
290
     0
176
     0
 90
       50
176
     0
 62
   256
176
     0
 40
1.0
176
     0
 90
        2
176
     0
  1
strokes_ogs.tif
176
     0
290
     0
176
     0
 40
1.0
176
     0
 40
1.0
176
     0
  0
VISUALSTYLE
  5
16F
102
{ACAD_REACTORS
330
160
102
}
330
160
100
AcDbVisualStyle
  2
Facepattern
 70
    15
177
     3
291
     1
 70
    58
 90
        2
176
     1
 90
        2
176
     1
 90
        0
176
     1
 90
        0
176
     1
 40
-0.6
176
     1
 40
-30.0
176
     1
 62
     7
176
     1
 90
        1
176
     1
 90
        4
176
     1
 62
     7
176
     1
 62
   257
176
     1
 90
        1
176
     1
 90
        1
176
     1
 40
1.0
176
     1
 90
        8
176
     1
 62
     7
176
     1
 40
1.0
176
     1
 90
        1
176
     1
 90
        6
176
     1
 90
        2
176
     1
 62
     7
176
     1
 90
        5
176
     1
 90
        0
176
     1
 90
        0
176
     1
290
     0
176
     1
 90
        1
176
     1
 40
0.0
176
     1
 90
        0
176
     1
290
     0
176
     1
290
     1
176
     1
290
     1
176
     1
290
     0
176
     1
290
     0
176
     1
290
     0
176
     1
290
     0
176
     1
290
     0
176
     1
290
     0
176
     1
 90
       50
176
     1
 40
0.0
176
     1
 40
1.0
176
     1
 90
        0
176
     1
 62
    18
420
        0
176
     1
 90
       50
176
     1
 90
        3
176
     1
 62
     5
420
      255
176
     1
290
     0
176
     1
 90
       50
176
     1
 90
       50
176
     1
 90
       50
176
     1
290
     0
176
     1
 90
       50
176
     1
 62
   256
176
     0
 40
1.0
176
     0
 90
        2
176
     1
  1
strokes_ogs.tif
176
     1
290
     0
176
     1
 40
1.0
176
     1
 40
1.0
176
     1
  0
VISUALSTYLE
  5
161
102
{ACAD_REACTORS
330
160
102
}
330
160
100
AcDbVisualStyle
  2
Flat
 70
     0
177
     3
291
     1
 70
    58
 90
        2
176
     1
 90
        1
176
     1
 90
        1
176
     1
 90
        2
176
     1
 40
-0.6
176
     1
 40
30.0
176
     1
 62
     7
176
     1
 90
        0
176
     1
 90
        4
176
     1
 62
     7
176
     1
 62
   257
176
     1
 90
        1
176
     1
 90
        1
176
     1
 40
1.0
176
     1
 90
        8
176
     1
 62
     7
176
     1
 40
1.0
176
     1
 90
        1
176
     1
 90
        6
176
     1
 90
        2
176
     1
 62
     7
176
     1
 90
        5
176
     1
 90
        0
176
     1
 90
        0
176
     1
290
     0
176
     1
 90
       13
176
     1
 40
0.0
176
     1
 90
        0
176
     1
290
     0
176
     1
290
     1
176
     1
290
     1
176
     1
290
     0
176
     1
290
     0
176
     1
290
     0
176
     1
290
     0
176
     1
290
     0
176
     1
290
     0
176
     1
 90
       50
176
     1
 40
0.0
176
     1
 40
1.0
176
     1
 90
        0
176
     1
 62
    18
420
        0
176
     1
 90
       50
176
     1
 90
        3
176
     1
 62
     5
420
      255
176
     1
290
     0
176
     1
 90
       50
176
     1
 90
       50
176
     1
 90
       50
176
     1
290
     0
176
     1
 90
       50
176
     1
 62
   256
176
     0
 40
1.0
176
     0
 90
        2
176
     1
  1
strokes_ogs.tif
176
     1
290
     0
176
     1
 40
1.0
176
     1
 40
1.0
176
     1
  0
VISUALSTYLE
  5
162
102
{ACAD_REACTORS
330
160
102
}
330
160
100
AcDbVisualStyle
  2
FlatWithEdges
 70
     1
177
     3
291
     1
 70
    58
 90
        2
176
     1
 90
        1
176
     1
 90
        1
176
     1
 90
        2
176
     1
 40
-0.6
176
     1
 40
30.0
176
     1
 62
     7
176
     1
 90
        1
176
     1
 90
        4
176
     1
 62
     7
176
     1
 62
   257
176
     1
 90
        1
176
     1
 90
        1
176
     1
 40
1.0
176
     1
 90
        0
176
     1
 62
   257
176
     1
 40
1.0
176
     1
 90
        1
176
     1
 90
        6
176
     1
 90
        2
176
     1
 62
     7
176
     1
 90
        5
176
     1
 90
        0
176
     1
 90
        0
176
     1
290
     0
176
     1
 90
       13
176
     1
 40
0.0
176
     1
 90
        0
176
     1
290
     0
176
     1
290
     1
176
     1
290
     1
176
     1
290
     0
176
     1
290
     0
176
     1
290
     0
176
     1
290
     0
176
     1
290
     0
176
     1
290
     0
176
     1
 90
       50
176
     1
 40
0.0
176
     1
 40
1.0
176
     1
 90
        0
176
     1
 62
    18
420
        0
176
     1
 90
       50
176
     1
 90
        3
176
     1
 62
     5
420
      255
176
     1
290
     0
176
     1
 90
       50
176
     1
 90
       50
176
     1
 90
       50
176
     1
290
     0
176
     1
 90
       50
176
     1
 62
   256
176
     0
 40
1.0
176
     0
 90
        2
176
     1
  1
strokes_ogs.tif
176
     1
290
     0
176
     1
 40
1.0
176
     1
 40
1.0
176
     1
  0
VISUALSTYLE
  5
163
102
{ACAD_REACTORS
330
160
102
}
330
160
100
AcDbVisualStyle
  2
Gouraud
 70
     2
177
     3
291
     1
 70
    58
 90
        2
176
     1
 90
        2
176
     1
 90
        1
176
     1
 90
        2
176
     1
 40
-0.6
176
     1
 40
30.0
176
     1
 62
     7
176
     1
 90
        0
176
     1
 90
        4
176
     1
 62
     7
176
     1
 62
   257
176
     1
 90
        1
176
     1
 90
        1
176
     1
 40
1.0
176
     1
 90
        0
176
     1
 62
     7
176
     1
 40
1.0
176
     1
 90
        1
176
     1
 90
        6
176
     1
 90
        2
176
     1
 62
     7
176
     1
 90
        5
176
     1
 90
        0
176
     1
 90
        0
176
     1
290
     0
176
     1
 90
       13
176
     1
 40
0.0
176
     1
 90
        0
176
     1
290
     0
176
     1
290
     1
176
     1
290
     1
176
     1
290
     0
176
     1
290
     0
176
     1
290
     0
176
     1
290
     0
176
     1
290
     0
176
     1
290
     0
176
     1
 90
       50
176
     1
 40
0.0
176
     1
 40
1.0
176
     1
 90
        0
176
     1
 62
    18
420
        0
176
     1
 90
       50
176
     1
 90
        3
176
     1
 62
     5
420
      255
176
     1
290
     0
176
     1
 90
       50
176
     1
 90
       50
176
     1
 90
       50
176
     1
290
     0
176
     1
 90
       50
176
     1
 62
   256
176
     0
 40
1.0
176
     0
 90
        2
176
     1
  1
strokes_ogs.tif
176
     1
290
     0
176
     1
 40
1.0
176
     1
 40
1.0
176
     1
  0
VISUALSTYLE
  5
164
102
{ACAD_REACTORS
330
160
102
}
330
160
100
AcDbVisualStyle
  2
GouraudWithEdges
 70
     3
177
     3
291
     1
 70
    58
 90
        2
176
     1
 90
        2
176
     1
 90
        1
176
     1
 90
        2
176
     1
 40
-0.6
176
     1
 40
30.0
176
     1
 62
     7
176
     1
 90
        1
176
     1
 90
        4
176
     1
 62
     7
176
     1
 62
   257
176
     1
 90
        1
176
     1
 90
        1
176
     1
 40
1.0
176
     1
 90
        0
176
     1
 62
   257
176
     1
 40
1.0
176
     1
 90
        1
176
     1
 90
        6
176
     1
 90
        2
176
     1
 62
     7
176
     1
 90
        5
176
     1
 90
        0
176
     1
 90
        0
176
     1
290
     0
176
     1
 90
       13
176
     1
 40
0.0
176
     1
 90
        0
176
     1
290
     0
176
     1
290
     1
176
     1
290
     1
176
     1
290
     0
176
     1
290
     0
176
     1
290
     0
176
     1
290
     0
176
     1
290
     0
176
     1
290
     0
176
     1
 90
       50
176
     1
 40
0.0
176
     1
 40
1.0
176
     1
 90
        0
176
     1
 62
    18
420
        0
176
     1
 90
       50
176
     1
 90
        3
176
     1
 62
     5
420
      255
176
     1
290
     0
176
     1
 90
       50
176
     1
 90
       50
176
     1
 90
       50
176
     1
290
     0
176
     1
 90
       50
176
     1
 62
   256
176
     0
 40
1.0
176
     0
 90
        2
176
     1
  1
strokes_ogs.tif
176
     1
290
     0
176
     1
 40
1.0
176
     1
 40
1.0
176
     1
  0
VISUALSTYLE
  5
1BE
102
{ACAD_REACTORS
330
160
102
}
330
160
100
AcDbVisualStyle
  2
Hidden
 70
     6
177
     3
291
     0
 70
    58
 90
        1
176
     1
 90
        2
176
     1
 90
        2
176
     1
 90
        0
176
     1
 40
0.6
176
     1
 40
30.0
176
     1
 62
     7
420
 16777215
176
     1
 90
        2
176
     1
 90
        2
176
     1
 62
     7
176
     1
 62
   257
176
     1
 90
        2
176
     1
 90
        1
176
     1
 40
40.0
176
     1
 90
        0
176
     1
 62
   257
176
     1
 40
1.0
176
     1
 90
        1
176
     1
 90
        6
176
     1
 90
        2
176
     1
 62
     7
176
     1
 90
        3
176
     1
 90
        0
176
     1
 90
        0
176
     1
290
     0
176
     1
 90
        1
176
     1
 40
0.0
176
     1
 90
        0
176
     1
290
     0
176
     1
290
     1
176
     1
290
     1
176
     1
290
     0
176
     1
290
     0
176
     1
290
     0
176
     1
290
     0
176
     1
290
     0
176
     1
290
     0
176
     1
 90
       50
176
     1
 40
0.0
176
     1
 40
1.0
176
     1
 90
        0
176
     1
 62
    18
420
        0
176
     1
 90
       50
176
     1
 90
        3
176
     1
 62
     5
420
      255
176
     1
290
     0
176
     1
 90
       50
176
     1
 90
       50
176
     1
 90
       50
176
     1
290
     0
176
     1
 90
       50
176
     1
 62
   256
176
     0
 40
1.0
176
     0
 90
        2
176
     1
  1
strokes_ogs.tif
176
     1
290
     0
176
     1
 40
1.0
176
     1
 40
1.0
176
     1
  0
VISUALSTYLE
  5
1BF
102
{ACAD_REACTORS
330
160
102
}
330
160
100
AcDbVisualStyle
  2
JitterOff
 70
    20
177
     3
291
     1
 70
    58
 90
        2
176
     0
 90
        2
176
     0
 90
        0
176
     0
 90
        0
176
     0
 40
0.6
176
     0
 40
30.0
176
     0
 62
     7
420
 16777215
176
     0
 90
        1
176
     0
 90
        4
176
     0
 62
     7
176
     0
 62
   257
176
     0
 90
        1
176
     0
 90
        1
176
     0
 40
1.0
176
     0
 90
       10
176
     2
 62
     7
176
     0
 40
1.0
176
     0
 90
        1
176
     0
 90
        6
176
     0
 90
        2
176
     0
 62
     7
176
     0
 90
        5
176
     0
 90
        0
176
     0
 90
        0
176
     0
290
     0
176
     0
 90
        1
176
     0
 40
0.0
176
     0
 90
        0
176
     0
290
     0
176
     0
290
     1
176
     0
290
     1
176
     0
290
     0
176
     0
290
     0
176
     0
290
     0
176
     0
290
     0
176
     0
290
     0
176
     0
290
     0
176
     0
 90
       50
176
     0
 40
0.0
176
     0
 40
1.0
176
     0
 90
        0
176
     0
 62
    18
420
        0
176
     0
 90
       50
176
     0
 90
        3
176
     0
 62
     5
420
      255
176
     0
290
     0
176
     0
 90
       50
176
     0
 90
       50
176
     0
 90
       50
176
     0
290
     0
176
     0
 90
       50
176
     0
 62
   256
176
     0
 40
1.0
176
     0
 90
        2
176
     0
  1
strokes_ogs.tif
176
     0
290
     0
176
     0
 40
1.0
176
     0
 40
1.0
176
     0
  0
VISUALSTYLE
  5
16E
102
{ACAD_REACTORS
330
160
102
}
330
160
100
AcDbVisualStyle
  2
Linepattern
 70
    14
177
     3
291
     1
 70
    58
 90
        2
176
     1
 90
        2
176
     1
 90
        0
176
     1
 90
        0
176
     1
 40
-0.6
176
     1
 40
-30.0
176
     1
 62
     7
176
     1
 90
        1
176
     1
 90
        4
176
     1
 62
     7
176
     1
 62
   257
176
     1
 90
        7
176
     1
 90
        7
176
     1
 40
1.0
176
     1
 90
        8
176
     1
 62
     7
176
     1
 40
1.0
176
     1
 90
        1
176
     1
 90
        6
176
     1
 90
        2
176
     1
 62
     7
176
     1
 90
        5
176
     1
 90
        0
176
     1
 90
        0
176
     1
290
     0
176
     1
 90
        1
176
     1
 40
0.0
176
     1
 90
        0
176
     1
290
     0
176
     1
290
     1
176
     1
290
     1
176
     1
290
     0
176
     1
290
     0
176
     1
290
     0
176
     1
290
     0
176
     1
290
     0
176
     1
290
     0
176
     1
 90
       50
176
     1
 40
0.0
176
     1
 40
1.0
176
     1
 90
        0
176
     1
 62
    18
420
        0
176
     1
 90
       50
176
     1
 90
        3
176
     1
 62
     5
420
      255
176
     1
290
     0
176
     1
 90
       50
176
     1
 90
       50
176
     1
 90
       50
176
     1
290
     0
176
     1
 90
       50
176
     1
 62
   256
176
     0
 40
1.0
176
     0
 90
        2
176
     1
  1
strokes_ogs.tif
176
     1
290
     0
176
     1
 40
1.0
176
     1
 40
1.0
176
     1
  0
VISUALSTYLE
  5
1C0
102
{ACAD_REACTORS
330
160
102
}
330
160
100
AcDbVisualStyle
  2
OverhangOff
 70
    21
177
     3
291
     1
 70
    58
 90
        2
176
     0
 90
        2
176
     0
 90
        0
176
     0
 90
        0
176
     0
 40
0.6
176
     0
 40
30.0
176
     0
 62
     7
420
 16777215
176
     0
 90
        1
176
     0
 90
        4
176
     0
 62
     7
176
     0
 62
   257
176
     0
 90
        1
176
     0
 90
        1
176
     0
 40
1.0
176
     0
 90
        9
176
     2
 62
     7
176
     0
 40
1.0
176
     0
 90
        1
176
     0
 90
        6
176
     0
 90
        2
176
     0
 62
     7
176
     0
 90
        5
176
     0
 90
        0
176
     0
 90
        0
176
     0
290
     0
176
     0
 90
        1
176
     0
 40
0.0
176
     0
 90
        0
176
     0
290
     0
176
     0
290
     1
176
     0
290
     1
176
     0
290
     0
176
     0
290
     0
176
     0
290
     0
176
     0
290
     0
176
     0
290
     0
176
     0
290
     0
176
     0
 90
       50
176
     0
 40
0.0
176
     0
 40
1.0
176
     0
 90
        0
176
     0
 62
    18
420
        0
176
     0
 90
       50
176
     0
 90
        3
176
     0
 62
     5
420
      255
176
     0
290
     0
176
     0
 90
       50
176
     0
 90
       50
176
     0
 90
       50
176
     0
290
     0
176
     0
 90
       50
176
     0
 62
   256
176
     0
 40
1.0
176
     0
 90
        2
176
     0
  1
strokes_ogs.tif
176
     0
290
     0
176
     0
 40
1.0
176
     0
 40
1.0
176
     0
  0
VISUALSTYLE
  5
169
102
{ACAD_REACTORS
330
160
102
}
330
160
100
AcDbVisualStyle
  2
Realistic
 70
     8
177
     3
291
     0
 70
    58
 90
        2
176
     1
 90
        2
176
     1
 90
        0
176
     1
 90
        0
176
     1
 40
-0.6
176
     1
 40
-30.0
176
     1
 62
     7
176
     1
 90
        1
176
     1
 90
        0
176
     1
 62
     7
176
     1
 62
   257
176
     1
 90
        1
176
     1
 90
        1
176
     1
 40
1.0
176
     1
 90
        8
176
     1
 62
     8
176
     1
 40
1.0
176
     1
 90
        1
176
     1
 90
        6
176
     1
 90
        2
176
     1
 62
     7
176
     1
 90
        5
176
     1
 90
        0
176
     1
 90
        0
176
     1
290
     0
176
     1
 90
       13
176
     1
 40
0.0
176
     1
 90
        0
176
     1
290
     0
176
     1
290
     1
176
     1
290
     1
176
     1
290
     0
176
     1
290
     0
176
     1
290
     0
176
     1
290
     0
176
     1
290
     0
176
     1
290
     0
176
     1
 90
       50
176
     1
 40
0.0
176
     1
 40
1.0
176
     1
 90
        0
176
     1
 62
    18
420
        0
176
     1
 90
       50
176
     1
 90
        3
176
     1
 62
     5
420
      255
176
     1
290
     0
176
     1
 90
       50
176
     1
 90
       50
176
     1
 90
       50
176
     1
290
     0
176
     1
 90
       50
176
     1
 62
   256
176
     0
 40
1.0
176
     0
 90
        2
176
     1
  1
strokes_ogs.tif
176
     1
290
     0
176
     1
 40
1.0
176
     1
 40
1.0
176
     1
  0
VISUALSTYLE
  5
1C6
102
{ACAD_REACTORS
330
160
102
}
330
160
100
AcDbVisualStyle
  2
Shaded
 70
    27
177
     3
291
     0
 70
    58
 90
        2
176
     1
 90
        2
176
     1
 90
        1
176
     1
 90
        2
176
     1
 40
0.6
176
     1
 40
30.0
176
     1
 62
     7
420
 16777215
176
     1
 90
        0
176
     1
 90
        4
176
     1
 62
     7
176
     1
 62
   257
176
     1
 90
        1
176
     1
 90
        1
176
     1
 40
1.0
176
     1
 90
        8
176
     1
 62
   257
176
     1
 40
1.0
176
     1
 90
        1
176
     1
 90
        6
176
     1
 90
        2
176
     1
 62
     8
420
  7895160
176
     1
 90
        3
176
     1
 90
        0
176
     1
 90
        0
176
     1
290
     0
176
     1
 90
        5
176
     1
 40
0.0
176
     1
 90
        0
176
     1
290
     0
176
     1
290
     1
176
     1
290
     1
176
     1
290
     0
176
     1
290
     0
176
     1
290
     0
176
     1
290
     0
176
     1
290
     0
176
     1
290
     0
176
     1
 90
       50
176
     1
 40
0.0
176
     1
 40
1.0
176
     1
 90
        0
176
     1
 62
    18
420
        0
176
     1
 90
       50
176
     1
 90
        3
176
     1
 62
     5
420
      255
176
     1
290
     0
176
     1
 90
       50
176
     1
 90
       50
176
     1
 90
       50
176
     1
290
     0
176
     1
 90
       50
176
     1
 62
   256
176
     0
 40
1.0
176
     0
 90
        2
176
     1
  1
strokes_ogs.tif
176
     1
290
     0
176
     1
 40
1.0
176
     1
 40
1.0
176
     1
  0
VISUALSTYLE
  5
1C5
102
{ACAD_REACTORS
330
160
102
}
330
160
100
AcDbVisualStyle
  2
Shaded with edges
 70
    26
177
     3
291
     0
 70
    58
 90
        2
176
     1
 90
        2
176
     1
 90
        1
176
     1
 90
        2
176
     1
 40
0.6
176
     1
 40
30.0
176
     1
 62
     7
420
 16777215
176
     1
 90
        1
176
     1
 90
       10
176
     1
 62
     7
176
     1
 62
   257
176
     1
 90
        2
176
     1
 90
        1
176
     1
 40
1.0
176
     1
 90
        8
176
     1
 62
   257
176
     1
 40
1.0
176
     1
 90
        1
176
     1
 90
        6
176
     1
 90
        2
176
     1
 62
     7
176
     1
 90
        3
176
     1
 90
        0
176
     1
 90
        0
176
     1
290
     0
176
     1
 90
        5
176
     1
 40
0.0
176
     1
 90
        0
176
     1
290
     0
176
     1
290
     1
176
     1
290
     1
176
     1
290
     0
176
     1
290
     0
176
     1
290
     0
176
     1
290
     0
176
     1
290
     0
176
     1
290
     0
176
     1
 90
       50
176
     1
 40
0.0
176
     1
 40
1.0
176
     1
 90
        0
176
     1
 62
    18
420
        0
176
     1
 90
       50
176
     1
 90
        3
176
     1
 62
     5
420
      255
176
     1
290
     0
176
     1
 90
       50
176
     1
 90
       50
176
     1
 90
       50
176
     1
290
     0
176
     1
 90
       50
176
     1
 62
   256
176
     0
 40
1.0
176
     0
 90
        2
176
     1
  1
strokes_ogs.tif
176
     1
290
     0
176
     1
 40
1.0
176
     1
 40
1.0
176
     1
  0
VISUALSTYLE
  5
1C2
102
{ACAD_REACTORS
330
160
102
}
330
160
100
AcDbVisualStyle
  2
Shades of Gray
 70
    23
177
     3
291
     0
 70
    58
 90
        2
176
     1
 90
        2
176
     1
 90
        3
176
     1
 90
        0
176
     1
 40
0.6
176
     1
 40
30.0
176
     1
 62
     7
420
 16777215
176
     1
 90
        2
176
     1
 90
        2
176
     1
 62
     7
176
     1
 62
     7
176
     1
 90
        1
176
     1
 90
        1
176
     1
 40
40.0
176
     1
 90
        8
176
     1
 62
     7
176
     1
 40
1.0
176
     1
 90
        1
176
     1
 90
        6
176
     1
 90
        2
176
     1
 62
     7
176
     1
 90
        3
176
     1
 90
        0
176
     1
 90
        0
176
     1
290
     0
176
     1
 90
        1
176
     1
 40
0.0
176
     1
 90
        0
176
     1
290
     0
176
     1
290
     1
176
     1
290
     1
176
     1
290
     0
176
     1
290
     0
176
     1
290
     0
176
     1
290
     0
176
     1
290
     0
176
     1
290
     0
176
     1
 90
       50
176
     1
 40
0.0
176
     1
 40
1.0
176
     1
 90
        0
176
     1
 62
    18
420
        0
176
     1
 90
       50
176
     1
 90
        3
176
     1
 62
     5
420
      255
176
     1
290
     0
176
     1
 90
       50
176
     1
 90
       50
176
     1
 90
       50
176
     1
290
     0
176
     1
 90
       50
176
     1
 62
   256
176
     0
 40
1.0
176
     0
 90
        2
176
     1
  1
strokes_ogs.tif
176
     1
290
     0
176
     1
 40
1.0
176
     1
 40
1.0
176
     1
  0
VISUALSTYLE
  5
1C3
102
{ACAD_REACTORS
330
160
102
}
330
160
100
AcDbVisualStyle
  2
Sketchy
 70
    24
177
     3
291
     0
 70
    58
 90
        1
176
     1
 90
        2
176
     1
 90
        2
176
     1
 90
        0
176
     1
 40
0.6
176
     1
 40
30.0
176
     1
 62
     7
420
 16777215
176
     1
 90
        2
176
     1
 90
        2
176
     1
 62
     7
176
     1
 62
     7
176
     1
 90
        1
176
     1
 90
        1
176
     1
 40
40.0
176
     1
 90
       11
176
     1
 62
     7
176
     1
 40
1.0
176
     1
 90
        1
176
     1
 90
        6
176
     1
 90
        2
176
     1
 62
     7
176
     1
 90
        6
176
     1
 90
        0
176
     1
 90
        0
176
     1
290
     0
176
     1
 90
        1
176
     1
 40
0.0
176
     1
 90
        0
176
     1
290
     0
176
     1
290
     1
176
     1
290
     1
176
     1
290
     0
176
     1
290
     0
176
     1
290
     0
176
     1
290
     0
176
     1
290
     0
176
     1
290
     0
176
     1
 90
       50
176
     1
 40
0.0
176
     1
 40
1.0
176
     1
 90
        0
176
     1
 62
    18
420
        0
176
     1
 90
       50
176
     1
 90
        3
176
     1
 62
     5
420
      255
176
     1
290
     0
176
     1
 90
       50
176
     1
 90
       50
176
     1
 90
       50
176
     1
290
     0
176
     1
 90
       50
176
     1
 62
   256
176
     0
 40
1.0
176
     0
 90
        2
176
     1
  1
strokes_ogs.tif
176
     1
290
     0
176
     1
 40
1.0
176
     1
 40
1.0
176
     1
  0
VISUALSTYLE
  5
16D
102
{ACAD_REACTORS
330
160
102
}
330
160
100
AcDbVisualStyle
  2
Thicken
 70
    13
177
     3
291
     1
 70
    58
 90
        2
176
     1
 90
        2
176
     1
 90
        0
176
     1
 90
        0
176
     1
 40
-0.6
176
     1
 40
-30.0
176
     1
 62
     7
176
     1
 90
        1
176
     1
 90
        4
176
     1
 62
     7
176
     1
 62
   257
176
     1
 90
        1
176
     1
 90
        1
176
     1
 40
1.0
176
     1
 90
       12
176
     1
 62
     7
176
     1
 40
1.0
176
     1
 90
        1
176
     1
 90
        6
176
     1
 90
        2
176
     1
 62
     7
176
     1
 90
        5
176
     1
 90
        0
176
     1
 90
        0
176
     1
290
     0
176
     1
 90
        1
176
     1
 40
0.0
176
     1
 90
        0
176
     1
290
     0
176
     1
290
     1
176
     1
290
     1
176
     1
290
     0
176
     1
290
     0
176
     1
290
     0
176
     1
290
     0
176
     1
290
     0
176
     1
290
     0
176
     1
 90
       50
176
     1
 40
0.0
176
     1
 40
1.0
176
     1
 90
        0
176
     1
 62
    18
420
        0
176
     1
 90
       50
176
     1
 90
        3
176
     1
 62
     5
420
      255
176
     1
290
     0
176
     1
 90
       50
176
     1
 90
       50
176
     1
 90
       50
176
     1
290
     0
176
     1
 90
       50
176
     1
 62
   256
176
     0
 40
1.0
176
     0
 90
        2
176
     1
  1
strokes_ogs.tif
176
     1
290
     0
176
     1
 40
1.0
176
     1
 40
1.0
176
     1
  0
VISUALSTYLE
  5
1BD
102
{ACAD_REACTORS
330
160
102
}
330
160
100
AcDbVisualStyle
  2
Wireframe
 70
     5
177
     3
291
     0
 70
    58
 90
        0
176
     1
 90
        2
176
     1
 90
        0
176
     1
 90
        0
176
     1
 40
0.6
176
     1
 40
30.0
176
     1
 62
     7
420
 16777215
176
     1
 90
        1
176
     1
 90
        4
176
     1
 62
     7
176
     1
 62
   257
176
     1
 90
        1
176
     1
 90
        1
176
     1
 40
1.0
176
     1
 90
        0
176
     1
 62
   257
176
     1
 40
1.0
176
     1
 90
        1
176
     1
 90
        6
176
     1
 90
        2
176
     1
 62
     7
176
     1
 90
        3
176
     1
 90
        0
176
     1
 90
        0
176
     1
290
     0
176
     1
 90
        1
176
     1
 40
0.0
176
     1
 90
        0
176
     1
290
     0
176
     1
290
     1
176
     1
290
     1
176
     1
290
     0
176
     1
290
     0
176
     1
290
     0
176
     1
290
     0
176
     1
290
     0
176
     1
290
     0
176
     1
 90
       50
176
     1
 40
0.0
176
     1
 40
1.0
176
     1
 90
        0
176
     1
 62
    18
420
        0
176
     1
 90
       50
176
     1
 90
        3
176
     1
 62
     5
420
      255
176
     1
290
     0
176
     1
 90
       50
176
     1
 90
       50
176
     1
 90
       50
176
     1
290
     0
176
     1
 90
       50
176
     1
 62
   256
176
     0
 40
1.0
176
     0
 90
        2
176
     1
  1
strokes_ogs.tif
176
     1
290
     0
176
     1
 40
1.0
176
     1
 40
1.0
176
     1
  0
VISUALSTYLE
  5
1C4
102
{ACAD_REACTORS
330
160
102
}
330
160
100
AcDbVisualStyle
  2
X-Ray
 70
    25
177
     3
291
     0
 70
    58
 90
        2
176
     1
 90
        2
176
     1
 90
        1
176
     1
 90
        1
176
     1
 40
0.5
176
     1
 40
30.0
176
     1
 62
     7
420
 16777215
176
     1
 90
        1
176
     1
 90
        0
176
     1
 62
     7
176
     1
 62
   257
176
     1
 90
        1
176
     1
 90
        1
176
     1
 40
1.0
176
     1
 90
        8
176
     1
 62
     7
176
     1
 40
1.0
176
     1
 90
        1
176
     1
 90
        6
176
     1
 90
        2
176
     1
 62
     7
176
     1
 90
        3
176
     1
 90
        0
176
     1
 90
        0
176
     1
290
     0
176
     1
 90
       13
176
     1
 40
0.0
176
     1
 90
        0
176
     1
290
     0
176
     1
290
     1
176
     1
290
     1
176
     1
290
     0
176
     1
290
     0
176
     1
290
     0
176
     1
290
     0
176
     1
290
     0
176
     1
290
     0
176
     1
 90
       50
176
     1
 40
0.0
176
     1
 40
1.0
176
     1
 90
        0
176
     1
 62
    18
420
        0
176
     1
 90
       50
176
     1
 90
        3
176
     1
 62
     5
420
      255
176
     1
290
     0
176
     1
 90
       50
176
     1
 90
       50
176
     1
 90
       50
176
     1
290
     0
176
     1
 90
       50
176
     1
 62
   256
176
     0
 40
1.0
176
     0
 90
        2
176
     1
  1
strokes_ogs.tif
176
     1
290
     0
176
     1
 40
1.0
176
     1
 40
1.0
176
     1
  0
DICTIONARYVAR
  5
1F8
102
{ACAD_REACTORS
330
17C
102
}
330
17C
100
DictionaryVariables
280
     0
  1
1:1
  0
DICTIONARYVAR
  5
1FA
102
{ACAD_REACTORS
330
17C
102
}
330
17C
100
DictionaryVariables
280
     0
  1
Standard
  0
DICTIONARYVAR
  5
1F9
102
{ACAD_REACTORS
330
17C
102
}
330
17C
100
DictionaryVariables
280
     0
  1
Standard
  0
DICTIONARYVAR
  5
180
102
{ACAD_REACTORS
330
17C
102
}
330
17C
100
DictionaryVariables
280
     0
  1
2
  0
DICTIONARYVAR
  5
181
102
{ACAD_REACTORS
330
17C
102
}
330
17C
100
DictionaryVariables
280
     0
  1
1
  0
DICTIONARYVAR
  5
17F
102
{ACAD_REACTORS
330
17C
102
}
330
17C
100
DictionaryVariables
280
     0
  1
0
  0
DICTIONARY
  5
260
330
1C8
100
AcDbDictionary
280
     1
281
     1
  3
ACAD_ROUNDTRIP_2008_TABLESTYLE_CELLSTYLEMAP
360
261
  0
CELLSTYLEMAP
  5
261
102
{ACAD_REACTORS
330
260
102
}
330
260
100
AcDbCellStyleMap
 90
        3
300
CELLSTYLE
  1
TABLEFORMAT_BEGIN
 90
        5
170
     1
 91
        0
 92
    32768
 62
   257
 93
        1
300
CONTENTFORMAT
  1
CONTENTFORMAT_BEGIN
 90
        0
 91
        0
 92
        4
 93
        0
300

 40
0.0
140
1.0
 94
        5
 62
     0
340
11
144
0.25
309
CONTENTFORMAT_END
171
     1
301
MARGIN
  1
CELLMARGIN_BEGIN
 40
0.06
 40
0.06
 40
0.06
 40
0.06
 40
0.06
 40
0.06
309
CELLMARGIN_END
 94
        6
 95
        1
302
GRIDFORMAT
  1
GRIDFORMAT_BEGIN
 90
        0
 91
        1
 62
     0
 92
       -2
340
14
 93
        0
 40
0.045
309
GRIDFORMAT_END
 95
        2
302
GRIDFORMAT
  1
GRIDFORMAT_BEGIN
 90
        0
 91
        1
 62
     0
 92
       -2
340
14
 93
        0
 40
0.045
309
GRIDFORMAT_END
 95
        4
302
GRIDFORMAT
  1
GRIDFORMAT_BEGIN
 90
        0
 91
        1
 62
     0
 92
       -2
340
14
 93
        0
 40
0.045
309
GRIDFORMAT_END
 95
        8
302
GRIDFORMAT
  1
GRIDFORMAT_BEGIN
 90
        0
 91
        1
 62
     0
 92
       -2
340
14
 93
        0
 40
0.045
309
GRIDFORMAT_END
 95
       16
302
GRIDFORMAT
  1
GRIDFORMAT_BEGIN
 90
        0
 91
        1
 62
     0
 92
       -2
340
14
 93
        0
 40
0.045
309
GRIDFORMAT_END
 95
       32
302
GRIDFORMAT
  1
GRIDFORMAT_BEGIN
 90
        0
 91
        1
 62
     0
 92
       -2
340
14
 93
        0
 40
0.045
309
GRIDFORMAT_END
309
TABLEFORMAT_END
  1
CELLSTYLE_BEGIN
 90
        1
 91
        1
300
_TITLE
309
CELLSTYLE_END
300
CELLSTYLE
  1
TABLEFORMAT_BEGIN
 90
        5
170
     1
 91
        0
 92
        0
 62
   257
 93
        1
300
CONTENTFORMAT
  1
CONTENTFORMAT_BEGIN
 90
        0
 91
        0
 92
        4
 93
        0
300

 40
0.0
140
1.0
 94
        5
 62
     0
340
11
144
0.18
309
CONTENTFORMAT_END
171
     1
301
MARGIN
  1
CELLMARGIN_BEGIN
 40
0.06
 40
0.06
 40
0.06
 40
0.06
 40
0.06
 40
0.06
309
CELLMARGIN_END
 94
        6
 95
        1
302
GRIDFORMAT
  1
GRIDFORMAT_BEGIN
 90
        0
 91
        1
 62
     0
 92
       -2
340
14
 93
        0
 40
0.045
309
GRIDFORMAT_END
 95
        2
302
GRIDFORMAT
  1
GRIDFORMAT_BEGIN
 90
        0
 91
        1
 62
     0
 92
       -2
340
14
 93
        0
 40
0.045
309
GRIDFORMAT_END
 95
        4
302
GRIDFORMAT
  1
GRIDFORMAT_BEGIN
 90
        0
 91
        1
 62
     0
 92
       -2
340
14
 93
        0
 40
0.045
309
GRIDFORMAT_END
 95
        8
302
GRIDFORMAT
  1
GRIDFORMAT_BEGIN
 90
        0
 91
        1
 62
     0
 92
       -2
340
14
 93
        0
 40
0.045
309
GRIDFORMAT_END
 95
       16
302
GRIDFORMAT
  1
GRIDFORMAT_BEGIN
 90
        0
 91
        1
 62
     0
 92
       -2
340
14
 93
        0
 40
0.045
309
GRIDFORMAT_END
 95
       32
302
GRIDFORMAT
  1
GRIDFORMAT_BEGIN
 90
        0
 91
        1
 62
     0
 92
       -2
340
14
 93
        0
 40
0.045
309
GRIDFORMAT_END
309
TABLEFORMAT_END
  1
CELLSTYLE_BEGIN
 90
        2
 91
        1
300
_HEADER
309
CELLSTYLE_END
300
CELLSTYLE
  1
TABLEFORMAT_BEGIN
 90
        5
170
     1
 91
        0
 92
        0
 62
   257
 93
        1
300
CONTENTFORMAT
  1
CONTENTFORMAT_BEGIN
 90
        0
 91
        0
 92
        4
 93
        0
300

 40
0.0
140
1.0
 94
        2
 62
     0
340
11
144
0.18
309
CONTENTFORMAT_END
171
     1
301
MARGIN
  1
CELLMARGIN_BEGIN
 40
0.06
 40
0.06
 40
0.06
 40
0.06
 40
0.06
 40
0.06
309
CELLMARGIN_END
 94
        6
 95
        1
302
GRIDFORMAT
  1
GRIDFORMAT_BEGIN
 90
        0
 91
        1
 62
     0
 92
       -2
340
14
 93
        0
 40
0.045
309
GRIDFORMAT_END
 95
        2
302
GRIDFORMAT
  1
GRIDFORMAT_BEGIN
 90
        0
 91
        1
 62
     0
 92
       -2
340
14
 93
        0
 40
0.045
309
GRIDFORMAT_END
 95
        4
302
GRIDFORMAT
  1
GRIDFORMAT_BEGIN
 90
        0
 91
        1
 62
     0
 92
       -2
340
14
 93
        0
 40
0.045
309
GRIDFORMAT_END
 95
        8
302
GRIDFORMAT
  1
GRIDFORMAT_BEGIN
 90
        0
 91
        1
 62
     0
 92
       -2
340
14
 93
        0
 40
0.045
309
GRIDFORMAT_END
 95
       16
302
GRIDFORMAT
  1
GRIDFORMAT_BEGIN
 90
        0
 91
        1
 62
     0
 92
       -2
340
14
 93
        0
 40
0.045
309
GRIDFORMAT_END
 95
       32
302
GRIDFORMAT
  1
GRIDFORMAT_BEGIN
 90
        0
 91
        1
 62
     0
 92
       -2
340
14
 93
        0
 40
0.045
309
GRIDFORMAT_END
309
TABLEFORMAT_END
  1
CELLSTYLE_BEGIN
 90
        3
 91
        2
300
_DATA
309
CELLSTYLE_END
  0
ENDSEC
  0
EOF
