  0
SECTION
  2
HEADER
  9
$ACADVER
  1
AC1027
  9
$ACADMAINTVER
 70
   105
  9
$DWGCODEPAGE
  3
ANSI_1252
  9
$REQUIREDVERSIONS
160
                 0
  9
$LASTSAVEDBY
  1
matthias.ochs
  9
$INSBASE
 10
0.0
 20
0.0
 30
0.0
  9
$EXTMIN
 10
-107.2554468019729
 20
-95.61203819934795
 30
0.0
  9
$EXTMAX
 10
191.6358996536342
 20
75.38161581944138
 30
0.0
  9
$LIMMIN
 10
-106.271521223
 20
-87.24018141
  9
$LIMMAX
 10
189.271521221
 20
65.029135489
  9
$ORTHOMODE
 70
     0
  9
$REGENMODE
 70
     1
  9
$FILLMODE
 70
     1
  9
$QTEXTMODE
 70
     0
  9
$MIRRTEXT
 70
     1
  9
$LTSCALE
 40
1.0
  9
$ATTMODE
 70
     1
  9
$TEXTSIZE
 40
0.2
  9
$TRACEWID
 40
0.05
  9
$TEXTSTYLE
  7
Standard
  9
$CLAYER
  8
SK6
  9
$CELTYPE
  6
ByLayer
  9
$CECOLOR
 62
   256
  9
$CELTSCALE
 40
1.0
  9
$DISPSILH
 70
     0
  9
$DIMSCALE
 40
1.0
  9
$DIMASZ
 40
0.18
  9
$DIMEXO
 40
0.0625
  9
$DIMDLI
 40
0.38
  9
$DIMRND
 40
0.0
  9
$DIMDLE
 40
0.0
  9
$DIMEXE
 40
0.18
  9
$DIMTP
 40
0.0
  9
$DIMTM
 40
0.0
  9
$DIMTXT
 40
0.18
  9
$DIMCEN
 40
0.09
  9
$DIMTSZ
 40
0.0
  9
$DIMTOL
 70
     0
  9
$DIMLIM
 70
     0
  9
$DIMTIH
 70
     1
  9
$DIMTOH
 70
     1
  9
$DIMSE1
 70
     0
  9
$DIMSE2
 70
     0
  9
$DIMTAD
 70
     0
  9
$DIMZIN
 70
     0
  9
$DIMBLK
  1

  9
$DIMASO
 70
     1
  9
$DIMSHO
 70
     1
  9
$DIMPOST
  1

  9
$DIMAPOST
  1

  9
$DIMALT
 70
     0
  9
$DIMALTD
 70
     2
  9
$DIMALTF
 40
25.4
  9
$DIMLFAC
 40
1.0
  9
$DIMTOFL
 70
     0
  9
$DIMTVP
 40
0.0
  9
$DIMTIX
 70
     0
  9
$DIMSOXD
 70
     0
  9
$DIMSAH
 70
     0
  9
$DIMBLK1
  1

  9
$DIMBLK2
  1

  9
$DIMSTYLE
  2
Standard
  9
$DIMCLRD
 70
     0
  9
$DIMCLRE
 70
     0
  9
$DIMCLRT
 70
     0
  9
$DIMTFAC
 40
1.0
  9
$DIMGAP
 40
0.09
  9
$DIMJUST
 70
     0
  9
$DIMSD1
 70
     0
  9
$DIMSD2
 70
     0
  9
$DIMTOLJ
 70
     1
  9
$DIMTZIN
 70
     0
  9
$DIMALTZ
 70
     0
  9
$DIMALTTZ
 70
     0
  9
$DIMUPT
 70
     0
  9
$DIMDEC
 70
     4
  9
$DIMTDEC
 70
     4
  9
$DIMALTU
 70
     2
  9
$DIMALTTD
 70
     2
  9
$DIMTXSTY
  7
Standard
  9
$DIMAUNIT
 70
     0
  9
$DIMADEC
 70
     0
  9
$DIMALTRND
 40
0.0
  9
$DIMAZIN
 70
     0
  9
$DIMDSEP
 70
    46
  9
$DIMATFIT
 70
     3
  9
$DIMFRAC
 70
     0
  9
$DIMLDRBLK
  1

  9
$DIMLUNIT
 70
     2
  9
$DIMLWD
 70
    -2
  9
$DIMLWE
 70
    -2
  9
$DIMTMOVE
 70
     2
  9
$DIMFXL
 40
1.0
  9
$DIMFXLON
 70
     0
  9
$DIMJOGANG
 40
0.7853981633974483
  9
$DIMTFILL
 70
     0
  9
$DIMTFILLCLR
 70
     0
  9
$DIMARCSYM
 70
     0
  9
$DIMLTYPE
  6

  9
$DIMLTEX1
  6

  9
$DIMLTEX2
  6

  9
$DIMTXTDIRECTION
 70
     0
  9
$LUNITS
 70
     2
  9
$LUPREC
 70
     4
  9
$SKETCHINC
 40
0.1
  9
$FILLETRAD
 40
0.5
  9
$AUNITS
 70
     2
  9
$AUPREC
 70
     0
  9
$MENU
  1
.
  9
$ELEVATION
 40
0.0
  9
$PELEVATION
 40
0.0
  9
$THICKNESS
 40
0.0
  9
$LIMCHECK
 70
     0
  9
$CHAMFERA
 40
0.5
  9
$CHAMFERB
 40
0.5
  9
$CHAMFERC
 40
1.0
  9
$CHAMFERD
 40
0.0
  9
$SKPOLY
 70
     0
  9
$TDCREATE
 40
2458327.54938375
  9
$TDUCREATE
 40
2458327.466050417
  9
$TDUPDATE
 40
2458682.571372859
  9
$TDUUPDATE
 40
2458682.488039526
  9
$TDINDWG
 40
0.0058899884
  9
$TDUSRTIMER
 40
0.0194672338
  9
$USRTIMER
 70
     1
  9
$ANGBASE
 50
0.0
  9
$ANGDIR
 70
     0
  9
$PDMODE
 70
     0
  9
$PDSIZE
 40
0.0
  9
$PLINEWID
 40
0.0
  9
$SPLFRAME
 70
     0
  9
$SPLINETYPE
 70
     6
  9
$SPLINESEGS
 70
     8
  9
$HANDSEED
  5
28E
  9
$SURFTAB1
 70
     6
  9
$SURFTAB2
 70
     6
  9
$SURFTYPE
 70
     6
  9
$SURFU
 70
     6
  9
$SURFV
 70
     6
  9
$UCSBASE
  2

  9
$UCSNAME
  2

  9
$UCSORG
 10
0.0
 20
0.0
 30
0.0
  9
$UCSXDIR
 10
1.0
 20
0.0
 30
0.0
  9
$UCSYDIR
 10
0.0
 20
1.0
 30
0.0
  9
$UCSORTHOREF
  2

  9
$UCSORTHOVIEW
 70
     0
  9
$UCSORGTOP
 10
0.0
 20
0.0
 30
0.0
  9
$UCSORGBOTTOM
 10
0.0
 20
0.0
 30
0.0
  9
$UCSORGLEFT
 10
0.0
 20
0.0
 30
0.0
  9
$UCSORGRIGHT
 10
0.0
 20
0.0
 30
0.0
  9
$UCSORGFRONT
 10
0.0
 20
0.0
 30
0.0
  9
$UCSORGBACK
 10
0.0
 20
0.0
 30
0.0
  9
$PUCSBASE
  2

  9
$PUCSNAME
  2

  9
$PUCSORG
 10
0.0
 20
0.0
 30
0.0
  9
$PUCSXDIR
 10
1.0
 20
0.0
 30
0.0
  9
$PUCSYDIR
 10
0.0
 20
1.0
 30
0.0
  9
$PUCSORTHOREF
  2

  9
$PUCSORTHOVIEW
 70
     0
  9
$PUCSORGTOP
 10
0.0
 20
0.0
 30
0.0
  9
$PUCSORGBOTTOM
 10
0.0
 20
0.0
 30
0.0
  9
$PUCSORGLEFT
 10
0.0
 20
0.0
 30
0.0
  9
$PUCSORGRIGHT
 10
0.0
 20
0.0
 30
0.0
  9
$PUCSORGFRONT
 10
0.0
 20
0.0
 30
0.0
  9
$PUCSORGBACK
 10
0.0
 20
0.0
 30
0.0
  9
$USERI1
 70
     0
  9
$USERI2
 70
     0
  9
$USERI3
 70
     0
  9
$USERI4
 70
     0
  9
$USERI5
 70
     0
  9
$USERR1
 40
0.0
  9
$USERR2
 40
0.0
  9
$USERR3
 40
0.0
  9
$USERR4
 40
0.0
  9
$USERR5
 40
0.0
  9
$WORLDVIEW
 70
     1
  9
$SHADEDGE
 70
     3
  9
$SHADEDIF
 70
    70
  9
$TILEMODE
 70
     1
  9
$MAXACTVP
 70
    64
  9
$PINSBASE
 10
0.0
 20
0.0
 30
0.0
  9
$PLIMCHECK
 70
     0
  9
$PEXTMIN
 10
1.000000000000000E+20
 20
1.000000000000000E+20
 30
1.000000000000000E+20
  9
$PEXTMAX
 10
-1.000000000000000E+20
 20
-1.000000000000000E+20
 30
-1.000000000000000E+20
  9
$PLIMMIN
 10
0.0
 20
0.0
  9
$PLIMMAX
 10
0.0
 20
0.0
  9
$UNITMODE
 70
     0
  9
$VISRETAIN
 70
     1
  9
$PLINEGEN
 70
     0
  9
$PSLTSCALE
 70
     1
  9
$TREEDEPTH
 70
  3020
  9
$CMLSTYLE
  2
Standard
  9
$CMLJUST
 70
     0
  9
$CMLSCALE
 40
1.0
  9
$PROXYGRAPHICS
 70
     1
  9
$MEASUREMENT
 70
     0
  9
$CELWEIGHT
370
    -1
  9
$ENDCAPS
280
     0
  9
$JOINSTYLE
280
     0
  9
$LWDISPLAY
290
     0
  9
$INSUNITS
 70
     0
  9
$HYPERLINKBASE
  1

  9
$STYLESHEET
  1

  9
$XEDIT
290
     1
  9
$CEPSNTYPE
380
     0
  9
$PSTYLEMODE
290
     1
  9
$FINGERPRINTGUID
  2
{B0E0DADE-AEE6-487D-94C5-5F5B37F93094}
  9
$VERSIONGUID
  2
{FAEB1C32-E019-11D5-929B-00C0DF256EC4}
  9
$EXTNAMES
290
     1
  9
$PSVPSCALE
 40
0.0
  9
$OLESTARTUP
290
     0
  9
$SORTENTS
280
   127
  9
$INDEXCTL
280
     0
  9
$HIDETEXT
280
     1
  9
$XCLIPFRAME
280
     2
  9
$HALOGAP
280
     0
  9
$OBSCOLOR
 70
   257
  9
$OBSLTYPE
280
     0
  9
$INTERSECTIONDISPLAY
280
     0
  9
$INTERSECTIONCOLOR
 70
   257
  9
$DIMASSOC
280
     2
  9
$PROJECTNAME
  1

  9
$CAMERADISPLAY
290
     0
  9
$LENSLENGTH
 40
50.0
  9
$CAMERAHEIGHT
 40
0.0
  9
$STEPSPERSEC
 40
2.0
  9
$STEPSIZE
 40
6.0
  9
$3DDWFPREC
 40
2.0
  9
$PSOLWIDTH
 40
0.25
  9
$PSOLHEIGHT
 40
4.0
  9
$LOFTANG1
 40
1.570796326794897
  9
$LOFTANG2
 40
1.570796326794897
  9
$LOFTMAG1
 40
0.0
  9
$LOFTMAG2
 40
0.0
  9
$LOFTPARAM
 70
     7
  9
$LOFTNORMALS
280
     1
  9
$LATITUDE
 40
37.795
  9
$LONGITUDE
 40
-122.394
  9
$NORTHDIRECTION
 40
0.0
  9
$TIMEZONE
 70
 -8000
  9
$LIGHTGLYPHDISPLAY
280
     1
  9
$TILEMODELIGHTSYNCH
280
     1
  9
$SOLIDHIST
280
     0
  9
$SHOWHIST
280
     1
  9
$DWFFRAME
280
     2
  9
$DGNFRAME
280
     2
  9
$REALWORLDSCALE
290
     1
  9
$INTERFERECOLOR
 62
   256
  9
$CSHADOW
280
     0
  9
$SHADOWPLANELOCATION
 40
0.0
  0
ENDSEC
  0
SECTION
  2
CLASSES
  0
CLASS
  1
ACDBDICTIONARYWDFLT
  2
AcDbDictionaryWithDefault
  3
ObjectDBX Classes
 90
        0
 91
      280
280
     0
281
     0
  0
CLASS
  1
SCALE
  2
AcDbScale
  3
ObjectDBX Classes
 90
     1153
 91
      280
280
     0
281
     0
  0
CLASS
  1
VISUALSTYLE
  2
AcDbVisualStyle
  3
ObjectDBX Classes
 90
     4095
 91
      280
280
     0
281
     0
  0
CLASS
  1
MATERIAL
  2
AcDbMaterial
  3
ObjectDBX Classes
 90
     1153
 91
      280
280
     0
281
     0
  0
CLASS
  1
DICTIONARYVAR
  2
AcDbDictionaryVar
  3
ObjectDBX Classes
 90
        0
 91
       14
280
     0
281
     0
  0
CLASS
  1
ACDBPLACEHOLDER
  2
AcDbPlaceHolder
  3
ObjectDBX Classes
 90
        0
 91
        1
280
     0
281
     0
  0
CLASS
  1
LAYOUT
  2
AcDbLayout
  3
ObjectDBX Classes
 90
        0
 91
        1
280
     0
281
     0
  0
CLASS
  1
TABLESTYLE
  2
AcDbTableStyle
  3
ObjectDBX Classes
 90
     4095
 91
      280
280
     0
281
     0
  0
CLASS
  1
MLEADERSTYLE
  2
AcDbMLeaderStyle
  3
ACDB_MLEADERSTYLE_CLASS
 90
     4095
 91
      280
280
     0
281
     0
  0
CLASS
  1
SUN
  2
AcDbSun
  3
SCENEOE
 90
     1153
 91
      280
280
     0
281
     0
  0
CLASS
  1
SORTENTSTABLE
  2
AcDbSortentsTable
  3
ObjectDBX Classes
 90
        0
 91
       12
280
     0
281
     0
  0
CLASS
  1
CELLSTYLEMAP
  2
AcDbCellStyleMap
  3
ObjectDBX Classes
 90
     1152
 91
        6
280
     0
281
     0
  0
ENDSEC
  0
SECTION
  2
TABLES
  0
TABLE
  2
VPORT
  5
8
330
0
100
AcDbSymbolTable
 70
     1
  0
VPORT
  5
181
330
8
100
AcDbSymbolTableRecord
100
AcDbViewportTableRecord
  2
*Active
 70
     0
 10
0.0
 20
0.0
 11
1.0
 21
1.0
 12
-47.32221162782596
 22
-54.27747877448068
 13
0.0
 23
0.0
 14
0.5
 24
0.5
 15
0.5
 25
0.5
 16
0.0
 26
0.0
 36
1.0
 17
0.0
 27
0.0
 37
0.0
 40
490.3502948934846
 41
1.831002331002331
 42
50.0
 43
0.0
 44
0.0
 50
0.0
 51
0.0
 71
    16
 72
   100
 73
     1
 74
     3
 75
     0
 76
     0
 77
     0
 78
     0
281
     0
 65
     1
110
0.0
120
0.0
130
0.0
111
1.0
121
0.0
131
0.0
112
0.0
122
1.0
132
0.0
 79
     0
146
0.0
348
1B2
 60
     3
 61
     5
292
     1
282
     1
141
0.0
142
0.0
 63
   256
361
248
  0
ENDTAB
  0
TABLE
  2
LTYPE
  5
5
330
0
100
AcDbSymbolTable
 70
     8
  0
LTYPE
  5
14
330
5
100
AcDbSymbolTableRecord
100
AcDbLinetypeTableRecord
  2
ByBlock
 70
     0
  3

 72
    65
 73
     0
 40
0.0
  0
LTYPE
  5
15
330
5
100
AcDbSymbolTableRecord
100
AcDbLinetypeTableRecord
  2
ByLayer
 70
     0
  3

 72
    65
 73
     0
 40
0.0
  0
LTYPE
  5
16
330
5
100
AcDbSymbolTableRecord
100
AcDbLinetypeTableRecord
  2
Continuous
 70
     0
  3
Solid line
 72
    65
 73
     0
 40
0.0
  0
LTYPE
  5
20
330
5
100
AcDbSymbolTableRecord
100
AcDbLinetypeTableRecord
  2
PUNKT
 70
     0
  3
..............
 72
    65
 73
     2
 40
1.5
 49
0.7
 74
     0
 49
-0.8
 74
     0
  0
LTYPE
  5
21
330
5
100
AcDbSymbolTableRecord
100
AcDbLinetypeTableRecord
  2
GESTRICHELT
 70
     0
  3
-- -- -- -- --
 72
    65
 73
     7
 40
2.8
 49
0.9
 74
     0
 49
0.0
 74
     0
 49
0.9
 74
     0
 49
0.0
 74
     0
 49
0.2
 74
     0
 49
0.0
 74
     0
 49
-0.8
 74
     0
  0
LTYPE
  5
22
330
5
100
AcDbSymbolTableRecord
100
AcDbLinetypeTableRecord
  2
STRICHPUNKT
 70
     0
  3
--.--.--.--.--
 72
    65
 73
     4
 40
8.8
 49
5.5
 74
     0
 49
-1.3
 74
     0
 49
0.7
 74
     0
 49
-1.3
 74
     0
  0
LTYPE
  5
25
330
5
100
AcDbSymbolTableRecord
100
AcDbLinetypeTableRecord
  2
PHANTOM
 70
     0
  3
--..--..--..--
 72
    65
 73
     6
 40
14.2
 49
7.0
 74
     0
 49
-1.8
 74
     0
 49
0.9
 74
     0
 49
-1.8
 74
     0
 49
0.9
 74
     0
 49
-1.8
 74
     0
  0
LTYPE
  5
1F9
330
5
100
AcDbSymbolTableRecord
100
AcDbLinetypeTableRecord
  2
DASH
 70
     0
  3
DASH _ _ _ _ _
 72
    65
 73
     2
 40
0.75
 49
0.4
 74
     0
 49
-0.35
 74
     0
  0
LTYPE
  5
1FA
330
5
100
AcDbSymbolTableRecord
100
AcDbLinetypeTableRecord
  2
LONGDASH_DASH
 70
     0
  3
LONGDASH_DASH __ . __ . __
 72
    65
 73
     4
 40
0.85
 49
0.4
 74
     0
 49
-0.2
 74
     0
 49
0.05
 74
     0
 49
-0.2
 74
     0
  0
LTYPE
  5
1FB
330
5
100
AcDbSymbolTableRecord
100
AcDbLinetypeTableRecord
  2
LONGDASH_DASH_DASH
 70
     0
  3
LONGDASH_DASH_DASH __ . . __ . . __
 72
    65
 73
     6
 40
1.1
 49
0.4
 74
     0
 49
-0.2
 74
     0
 49
0.05
 74
     0
 49
-0.2
 74
     0
 49
0.05
 74
     0
 49
-0.2
 74
     0
  0
ENDTAB
  0
TABLE
  2
LAYER
  5
2
102
{ACAD_XDICTIONARY
360
21D
102
}
330
0
100
AcDbSymbolTable
 70
    16
  0
LAYER
  5
1C3
330
2
100
AcDbSymbolTableRecord
100
AcDbLayerTableRecord
  2
200
 70
     0
 62
     2
  6
Continuous
370
    50
390
F
347
1C1
348
0
  0
LAYER
  5
1FC
330
2
100
AcDbSymbolTableRecord
100
AcDbLayerTableRecord
  2
0
 70
     0
 62
     1
  6
Continuous
370
    -3
390
F
347
1C1
348
0
  0
LAYER
  5
1FD
330
2
100
AcDbSymbolTableRecord
100
AcDbLayerTableRecord
  2
1
 70
     0
 62
     4
  6
Continuous
370
    50
390
F
347
1C1
348
0
  0
LAYER
  5
1FE
330
2
100
AcDbSymbolTableRecord
100
AcDbLayerTableRecord
  2
2
 70
     0
 62
     7
  6
Continuous
370
    25
390
F
347
1C1
348
0
  0
LAYER
  5
1FF
330
2
100
AcDbSymbolTableRecord
100
AcDbLayerTableRecord
  2
3
 70
     0
 62
     1
  6
DASH
370
    35
390
F
347
1C1
348
0
  0
LAYER
  5
200
330
2
100
AcDbSymbolTableRecord
100
AcDbLayerTableRecord
  2
4
 70
     0
 62
     2
  6
LONGDASH_DASH
370
    25
390
F
347
1C1
348
0
  0
LAYER
  5
201
330
2
100
AcDbSymbolTableRecord
100
AcDbLayerTableRecord
  2
6
 70
     0
 62
     5
  6
Continuous
370
    -3
390
F
347
1C1
348
0
  0
LAYER
  5
202
330
2
100
AcDbSymbolTableRecord
100
AcDbLayerTableRecord
  2
CUT
 70
     0
 62
     1
  6
Continuous
370
    25
390
F
347
1C1
348
0
  0
LAYER
  5
203
330
2
100
AcDbSymbolTableRecord
100
AcDbLayerTableRecord
  2
NOCUT
 70
     0
 62
     7
  6
Continuous
370
    25
390
F
347
1C1
348
0
  0
LAYER
  5
204
330
2
100
AcDbSymbolTableRecord
100
AcDbLayerTableRecord
  2
SK1
 70
     0
 62
     4
  6
Continuous
370
    50
390
F
347
1C1
348
0
  0
LAYER
  5
205
330
2
100
AcDbSymbolTableRecord
100
AcDbLayerTableRecord
  2
SK2
 70
     0
 62
     7
  6
Continuous
370
    25
390
F
347
1C1
348
0
  0
LAYER
  5
206
330
2
100
AcDbSymbolTableRecord
100
AcDbLayerTableRecord
  2
SK3
 70
     0
 62
     1
  6
DASH
370
    35
390
F
347
1C1
348
0
  0
LAYER
  5
207
330
2
100
AcDbSymbolTableRecord
100
AcDbLayerTableRecord
  2
SK4
 70
     0
 62
     2
  6
LONGDASH_DASH
370
    25
390
F
347
1C1
348
0
  0
LAYER
  5
208
330
2
100
AcDbSymbolTableRecord
100
AcDbLayerTableRecord
  2
SK6
 70
     0
 62
     5
  6
Continuous
370
    -3
390
F
347
1C1
348
0
  0
LAYER
  5
209
330
2
100
AcDbSymbolTableRecord
100
AcDbLayerTableRecord
  2
INFTOTAL
 70
     0
 62
     9
  6
Continuous
370
    18
390
F
347
1C1
348
0
  0
LAYER
  5
24F
330
2
100
AcDbSymbolTableRecord
100
AcDbLayerTableRecord
  2
11
 70
     0
 62
     4
  6
Continuous
370
    50
390
F
347
1C1
348
0
1001
AcAecLayerStandard
1000

1000

  0
ENDTAB
  0
TABLE
  2
STYLE
  5
3
330
0
100
AcDbSymbolTable
 70
     3
  0
STYLE
  5
11
330
3
100
AcDbSymbolTableRecord
100
AcDbTextStyleTableRecord
  2
Standard
 70
     0
 40
0.0
 41
1.0
 50
0.0
 71
     0
 42
0.2
  3
txt
  4

  0
STYLE
  5
1C2
330
3
100
AcDbSymbolTableRecord
100
AcDbTextStyleTableRecord
  2
BMG_Text
 70
     0
 40
3.5
 41
1.0
 50
0.0
 71
     0
 42
0.2
  3
monos.ttf
  4

1001
ACAD
1000
Monospac821 BT
1071
       49
  0
STYLE
  5
255
330
3
100
AcDbSymbolTableRecord
100
AcDbTextStyleTableRecord
  2
SLDTEXTSTYLE0
 70
     0
 40
0.0
 41
0.605
 50
0.0
 71
     0
 42
0.2
  3
TXT
  4

  0
ENDTAB
  0
TABLE
  2
VIEW
  5
6
330
0
100
AcDbSymbolTable
 70
     0
  0
ENDTAB
  0
TABLE
  2
UCS
  5
7
330
0
100
AcDbSymbolTable
 70
     0
  0
ENDTAB
  0
TABLE
  2
APPID
  5
9
330
0
100
AcDbSymbolTable
 70
     2
  0
APPID
  5
12
330
9
100
AcDbSymbolTableRecord
100
AcDbRegAppTableRecord
  2
ACAD
 70
     0
  0
APPID
  5
250
330
9
100
AcDbSymbolTableRecord
100
AcDbRegAppTableRecord
  2
AcAecLayerStandard
 70
     0
  0
ENDTAB
  0
TABLE
  2
DIMSTYLE
  5
A
330
0
100
AcDbSymbolTable
 70
     6
100
AcDbDimStyleTable
  0
DIMSTYLE
105
28
330
A
100
AcDbSymbolTableRecord
100
AcDbDimStyleTableRecord
  2
Standard
 70
     0
178
     0
340
11
  0
DIMSTYLE
105
251
330
A
100
AcDbSymbolTableRecord
100
AcDbDimStyleTableRecord
  2
Matthias
 70
     0
 41
3.0
 44
2.0
 73
     0
 77
     1
140
3.0
147
2.0
178
     0
340
11
  0
DIMSTYLE
105
253
102
{ACAD_REACTORS
102
}
330
A
100
AcDbSymbolTableRecord
100
AcDbDimStyleTableRecord
  2
ISO-25
 70
     0
 41
2.5
 42
0.625
 43
3.75
 44
1.25
 73
     0
 74
     0
 77
     1
 78
     8
140
2.5
141
2.5
143
0.0393700787
147
0.625
171
     3
172
     1
178
     0
271
     2
272
     2
274
     3
278
    44
283
     0
284
     8
340
11
  0
DIMSTYLE
105
254
330
A
100
AcDbSymbolTableRecord
100
AcDbDimStyleTableRecord
  2
SLDDIMSTYLE0
 70
     0
 41
3.5
 44
0.0
 45
0.000000001
 73
     0
 74
     0
 77
     1
 78
    12
 79
     3
140
3.5
144
0.5
147
0.875
173
     1
178
     0
271
     2
272
     1
276
     2
284
    12
340
255
  0
DIMSTYLE
105
256
330
A
100
AcDbSymbolTableRecord
100
AcDbDimStyleTableRecord
  2
SLDDIMSTYLE1
 70
     0
 41
3.5
 44
0.0
 45
0.000000001
 73
     0
 74
     0
 77
     1
 78
    12
 79
     3
140
3.5
144
0.5
147
0.875
173
     1
178
     0
271
     2
272
     3
276
     2
284
    12
340
255
  0
DIMSTYLE
105
257
330
A
100
AcDbSymbolTableRecord
100
AcDbDimStyleTableRecord
  2
SLDDIMSTYLE2
 70
     0
 41
3.5
 44
0.0
 45
0.000000001
 73
     0
 74
     0
 77
     1
 78
    12
 79
     3
140
3.5
147
0.875
173
     1
178
     0
271
     2
272
     0
276
     2
284
    12
340
255
  0
ENDTAB
  0
TABLE
  2
BLOCK_RECORD
  5
1
330
0
100
AcDbSymbolTable
 70
     1
  0
BLOCK_RECORD
  5
1D
330
1
100
AcDbSymbolTableRecord
100
AcDbBlockTableRecord
  2
*Model_Space
340
1E
 70
     0
280
     1
281
     0
  0
BLOCK_RECORD
  5
1B
330
1
100
AcDbSymbolTableRecord
100
AcDbBlockTableRecord
  2
*Paper_Space
340
1C
 70
     0
280
     1
281
     0
  0
ENDTAB
  0
ENDSEC
  0
SECTION
  2
BLOCKS
  0
BLOCK
  5
1AB
330
1D
100
AcDbEntity
  8
0
100
AcDbBlockBegin
  2
*Model_Space
 70
     0
 10
0.0
 20
0.0
 30
0.0
  3
*Model_Space
  1

  0
ENDBLK
  5
1AC
330
1D
100
AcDbEntity
  8
0
100
AcDbBlockEnd
  0
BLOCK
  5
1A9
330
1B
100
AcDbEntity
 67
     1
  8
0
100
AcDbBlockBegin
  2
*Paper_Space
 70
     0
 10
0.0
 20
0.0
 30
0.0
  3
*Paper_Space
  1

  0
ENDBLK
  5
1AA
330
1B
100
AcDbEntity
 67
     1
  8
0
100
AcDbBlockEnd
  0
ENDSEC
  0
SECTION
  2
ENTITIES
  0
LINE
  5
29
330
1D
100
AcDbEntity
  8
SK6
100
AcDbLine
 10
-16.0864296
 20
-69.99732971
 30
0.0
 11
-16.0864296
 21
-72.06732178
 31
0.0
  0
ARC
  5
2A
330
1D
100
AcDbEntity
  8
SK6
100
AcDbCircle
 10
-18.96641541
 20
-73.14733124
 30
0.0
 40
1.08000004
100
AcDbArc
 50
90.00000763
 51
206.54360962
  0
LINE
  5
2B
330
1D
100
AcDbEntity
  8
SK6
100
AcDbLine
 10
-18.96641541
 20
-72.06735229
 30
0.0
 11
-16.08641815
 21
-72.06735229
 31
0.0
  0
ARC
  5
2C
330
1D
100
AcDbEntity
  8
SK6
100
AcDbCircle
 10
-20.13642502
 20
-72.69732666
 30
0.0
 40
2.70000005
100
AcDbArc
 50
90.00000763
 51
206.5436554
  0
ARC
  5
2D
330
1D
100
AcDbEntity
  8
SK6
100
AcDbCircle
 10
-19.41640854
 20
-82.59733582
 30
0.0
 40
1.08000004
100
AcDbArc
 50
270.0
 51
26.54360962
  0
LINE
  5
2E
330
1D
100
AcDbEntity
  8
SK6
100
AcDbLine
 10
-19.41640854
 20
-83.67733765
 30
0.0
 11
-22.83640671
 21
-83.67733765
 31
0.0
  0
LINE
  5
2F
330
1D
100
AcDbEntity
  8
SK6
100
AcDbLine
 10
-22.55182648
 20
-73.90390015
 30
0.0
 11
-18.45026016
 21
-82.11469269
 31
0.0
  0
ARC
  5
30
330
1D
100
AcDbEntity
  8
SK6
100
AcDbCircle
 10
-18.24642181
 20
-83.04734039
 30
0.0
 40
2.70000005
100
AcDbArc
 50
270.0
 51
26.54364014
  0
LINE
  5
31
330
1D
100
AcDbEntity
  8
SK6
100
AcDbLine
 10
-19.93258286
 20
-73.62995911
 30
0.0
 11
-15.83101273
 21
-81.84075928
 31
0.0
  0
LINE
  5
32
330
1D
100
AcDbEntity
  8
SK6
100
AcDbLine
 10
-22.8364296
 20
-83.67733765
 30
0.0
 11
-22.8364296
 21
-85.74734497
 31
0.0
  0
LINE
  5
33
330
1D
100
AcDbEntity
  8
SK6
100
AcDbLine
 10
-22.8364296
 20
-85.74734497
 30
0.0
 11
-18.24642563
 21
-85.74734497
 31
0.0
  0
LINE
  5
34
330
1D
100
AcDbEntity
  8
SK6
100
AcDbLine
 10
-13.38642502
 20
-85.74734497
 30
0.0
 11
-13.38642502
 21
-69.99734497
 31
0.0
  0
LINE
  5
35
330
1D
100
AcDbEntity
  8
SK6
100
AcDbLine
 10
-5.10641861
 20
-85.74734497
 30
0.0
 11
-5.10641861
 21
-69.99734497
 31
0.0
  0
LINE
  5
36
330
1D
100
AcDbEntity
  8
SK6
100
AcDbLine
 10
-5.10641861
 20
-85.74734497
 30
0.0
 11
-2.40642548
 21
-85.74734497
 31
0.0
  0
LINE
  5
37
330
1D
100
AcDbEntity
  8
SK6
100
AcDbLine
 10
-2.40642548
 20
-85.74734497
 30
0.0
 11
-2.40642548
 21
-78.90734863
 31
0.0
  0
ARC
  5
38
330
1D
100
AcDbEntity
  8
SK6
100
AcDbCircle
 10
-1.05641174
 20
-79.98733521
 30
0.0
 40
1.08000004
100
AcDbArc
 50
0.0
 51
90.00000763
  0
LINE
  5
39
330
1D
100
AcDbEntity
  8
SK6
100
AcDbLine
 10
-1.05641174
 20
-78.90733337
 30
0.0
 11
-2.40641403
 21
-78.90733337
 31
0.0
  0
ARC
  5
3B
330
1D
100
AcDbEntity
  8
SK6
100
AcDbCircle
 10
5.15356445
 20
-84.21733856
 30
0.0
 40
2.51999998
100
AcDbArc
 50
180.0
 51
217.38319397
  0
ARC
  5
3C
330
1D
100
AcDbEntity
  8
SK6
100
AcDbCircle
 10
2.54355621
 20
-84.21733856
 30
0.0
 40
2.51999998
100
AcDbArc
 50
180.0
 51
217.38319397
  0
LINE
  5
3D
330
1D
100
AcDbEntity
  8
SK6
100
AcDbLine
 10
3.15116882
 20
-85.74734497
 30
0.0
 11
0.5411720299999998
 21
-85.74734497
 31
0.0
  0
LINE
  5
3E
330
1D
100
AcDbEntity
  8
SK6
100
AcDbLine
 10
0.0235672
 20
-79.98735046
 30
0.0
 11
0.0235672
 21
-84.21733856
 31
0.0
  0
ARC
  5
3F
330
1D
100
AcDbEntity
  8
SK6
100
AcDbCircle
 10
0.11358643
 20
-80.16734314
 30
0.0
 40
2.51999998
100
AcDbArc
 50
358.70883179
 51
93.06652832
  0
ARC
  5
40
330
1D
100
AcDbEntity
  8
SK6
100
AcDbCircle
 10
-0.15642548
 20
-75.12734222
 30
0.0
 40
2.51999998
100
AcDbArc
 50
273.06652832
 51
0.0
  0
ARC
  5
41
330
1D
100
AcDbEntity
  8
SK6
100
AcDbCircle
 10
-0.15642548
 20
-72.51734924
 30
0.0
 40
2.51999998
100
AcDbArc
 50
0.0
 51
90.00000763
  0
LINE
  5
42
330
1D
100
AcDbEntity
  8
SK6
100
AcDbLine
 10
2.36358643
 20
-72.51734924
 30
0.0
 11
2.36358643
 21
-75.12734985
 31
0.0
  0
ARC
  5
43
330
1D
100
AcDbEntity
  8
SK6
100
AcDbCircle
 10
-0.78642273
 20
-72.96734619
 30
0.0
 40
0.90000004
100
AcDbArc
 50
0.0
 51
90.00000763
  0
LINE
  5
44
330
1D
100
AcDbEntity
  8
SK6
100
AcDbLine
 10
-0.78642273
 20
-72.06735229
 30
0.0
 11
-2.40642548
 21
-72.06735229
 31
0.0
  0
ARC
  5
45
330
1D
100
AcDbEntity
  8
SK6
100
AcDbCircle
 10
-0.78642273
 20
-75.84733582
 30
0.0
 40
0.90000004
100
AcDbArc
 50
270.0
 51
0.0
  0
LINE
  5
46
330
1D
100
AcDbEntity
  8
SK6
100
AcDbLine
 10
0.11358643
 20
-72.96734619
 30
0.0
 11
0.11358643
 21
-75.84734344
 31
0.0
  0
LINE
  5
47
330
1D
100
AcDbEntity
  8
SK6
100
AcDbLine
 10
-2.40642548
 20
-72.06735229
 30
0.0
 11
-2.40642548
 21
-76.74734497
 31
0.0
  0
LINE
  5
48
330
1D
100
AcDbEntity
  8
SK6
100
AcDbLine
 10
-0.78642273
 20
-76.74734497
 30
0.0
 11
-2.40642548
 21
-76.74734497
 31
0.0
  0
LINE
  5
49
330
1D
100
AcDbEntity
  8
SK6
100
AcDbLine
 10
2.63293457
 20
-80.22412872
 30
0.0
 11
2.633564
 21
-84.21774292
 31
0.0
  0
LINE
  5
4B
330
1D
100
AcDbEntity
  8
SK6
100
AcDbLine
 10
-20.13642502
 20
-69.99732971
 30
0.0
 11
-16.08642197
 21
-69.99732971
 31
0.0
  0
LINE
  5
4C
330
1D
100
AcDbEntity
  8
SK6
100
AcDbLine
 10
-0.15642548
 20
-69.99732971
 30
0.0
 11
-5.10643005
 21
-69.99732971
 31
0.0
  0
LINE
  5
4D
330
1D
100
AcDbEntity
  8
SK6
100
AcDbLine
 10
-47.13642502
 20
-85.74734497
 30
0.0
 11
-49.92642593
 21
-85.74734497
 31
0.0
  0
LINE
  5
4E
330
1D
100
AcDbEntity
  8
SK6
100
AcDbLine
 10
-47.13642502
 20
-82.3273468
 30
0.0
 11
-47.13642502
 21
-85.74734497
 31
0.0
  0
LINE
  5
4F
330
1D
100
AcDbEntity
  8
SK6
100
AcDbLine
 10
-46.05642319
 20
-80.25733948
 30
0.0
 11
-47.13642502
 21
-82.3273468
 31
0.0
  0
LINE
  5
50
330
1D
100
AcDbEntity
  8
SK6
100
AcDbLine
 10
-43.62643051
 20
-85.74734497
 30
0.0
 11
-46.05642319
 21
-80.25733948
 31
0.0
  0
LINE
  5
51
330
1D
100
AcDbEntity
  8
SK6
100
AcDbLine
 10
-40.8364296
 20
-85.74734497
 30
0.0
 11
-43.62642288
 21
-85.74734497
 31
0.0
  0
LINE
  5
52
330
1D
100
AcDbEntity
  8
SK6
100
AcDbLine
 10
-44.4364357
 20
-76.74734497
 30
0.0
 11
-40.8364296
 21
-85.74734497
 31
0.0
  0
LINE
  5
53
330
1D
100
AcDbEntity
  8
SK6
100
AcDbLine
 10
-41.37643051
 20
-69.99734497
 30
0.0
 11
-44.43642044
 21
-76.74734497
 31
0.0
  0
LINE
  5
54
330
1D
100
AcDbEntity
  8
SK6
100
AcDbLine
 10
-47.13642502
 20
-77.10735321
 30
0.0
 11
-44.16643143
 21
-69.99736023
 31
0.0
  0
LINE
  5
55
330
1D
100
AcDbEntity
  8
SK6
100
AcDbLine
 10
-47.13642502
 20
-69.99734497
 30
0.0
 11
-47.13642502
 21
-77.10735321
 31
0.0
  0
LINE
  5
56
330
1D
100
AcDbEntity
  8
SK6
100
AcDbLine
 10
-49.92642593
 20
-85.74734497
 30
0.0
 11
-49.92642593
 21
-69.99734497
 31
0.0
  0
LINE
  5
57
330
1D
100
AcDbEntity
  8
SK6
100
AcDbLine
 10
-44.16643143
 20
-69.99734497
 30
0.0
 11
-41.37643051
 21
-69.99734497
 31
0.0
  0
LINE
  5
58
330
1D
100
AcDbEntity
  8
SK6
100
AcDbLine
 10
-49.92642593
 20
-69.99734497
 30
0.0
 11
-47.13642502
 21
-69.99734497
 31
0.0
  0
LINE
  5
59
330
1D
100
AcDbEntity
  8
SK6
100
AcDbLine
 10
-27.87641907
 20
-69.99734497
 30
0.0
 11
-27.87641907
 21
-85.74734497
 31
0.0
  0
LINE
  5
5A
330
1D
100
AcDbEntity
  8
SK6
100
AcDbLine
 10
-24.99642181
 20
-85.74734497
 30
0.0
 11
-24.99642181
 21
-69.99734497
 31
0.0
  0
LINE
  5
5B
330
1D
100
AcDbEntity
  8
SK6
100
AcDbLine
 10
-27.87641907
 20
-85.74734497
 30
0.0
 11
-24.99642181
 21
-85.74734497
 31
0.0
  0
LINE
  5
5C
330
1D
100
AcDbEntity
  8
SK6
100
AcDbLine
 10
-24.99642181
 20
-69.99734497
 30
0.0
 11
-27.87643051
 21
-69.99734497
 31
0.0
  0
LINE
  5
5D
330
1D
100
AcDbEntity
  8
SK6
100
AcDbLine
 10
-7.53642273
 20
-85.74734497
 30
0.0
 11
-7.53642273
 21
-83.67733765
 31
0.0
  0
LINE
  5
5E
330
1D
100
AcDbEntity
  8
SK6
100
AcDbLine
 10
-13.38642502
 20
-85.74734497
 30
0.0
 11
-7.53642273
 21
-85.74734497
 31
0.0
  0
LINE
  5
5F
330
1D
100
AcDbEntity
  8
SK6
100
AcDbLine
 10
-7.53643417
 20
-72.06733704
 30
0.0
 11
-7.53643417
 21
-69.99734497
 31
0.0
  0
LINE
  5
60
330
1D
100
AcDbEntity
  8
SK6
100
AcDbLine
 10
-10.50645065
 20
-72.06733704
 30
0.0
 11
-7.53644562
 21
-72.06733704
 31
0.0
  0
LINE
  5
61
330
1D
100
AcDbEntity
  8
SK6
100
AcDbLine
 10
-10.50645065
 20
-76.74734497
 30
0.0
 11
-10.50645065
 21
-72.06735229
 31
0.0
  0
LINE
  5
62
330
1D
100
AcDbEntity
  8
SK6
100
AcDbLine
 10
-7.53643417
 20
-76.74734497
 30
0.0
 11
-10.50643921
 21
-76.74734497
 31
0.0
  0
LINE
  5
63
330
1D
100
AcDbEntity
  8
SK6
100
AcDbLine
 10
-7.53643417
 20
-78.90732574
 30
0.0
 11
-7.53643417
 21
-76.74732208
 31
0.0
  0
LINE
  5
64
330
1D
100
AcDbEntity
  8
SK6
100
AcDbLine
 10
-10.50645065
 20
-78.90732574
 30
0.0
 11
-7.53644562
 21
-78.90732574
 31
0.0
  0
LINE
  5
65
330
1D
100
AcDbEntity
  8
SK6
100
AcDbLine
 10
-10.50645065
 20
-83.67733765
 30
0.0
 11
-10.50645065
 21
-78.90732574
 31
0.0
  0
LINE
  5
66
330
1D
100
AcDbEntity
  8
SK6
100
AcDbLine
 10
-7.53643417
 20
-83.67733765
 30
0.0
 11
-10.50643921
 21
-83.67733765
 31
0.0
  0
LINE
  5
67
330
1D
100
AcDbEntity
  8
SK6
100
AcDbLine
 10
-7.53643417
 20
-69.99734497
 30
0.0
 11
-13.38643646
 21
-69.99734497
 31
0.0
  0
LINE
  5
68
330
1D
100
AcDbEntity
  8
SK6
100
AcDbLine
 10
-33.45642471
 20
-85.74734497
 30
0.0
 11
-39.75642776
 21
-85.74734497
 31
0.0
  0
LINE
  5
69
330
1D
100
AcDbEntity
  8
SK6
100
AcDbLine
 10
-33.90641403
 20
-83.22733307
 30
0.0
 11
-33.45642471
 21
-85.74732971
 31
0.0
  0
LINE
  5
6A
330
1D
100
AcDbEntity
  8
SK6
100
AcDbLine
 10
-36.78643417
 20
-83.22733307
 30
0.0
 11
-33.90643692
 21
-83.22733307
 31
0.0
  0
LINE
  5
6B
330
1D
100
AcDbEntity
  8
SK6
100
AcDbLine
 10
-35.25642776
 20
-73.86734772
 30
0.0
 11
-36.78642654
 21
-83.22735596
 31
0.0
  0
LINE
  5
6C
330
1D
100
AcDbEntity
  8
SK6
100
AcDbLine
 10
-32.19643021
 20
-85.74734497
 30
0.0
 11
-35.25642776
 21
-73.86734772
 31
0.0
  0
LINE
  5
6D
330
1D
100
AcDbEntity
  8
SK6
100
AcDbLine
 10
-29.22642136
 20
-85.74734497
 30
0.0
 11
-32.19641495
 21
-85.74734497
 31
0.0
  0
LINE
  5
6E
330
1D
100
AcDbEntity
  8
SK6
100
AcDbLine
 10
-33.63642502
 20
-69.54734039
 30
0.0
 11
-29.2264328
 21
-85.74734497
 31
0.0
  0
LINE
  5
6F
330
1D
100
AcDbEntity
  8
SK6
100
AcDbLine
 10
-36.69643021
 20
-69.54734039
 30
0.0
 11
-33.63643265
 21
-69.54734039
 31
0.0
  0
LINE
  5
70
330
1D
100
AcDbEntity
  8
SK6
100
AcDbLine
 10
-39.75642776
 20
-85.74734497
 30
0.0
 11
-36.69643021
 21
-69.54734039
 31
0.0
  0
LINE
  5
72
330
1D
100
AcDbEntity
  8
11
100
AcDbLine
 10
53.0
 20
19.000003815
 30
0.0
 11
71.0
 21
19.000003815
 31
0.0
  0
LINE
  5
73
330
1D
100
AcDbEntity
  8
SK3
100
AcDbLine
 10
127.0
 20
23.500003815
 30
0.0
 11
126.139534103
 21
23.00325
 31
0.0
  0
LINE
  5
74
330
1D
100
AcDbEntity
  8
3
100
AcDbLine
 10
126.139534103
 20
23.00325
 30
0.0
 11
80.494377994
 21
23.00325
 31
0.0
  0
LINE
  5
75
330
1D
100
AcDbEntity
  8
3
100
AcDbLine
 10
80.494377994
 20
23.00325
 30
0.0
 11
79.634033203
 21
23.500019073
 31
0.0
  0
LINE
  5
76
330
1D
100
AcDbEntity
  8
3
100
AcDbLine
 10
79.634033203
 20
23.500019073
 30
0.0
 11
75.0
 21
23.500019073
 31
0.0
  0
LINE
  5
78
330
1D
100
AcDbEntity
  8
3
100
AcDbLine
 10
75.0
 20
22.000003815
 30
0.0
 11
71.400024414
 21
22.000003823
 31
0.0
  0
ARC
  5
79
330
1D
100
AcDbEntity
  8
3
100
AcDbCircle
 10
71.400024414
 20
21.600009918
 30
0.0
 40
0.399993905
100
AcDbArc
 50
90.0
 51
180.0
  0
LINE
  5
7A
330
1D
100
AcDbEntity
  8
3
100
AcDbLine
 10
71.000030509
 20
21.600009918
 30
0.0
 11
71.000030509
 21
-21.600009918
 31
0.0
  0
LINE
  5
7B
330
1D
100
AcDbEntity
  8
3
100
AcDbLine
 10
71.000030509
 20
18.05
 30
0.0
 11
35.0
 21
18.05
 31
0.0
  0
LINE
  5
7C
330
1D
100
AcDbEntity
  8
3
100
AcDbLine
 10
35.0
 20
18.05
 30
0.0
 11
32.218021661
 21
6.0
 31
0.0
  0
LINE
  5
7D
330
1D
100
AcDbEntity
  8
3
100
AcDbLine
 10
32.218021661
 20
6.0
 30
0.0
 11
28.5
 21
6.0
 31
0.0
  0
LINE
  5
7F
330
1D
100
AcDbEntity
  8
3
100
AcDbLine
 10
28.5
 20
12.250030518
 30
0.0
 11
26.25
 21
12.250030518
 31
0.0
  0
LINE
  5
81
330
1D
100
AcDbEntity
  8
3
100
AcDbLine
 10
26.25
 20
11.250030518
 30
0.0
 11
13.5
 21
11.250030518
 31
0.0
  0
LINE
  5
82
330
1D
100
AcDbEntity
  8
3
100
AcDbLine
 10
13.5
 20
11.250030518
 30
0.0
 11
12.5
 21
12.250030518
 31
0.0
  0
ARC
  5
84
330
1D
100
AcDbEntity
  8
3
100
AcDbCircle
 10
10.0
 20
24.375030518
 30
0.0
 40
2.5
100
AcDbArc
 50
0.0
 51
90.0
  0
LINE
  5
85
330
1D
100
AcDbEntity
  8
3
100
AcDbLine
 10
10.0
 20
26.875030518
 30
0.0
 11
0.0
 21
26.87502745800097
 31
0.0
  0
ARC
  5
86
330
1D
100
AcDbEntity
  8
SK3
100
AcDbCircle
 10
-9.4662323
 20
19.500030518
 30
0.0
 40
12.00000308
100
AcDbArc
 50
37.92162081
 51
90.0
  0
LINE
  5
87
330
1D
100
AcDbEntity
  8
SK3
100
AcDbLine
 10
-9.4662323
 20
31.500030518
 30
0.0
 11
-26.539306734
 21
31.500030577
 31
0.0
  0
ARC
  5
88
330
1D
100
AcDbEntity
  8
SK3
100
AcDbCircle
 10
-26.539306641
 20
30.500030518
 30
0.0
 40
1.00000006
100
AcDbArc
 50
90.000005364
 51
150.000069564
  0
LINE
  5
89
330
1D
100
AcDbEntity
  8
SK3
100
AcDbLine
 10
-27.405334473
 20
31.000030518
 30
0.0
 11
-30.003417969
 21
26.500030518
 31
0.0
  0
LINE
  5
8A
330
1D
100
AcDbEntity
  8
SK3
100
AcDbLine
 10
-30.003417969
 20
26.500030518
 30
0.0
 11
-48.399990821
 21
26.500030518
 31
0.0
  0
LINE
  5
8B
330
1D
100
AcDbEntity
  8
SK3
100
AcDbLine
 10
-48.399990821
 20
26.500030518
 30
0.0
 11
-49.899990821
 21
27.366023112
 31
0.0
  0
LINE
  5
95
330
1D
100
AcDbEntity
  8
11
100
AcDbLine
 10
12.75
 20
12.000030518
 30
0.0
 11
26.25
 21
12.000030518
 31
0.0
  0
LINE
  5
9B
330
1D
100
AcDbEntity
  8
1
100
AcDbLine
 10
28.95
 20
49.6
 30
0.0
 11
28.55
 21
50.0
 31
0.0
  0
LINE
  5
9C
330
1D
100
AcDbEntity
  8
1
100
AcDbLine
 10
28.55
 20
50.0
 30
0.0
 11
23.247589111
 21
50.0
 31
0.0
  0
LINE
  5
9D
330
1D
100
AcDbEntity
  8
1
100
AcDbLine
 10
23.247589111
 20
50.0
 30
0.0
 11
21.875
 21
47.622589111
 31
0.0
  0
LINE
  5
9E
330
1D
100
AcDbEntity
  8
1
100
AcDbLine
 10
21.875
 20
47.622589111
 30
0.0
 11
21.875
 21
-47.622589111
 31
0.0
  0
LINE
  5
9F
330
1D
100
AcDbEntity
  8
1
100
AcDbLine
 10
0.4
 20
50.0
 30
0.0
 11
0.0
 21
49.6
 31
0.0
  0
LINE
  5
A0
330
1D
100
AcDbEntity
  8
1
100
AcDbLine
 10
0.0
 20
49.6
 30
0.0
 11
0.0
 21
-49.6
 31
0.0
  0
LINE
  5
A1
330
1D
100
AcDbEntity
  8
SK3
100
AcDbLine
 10
-48.399990821
 20
26.500030518
 30
0.0
 11
-48.399990821
 21
-26.500030518
 31
0.0
  0
ARC
  5
A2
330
1D
100
AcDbEntity
  8
SK1
100
AcDbCircle
 10
-0.600006104
 20
38.520050049
 30
0.0
 40
1.000000043
100
AcDbArc
 50
270.0
 51
306.8703329660744
  0
LINE
  5
A3
330
1D
100
AcDbEntity
  8
SK1
100
AcDbLine
 10
-0.600006104
 20
37.520019531
 30
0.0
 11
-1.600006104
 21
37.520050049
 31
0.0
  0
ARC
  5
A4
330
1D
100
AcDbEntity
  8
SK1
100
AcDbCircle
 10
-1.600006104
 20
38.520050049
 30
0.0
 40
1.0
100
AcDbArc
 50
219.680873622
 51
270.0
  0
LINE
  5
A5
330
1D
100
AcDbEntity
  8
SK1
100
AcDbLine
 10
-2.369628906
 20
37.881530762
 30
0.0
 11
-2.369628906
 21
-37.881529392
 31
0.0
  0
ARC
  5
A6
330
1D
100
AcDbEntity
  8
SK1
100
AcDbCircle
 10
-47.900021338
 20
33.59753418
 30
0.0
 40
2.000008464
100
AcDbArc
 50
92.86243222900002
 51
180.0
  0
LINE
  5
A7
330
1D
100
AcDbEntity
  8
SK1
100
AcDbLine
 10
-48.000146581
 20
35.600020103
 30
0.0
 11
-2.369628906
 21
37.881530762
 31
0.0
  0
ARC
  5
A8
330
1D
100
AcDbEntity
  8
1
100
AcDbCircle
 10
20.875
 20
47.000030518
 30
0.0
 40
1.000000119
100
AcDbArc
 50
270.0
 51
0.0
  0
LINE
  5
A9
330
1D
100
AcDbEntity
  8
1
100
AcDbLine
 10
20.875
 20
46.0
 30
0.0
 11
19.125
 21
46.000030518
 31
0.0
  0
ARC
  5
AA
330
1D
100
AcDbEntity
  8
1
100
AcDbCircle
 10
19.125
 20
47.000030518
 30
0.0
 40
1.0
100
AcDbArc
 50
180.0
 51
270.0
  0
LINE
  5
AB
330
1D
100
AcDbEntity
  8
1
100
AcDbLine
 10
18.125
 20
31.5
 30
0.0
 11
14.636871338
 21
31.5
 31
0.0
  0
ARC
  5
AC
330
1D
100
AcDbEntity
  8
1
100
AcDbCircle
 10
14.636871338
 20
41.5
 30
0.0
 40
10.0
100
AcDbArc
 50
195.48756148
 51
270.0
  0
LINE
  5
AD
330
1D
100
AcDbEntity
  8
1
100
AcDbLine
 10
5.0
 20
38.829711914
 30
0.0
 11
16.752410889
 21
38.829711914
 31
0.0
  0
LINE
  5
AE
330
1D
100
AcDbEntity
  8
1
100
AcDbLine
 10
16.752410889
 20
38.829711914
 30
0.0
 11
16.752410889
 21
50.0
 31
0.0
  0
LINE
  5
AF
330
1D
100
AcDbEntity
  8
1
100
AcDbLine
 10
16.752410889
 20
50.0
 30
0.0
 11
18.124969482
 21
47.622589111
 31
0.0
  0
LINE
  5
B0
330
1D
100
AcDbEntity
  8
1
100
AcDbLine
 10
18.124969482
 20
47.622589111
 30
0.0
 11
18.125046741
 21
-47.622508154
 31
0.0
  0
LINE
  5
B1
330
1D
100
AcDbEntity
  8
1
100
AcDbLine
 10
28.95
 20
42.0
 30
0.0
 11
47.0
 21
42.0
 31
0.0
  0
LINE
  5
B2
330
1D
100
AcDbEntity
  8
1
100
AcDbLine
 10
47.0
 20
42.0
 30
0.0
 11
50.000003815
 21
45.000003815
 31
0.0
  0
LINE
  5
B3
330
1D
100
AcDbEntity
  8
1
100
AcDbLine
 10
50.000003815
 20
45.000003815
 30
0.0
 11
126.0
 21
45.000003815
 31
0.0
  0
LINE
  5
B4
330
1D
100
AcDbEntity
  8
1
100
AcDbLine
 10
126.0
 20
45.000003815
 30
0.0
 11
127.0
 21
44.000003815
 31
0.0
  0
LINE
  5
B6
330
1D
100
AcDbEntity
  8
SK4
100
AcDbLine
 10
-54.923116526
 20
0.0
 30
0.0
 11
131.496926966
 21
0.0
 31
0.0
  0
LINE
  5
B7
330
1D
100
AcDbEntity
  8
3
100
AcDbLine
 10
13.5
 20
-11.250030518
 30
0.0
 11
13.5
 21
11.250030518
 31
0.0
  0
LINE
  5
B9
330
1D
100
AcDbEntity
  8
11
100
AcDbLine
 10
12.75
 20
-12.000030518
 30
0.0
 11
26.25
 21
-12.000030518
 31
0.0
  0
LINE
  5
BB
330
1D
100
AcDbEntity
  8
SK3
100
AcDbLine
 10
-27.116638184
 20
-31.31652832
 30
0.0
 11
-27.116638184
 21
31.31652832
 31
0.0
  0
LINE
  5
BC
330
1D
100
AcDbEntity
  8
SK3
100
AcDbLine
 10
-30.003417969
 20
-26.500030518
 30
0.0
 11
-30.003417969
 21
26.500030518
 31
0.0
  0
LINE
  5
BD
330
1D
100
AcDbEntity
  8
SK1
100
AcDbLine
 10
-49.899990821
 20
-27.366023112
 30
0.0
 11
-49.899990821
 21
33.59753418
 31
0.0
  0
LINE
  5
BE
330
1D
100
AcDbEntity
  8
1
100
AcDbLine
 10
23.247589111
 20
50.0
 30
0.0
 11
23.247589111
 21
38.829711914
 31
0.0
  0
LINE
  5
BF
330
1D
100
AcDbEntity
  8
1
100
AcDbLine
 10
23.247589111
 20
38.829711914
 30
0.0
 11
28.95
 21
38.829711914
 31
0.0
  0
LINE
  5
C0
330
1D
100
AcDbEntity
  8
1
100
AcDbLine
 10
28.95
 20
31.5
 30
0.0
 11
21.875
 21
31.5
 31
0.0
  0
LINE
  5
C1
330
1D
100
AcDbEntity
  8
1
100
AcDbLine
 10
16.752410889
 20
38.829711914
 30
0.0
 11
18.125
 21
36.452301025
 31
0.0
  0
LINE
  5
C2
330
1D
100
AcDbEntity
  8
1
100
AcDbLine
 10
23.247589111
 20
38.829711914
 30
0.0
 11
21.874969482
 21
36.452301025
 31
0.0
  0
LINE
  5
C3
330
1D
100
AcDbEntity
  8
1
100
AcDbLine
 10
16.752410889
 20
31.5
 30
0.0
 11
16.752410889
 21
-50.0
 31
0.0
  0
LINE
  5
C4
330
1D
100
AcDbEntity
  8
1
100
AcDbLine
 10
23.247589111
 20
31.5
 30
0.0
 11
23.247589111
 21
-50.0
 31
0.0
  0
LINE
  5
C6
330
1D
100
AcDbEntity
  8
1
100
AcDbLine
 10
47.0
 20
42.0
 30
0.0
 11
47.0
 21
-42.0
 31
0.0
  0
LINE
  5
C7
330
1D
100
AcDbEntity
  8
1
100
AcDbLine
 10
50.000003815
 20
45.000003815
 30
0.0
 11
50.000003815
 21
-45.000003815
 31
0.0
  0
LINE
  5
C8
330
1D
100
AcDbEntity
  8
1
100
AcDbLine
 10
126.0
 20
45.000003815
 30
0.0
 11
126.0
 21
-45.000003815
 31
0.0
  0
LINE
  5
C9
330
1D
100
AcDbEntity
  8
3
100
AcDbLine
 10
35.0
 20
-18.05
 30
0.0
 11
35.0
 21
18.05
 31
0.0
  0
LINE
  5
CA
330
1D
100
AcDbEntity
  8
3
100
AcDbLine
 10
32.218021661
 20
-6.0
 30
0.0
 11
32.218021661
 21
6.0
 31
0.0
  0
LINE
  5
CB
330
1D
100
AcDbEntity
  8
3
100
AcDbLine
 10
53.0
 20
19.000003815
 30
0.0
 11
53.0
 21
-19.000003815
 31
0.0
  0
LINE
  5
CC
330
1D
100
AcDbEntity
  8
3
100
AcDbLine
 10
75.0
 20
23.500026703
 30
0.0
 11
75.0
 21
-23.500026703
 31
0.0
  0
LINE
  5
CE
330
1D
100
AcDbEntity
  8
3
100
AcDbLine
 10
80.494376687
 20
23.00325
 30
0.0
 11
80.494376687
 21
-23.00325
 31
0.0
  0
LINE
  5
CF
330
1D
100
AcDbEntity
  8
1
100
AcDbLine
 10
16.752410889
 20
50.0
 30
0.0
 11
0.4
 21
50.0
 31
0.0
  0
LINE
  5
D0
330
1D
100
AcDbEntity
  8
1
100
AcDbLine
 10
50.000003815
 20
-45.000003815
 30
0.0
 11
126.0
 21
-45.000003815
 31
0.0
  0
LINE
  5
D1
330
1D
100
AcDbEntity
  8
1
100
AcDbLine
 10
126.0
 20
-45.000003815
 30
0.0
 11
127.0
 21
-44.000003815
 31
0.0
  0
LINE
  5
D2
330
1D
100
AcDbEntity
  8
1
100
AcDbLine
 10
127.0
 20
-44.000003815
 30
0.0
 11
127.0
 21
44.000003815
 31
0.0
  0
LINE
  5
D3
330
1D
100
AcDbEntity
  8
SK3
100
AcDbLine
 10
127.0
 20
-23.500003815
 30
0.0
 11
126.139534103
 21
-23.00325
 31
0.0
  0
LINE
  5
D4
330
1D
100
AcDbEntity
  8
3
100
AcDbLine
 10
126.139534103
 20
-23.00325
 30
0.0
 11
80.494377994
 21
-23.00325
 31
0.0
  0
LINE
  5
D5
330
1D
100
AcDbEntity
  8
3
100
AcDbLine
 10
80.494377994
 20
-23.00325
 30
0.0
 11
79.634033203
 21
-23.500019073
 31
0.0
  0
LINE
  5
D6
330
1D
100
AcDbEntity
  8
3
100
AcDbLine
 10
79.634033203
 20
-23.500019073
 30
0.0
 11
75.0
 21
-23.500019073
 31
0.0
  0
LINE
  5
D8
330
1D
100
AcDbEntity
  8
3
100
AcDbLine
 10
75.0
 20
-22.000003815
 30
0.0
 11
71.400024414
 21
-22.000003823
 31
0.0
  0
ARC
  5
D9
330
1D
100
AcDbEntity
  8
3
100
AcDbCircle
 10
71.400024414
 20
-21.600009918
 30
0.0
 40
0.399993905
100
AcDbArc
 50
180.0
 51
270.0
  0
LINE
  5
DB
330
1D
100
AcDbEntity
  8
3
100
AcDbLine
 10
71.000030509
 20
-18.05
 30
0.0
 11
35.0
 21
-18.05
 31
0.0
  0
LINE
  5
DC
330
1D
100
AcDbEntity
  8
3
100
AcDbLine
 10
35.0
 20
-18.05
 30
0.0
 11
32.218021661
 21
-6.0
 31
0.0
  0
LINE
  5
DD
330
1D
100
AcDbEntity
  8
3
100
AcDbLine
 10
32.218021661
 20
-6.0
 30
0.0
 11
28.5
 21
-6.0
 31
0.0
  0
LINE
  5
DE
330
1D
100
AcDbEntity
  8
3
100
AcDbLine
 10
28.5
 20
12.250030518
 30
0.0
 11
28.5
 21
-12.250030518
 31
0.0
  0
LINE
  5
DF
330
1D
100
AcDbEntity
  8
3
100
AcDbLine
 10
28.5
 20
-12.250030518
 30
0.0
 11
26.25
 21
-12.250030518
 31
0.0
  0
LINE
  5
E0
330
1D
100
AcDbEntity
  8
3
100
AcDbLine
 10
26.25
 20
-12.250030518
 30
0.0
 11
26.25
 21
12.250030518
 31
0.0
  0
LINE
  5
E1
330
1D
100
AcDbEntity
  8
3
100
AcDbLine
 10
26.25
 20
-11.250030518
 30
0.0
 11
13.5
 21
-11.250030518
 31
0.0
  0
LINE
  5
E2
330
1D
100
AcDbEntity
  8
3
100
AcDbLine
 10
13.5
 20
-11.250030518
 30
0.0
 11
12.5
 21
-12.250030518
 31
0.0
  0
LINE
  5
E3
330
1D
100
AcDbEntity
  8
3
100
AcDbLine
 10
12.5
 20
24.375030518
 30
0.0
 11
12.5
 21
-24.375030518
 31
0.0
  0
ARC
  5
E4
330
1D
100
AcDbEntity
  8
3
100
AcDbCircle
 10
10.0
 20
-24.375030518
 30
0.0
 40
2.5
100
AcDbArc
 50
270.0
 51
0.0
  0
LINE
  5
E5
330
1D
100
AcDbEntity
  8
3
100
AcDbLine
 10
10.0
 20
-26.875030518
 30
0.0
 11
0.0
 21
-26.87502745800096
 31
0.0
  0
ARC
  5
E6
330
1D
100
AcDbEntity
  8
SK3
100
AcDbCircle
 10
-9.4662323
 20
-19.500030518
 30
0.0
 40
12.00000308
100
AcDbArc
 50
270.0
 51
322.07837919
  0
LINE
  5
E7
330
1D
100
AcDbEntity
  8
SK3
100
AcDbLine
 10
-9.4662323
 20
-31.500030518
 30
0.0
 11
-26.539306734
 21
-31.500030577
 31
0.0
  0
ARC
  5
E8
330
1D
100
AcDbEntity
  8
SK3
100
AcDbCircle
 10
-26.539306641
 20
-30.500030518
 30
0.0
 40
1.00000006
100
AcDbArc
 50
209.999930436
 51
269.9999946359999
  0
LINE
  5
E9
330
1D
100
AcDbEntity
  8
SK3
100
AcDbLine
 10
-27.405334473
 20
-31.000030518
 30
0.0
 11
-30.003417969
 21
-26.500030518
 31
0.0
  0
LINE
  5
EA
330
1D
100
AcDbEntity
  8
SK3
100
AcDbLine
 10
-30.003417969
 20
-26.500030518
 30
0.0
 11
-48.399990821
 21
-26.500030518
 31
0.0
  0
LINE
  5
EB
330
1D
100
AcDbEntity
  8
SK3
100
AcDbLine
 10
-48.399990821
 20
-26.500030518
 30
0.0
 11
-49.899990821
 21
-27.366023112
 31
0.0
  0
LINE
  5
EC
330
1D
100
AcDbEntity
  8
SK1
100
AcDbLine
 10
-49.899990821
 20
-27.366023112
 30
0.0
 11
-49.9
 21
-33.59753418
 31
0.0
  0
ARC
  5
ED
330
1D
100
AcDbEntity
  8
SK1
100
AcDbCircle
 10
-47.899990821
 20
-33.59753418
 30
0.0
 40
2.000009179
100
AcDbArc
 50
180.0
 51
267.136506186
  0
LINE
  5
EE
330
1D
100
AcDbEntity
  8
SK1
100
AcDbLine
 10
-48.000154761
 20
-35.600050143
 30
0.0
 11
-2.36960681
 21
-37.881530497
 31
0.0
  0
LINE
  5
F2
330
1D
100
AcDbEntity
  8
1
100
AcDbLine
 10
0.0
 20
-49.6
 30
0.0
 11
0.4
 21
-50.0
 31
0.0
  0
LINE
  5
F3
330
1D
100
AcDbEntity
  8
1
100
AcDbLine
 10
0.4
 20
-50.0
 30
0.0
 11
16.752380371
 21
-50.0
 31
0.0
  0
LINE
  5
F4
330
1D
100
AcDbEntity
  8
1
100
AcDbLine
 10
16.752380371
 20
-50.0
 30
0.0
 11
18.125
 21
-47.622589111
 31
0.0
  0
LINE
  5
F5
330
1D
100
AcDbEntity
  8
1
100
AcDbLine
 10
18.125
 20
-47.622589111
 30
0.0
 11
18.124999523
 21
-47.0
 31
0.0
  0
ARC
  5
F6
330
1D
100
AcDbEntity
  8
1
100
AcDbCircle
 10
19.125
 20
-47.0
 30
0.0
 40
1.000000477
100
AcDbArc
 50
90.0
 51
180.0
  0
LINE
  5
F7
330
1D
100
AcDbEntity
  8
1
100
AcDbLine
 10
19.125
 20
-46.0
 30
0.0
 11
20.875
 21
-46.000000119
 31
0.0
  0
ARC
  5
F8
330
1D
100
AcDbEntity
  8
1
100
AcDbCircle
 10
20.875
 20
-47.0
 30
0.0
 40
0.999999881
100
AcDbArc
 50
0.0
 51
90.0
  0
LINE
  5
FA
330
1D
100
AcDbEntity
  8
1
100
AcDbLine
 10
21.875
 20
-47.622589111
 30
0.0
 11
23.247619629
 21
-50.0
 31
0.0
  0
LINE
  5
FB
330
1D
100
AcDbEntity
  8
1
100
AcDbLine
 10
23.247619629
 20
-50.0
 30
0.0
 11
28.55
 21
-50.0
 31
0.0
  0
LINE
  5
FC
330
1D
100
AcDbEntity
  8
1
100
AcDbLine
 10
28.55
 20
-50.0
 30
0.0
 11
28.95
 21
-49.6
 31
0.0
  0
LINE
  5
FD
330
1D
100
AcDbEntity
  8
1
100
AcDbLine
 10
28.95
 20
-49.6
 30
0.0
 11
28.95
 21
49.59999999999999
 31
0.0
  0
LINE
  5
FE
330
1D
100
AcDbEntity
  8
1
100
AcDbLine
 10
28.95
 20
-42.0
 30
0.0
 11
47.0
 21
-42.0
 31
0.0
  0
LINE
  5
FF
330
1D
100
AcDbEntity
  8
1
100
AcDbLine
 10
47.0
 20
-42.0
 30
0.0
 11
50.000003815
 21
-45.000003815
 31
0.0
  0
LINE
  5
100
330
1D
100
AcDbEntity
  8
11
100
AcDbLine
 10
53.0
 20
-19.000003815
 30
0.0
 11
71.0
 21
-19.000003815
 31
0.0
  0
LINE
  5
101
330
1D
100
AcDbEntity
  8
1
100
AcDbLine
 10
113.14996643
 20
2.88673401
 30
0.0
 11
108.14996643
 21
5.77348328
 31
0.0
  0
LINE
  5
102
330
1D
100
AcDbEntity
  8
1
100
AcDbLine
 10
113.14993591
 20
-2.88676453
 30
0.0
 11
113.14993591
 21
2.88673401
 31
0.0
  0
LINE
  5
103
330
1D
100
AcDbEntity
  8
1
100
AcDbLine
 10
103.14998168
 20
2.88676453
 30
0.0
 11
103.14998168
 21
-2.88673401
 31
0.0
  0
LINE
  5
104
330
1D
100
AcDbEntity
  8
1
100
AcDbLine
 10
108.14996643
 20
5.77349854
 30
0.0
 11
103.14996643
 21
2.88674927
 31
0.0
  0
CIRCLE
  5
105
330
1D
100
AcDbEntity
  8
1
100
AcDbCircle
 10
108.14996643
 20
0.0
 30
0.0
 40
10.0
  0
LINE
  5
106
330
1D
100
AcDbEntity
  8
1
100
AcDbLine
 10
108.14993591
 20
-5.77349854
 30
0.0
 11
113.14993591
 21
-2.88674927
 31
0.0
  0
LINE
  5
107
330
1D
100
AcDbEntity
  8
1
100
AcDbLine
 10
103.14995117
 20
-2.88673401
 30
0.0
 11
108.14995117
 21
-5.77349854
 31
0.0
  0
LINE
  5
108
330
1D
100
AcDbEntity
  8
SK4
100
AcDbLine
 10
-10.00014496
 20
37.5
 30
0.0
 11
-10.00014496
 21
-37.5
 31
0.0
  0
LINE
  5
109
330
1D
100
AcDbEntity
  8
SK2
100
AcDbLine
 10
150.0
 20
-45.000003815
 30
0.0
 11
126.0
 21
-45.000003815
 31
0.0
  0
LINE
  5
10A
330
1D
100
AcDbEntity
  8
SK2
100
AcDbLine
 10
148.0
 20
-45.000003815
 30
0.0
 11
147.55
 21
-41.500003815
 31
0.0
  0
LINE
  5
10B
330
1D
100
AcDbEntity
  8
SK2
100
AcDbLine
 10
147.55
 20
-41.500003815
 30
0.0
 11
148.45
 21
-41.500003815
 31
0.0
  0
LINE
  5
10C
330
1D
100
AcDbEntity
  8
SK2
100
AcDbLine
 10
148.45
 20
-41.500003815
 30
0.0
 11
148.0
 21
-45.000003815
 31
0.0
  0
LINE
  5
10D
330
1D
100
AcDbEntity
  8
SK2
100
AcDbLine
 10
148.0
 20
-41.600003815
 30
0.0
 11
148.0
 21
-44.900003815
 31
0.0
  0
LINE
  5
10E
330
1D
100
AcDbEntity
  8
SK2
100
AcDbLine
 10
148.2
 20
-41.600003815
 30
0.0
 11
148.2
 21
-43.344448259
 31
0.0
  0
LINE
  5
10F
330
1D
100
AcDbEntity
  8
SK2
100
AcDbLine
 10
147.8
 20
-41.600003815
 30
0.0
 11
147.8
 21
-43.344448259
 31
0.0
  0
LINE
  5
110
330
1D
100
AcDbEntity
  8
SK2
100
AcDbLine
 10
148.4
 20
-41.600003815
 30
0.0
 11
148.4
 21
-41.788892704
 31
0.0
  0
LINE
  5
111
330
1D
100
AcDbEntity
  8
SK2
100
AcDbLine
 10
147.6
 20
-41.600003815
 30
0.0
 11
147.6
 21
-41.788892704
 31
0.0
  0
LINE
  5
112
330
1D
100
AcDbEntity
  8
SK2
100
AcDbLine
 10
150.0
 20
45.000003815
 30
0.0
 11
126.0
 21
45.000003815
 31
0.0
  0
LINE
  5
113
330
1D
100
AcDbEntity
  8
SK2
100
AcDbLine
 10
148.0
 20
45.000003815
 30
0.0
 11
148.45
 21
41.500003815
 31
0.0
  0
LINE
  5
114
330
1D
100
AcDbEntity
  8
SK2
100
AcDbLine
 10
148.45
 20
41.500003815
 30
0.0
 11
147.55
 21
41.500003815
 31
0.0
  0
LINE
  5
115
330
1D
100
AcDbEntity
  8
SK2
100
AcDbLine
 10
147.55
 20
41.500003815
 30
0.0
 11
148.0
 21
45.000003815
 31
0.0
  0
LINE
  5
116
330
1D
100
AcDbEntity
  8
SK2
100
AcDbLine
 10
148.0
 20
41.600003815
 30
0.0
 11
148.0
 21
44.900003815
 31
0.0
  0
LINE
  5
117
330
1D
100
AcDbEntity
  8
SK2
100
AcDbLine
 10
147.8
 20
41.600003815
 30
0.0
 11
147.8
 21
43.344448259
 31
0.0
  0
LINE
  5
118
330
1D
100
AcDbEntity
  8
SK2
100
AcDbLine
 10
148.2
 20
41.600003815
 30
0.0
 11
148.2
 21
43.344448259
 31
0.0
  0
LINE
  5
119
330
1D
100
AcDbEntity
  8
SK2
100
AcDbLine
 10
147.6
 20
41.600003815
 30
0.0
 11
147.6
 21
41.788892704
 31
0.0
  0
LINE
  5
11A
330
1D
100
AcDbEntity
  8
SK2
100
AcDbLine
 10
148.4
 20
41.600003815
 30
0.0
 11
148.4
 21
41.788892704
 31
0.0
  0
LINE
  5
11B
330
1D
100
AcDbEntity
  8
SK2
100
AcDbLine
 10
148.0
 20
-41.500003815
 30
0.0
 11
148.0
 21
41.500003815
 31
0.0
  0
TEXT
  5
11C
330
1D
100
AcDbEntity
  8
SK2
100
AcDbText
 10
146.5
 20
0.139998994
 30
0.0
 40
3.5
  1
90
 50
90.0
  7
BMG_Text
100
AcDbText
  0
CIRCLE
  5
11D
330
1D
100
AcDbEntity
  8
SK2
100
AcDbCircle
 10
145.25
 20
-2.110001006
 30
0.0
 40
1.25
  0
LINE
  5
11E
330
1D
100
AcDbEntity
  8
SK2
100
AcDbLine
 10
146.5
 20
-3.360001006
 30
0.0
 11
144.0
 21
-0.860001006
 31
0.0
  0
LINE
  5
11F
330
1D
100
AcDbEntity
  8
SK2
100
AcDbLine
 10
142.000000106
 20
-23.00325
 30
0.0
 11
126.139534103
 21
-23.00325
 31
0.0
  0
LINE
  5
120
330
1D
100
AcDbEntity
  8
SK2
100
AcDbLine
 10
140.000000106
 20
-23.00325
 30
0.0
 11
139.550000106
 21
-19.50325
 31
0.0
  0
LINE
  5
121
330
1D
100
AcDbEntity
  8
SK2
100
AcDbLine
 10
139.550000106
 20
-19.50325
 30
0.0
 11
140.450000106
 21
-19.50325
 31
0.0
  0
LINE
  5
122
330
1D
100
AcDbEntity
  8
SK2
100
AcDbLine
 10
140.450000106
 20
-19.50325
 30
0.0
 11
140.000000106
 21
-23.00325
 31
0.0
  0
LINE
  5
123
330
1D
100
AcDbEntity
  8
SK2
100
AcDbLine
 10
140.000000106
 20
-19.60325
 30
0.0
 11
140.000000106
 21
-22.90325
 31
0.0
  0
LINE
  5
124
330
1D
100
AcDbEntity
  8
SK2
100
AcDbLine
 10
140.200000106
 20
-19.60325
 30
0.0
 11
140.200000106
 21
-21.347694444
 31
0.0
  0
LINE
  5
125
330
1D
100
AcDbEntity
  8
SK2
100
AcDbLine
 10
139.800000106
 20
-19.60325
 30
0.0
 11
139.800000106
 21
-21.347694444
 31
0.0
  0
LINE
  5
126
330
1D
100
AcDbEntity
  8
SK2
100
AcDbLine
 10
140.400000106
 20
-19.60325
 30
0.0
 11
140.400000106
 21
-19.792138889
 31
0.0
  0
LINE
  5
127
330
1D
100
AcDbEntity
  8
SK2
100
AcDbLine
 10
139.600000106
 20
-19.60325
 30
0.0
 11
139.600000106
 21
-19.792138889
 31
0.0
  0
LINE
  5
128
330
1D
100
AcDbEntity
  8
SK2
100
AcDbLine
 10
142.000000106
 20
23.00325
 30
0.0
 11
126.139534103
 21
23.00325
 31
0.0
  0
LINE
  5
129
330
1D
100
AcDbEntity
  8
SK2
100
AcDbLine
 10
140.000000106
 20
23.00325
 30
0.0
 11
140.450000106
 21
19.50325
 31
0.0
  0
LINE
  5
12A
330
1D
100
AcDbEntity
  8
SK2
100
AcDbLine
 10
140.450000106
 20
19.50325
 30
0.0
 11
139.550000106
 21
19.50325
 31
0.0
  0
LINE
  5
12B
330
1D
100
AcDbEntity
  8
SK2
100
AcDbLine
 10
139.550000106
 20
19.50325
 30
0.0
 11
140.000000106
 21
23.00325
 31
0.0
  0
LINE
  5
12C
330
1D
100
AcDbEntity
  8
SK2
100
AcDbLine
 10
140.000000106
 20
19.60325
 30
0.0
 11
140.000000106
 21
22.90325
 31
0.0
  0
LINE
  5
12D
330
1D
100
AcDbEntity
  8
SK2
100
AcDbLine
 10
139.800000106
 20
19.60325
 30
0.0
 11
139.800000106
 21
21.347694444
 31
0.0
  0
LINE
  5
12E
330
1D
100
AcDbEntity
  8
SK2
100
AcDbLine
 10
140.200000106
 20
19.60325
 30
0.0
 11
140.200000106
 21
21.347694444
 31
0.0
  0
LINE
  5
12F
330
1D
100
AcDbEntity
  8
SK2
100
AcDbLine
 10
139.600000106
 20
19.60325
 30
0.0
 11
139.600000106
 21
19.792138889
 31
0.0
  0
LINE
  5
130
330
1D
100
AcDbEntity
  8
SK2
100
AcDbLine
 10
140.400000106
 20
19.60325
 30
0.0
 11
140.400000106
 21
19.792138889
 31
0.0
  0
LINE
  5
131
330
1D
100
AcDbEntity
  8
SK2
100
AcDbLine
 10
140.000000106
 20
-19.50325
 30
0.0
 11
140.000000106
 21
19.50325
 31
0.0
  0
TEXT
  5
132
330
1D
100
AcDbEntity
  8
SK2
100
AcDbText
 10
138.500000106
 20
0.139999486
 30
0.0
 40
3.5
  1
46
 50
90.0
  7
BMG_Text
100
AcDbText
  0
CIRCLE
  5
133
330
1D
100
AcDbEntity
  8
SK2
100
AcDbCircle
 10
137.250000106
 20
-2.110000514
 30
0.0
 40
1.25
  0
LINE
  5
134
330
1D
100
AcDbEntity
  8
SK2
100
AcDbLine
 10
138.500000106
 20
-3.360000514
 30
0.0
 11
136.000000106
 21
-0.860000514
 31
0.0
  0
LINE
  5
135
330
1D
100
AcDbEntity
  8
2
100
AcDbLine
 10
0.0
 20
-65.999999619
 30
0.0
 11
0.0
 21
-49.6
 31
0.0
  0
LINE
  5
136
330
1D
100
AcDbEntity
  8
2
100
AcDbLine
 10
0.0
 20
-63.999999619
 30
0.0
 11
3.5
 21
-63.549999619
 31
0.0
  0
LINE
  5
137
330
1D
100
AcDbEntity
  8
2
100
AcDbLine
 10
3.5
 20
-63.549999619
 30
0.0
 11
3.5
 21
-64.449999619
 31
0.0
  0
LINE
  5
138
330
1D
100
AcDbEntity
  8
2
100
AcDbLine
 10
3.5
 20
-64.449999619
 30
0.0
 11
0.0
 21
-63.999999619
 31
0.0
  0
LINE
  5
139
330
1D
100
AcDbEntity
  8
2
100
AcDbLine
 10
3.4
 20
-63.999999619
 30
0.0
 11
0.1
 21
-63.999999619
 31
0.0
  0
LINE
  5
13A
330
1D
100
AcDbEntity
  8
2
100
AcDbLine
 10
3.4
 20
-64.199999619
 30
0.0
 11
1.655555556
 21
-64.199999619
 31
0.0
  0
LINE
  5
13B
330
1D
100
AcDbEntity
  8
2
100
AcDbLine
 10
3.4
 20
-63.799999619
 30
0.0
 11
1.655555556
 21
-63.799999619
 31
0.0
  0
LINE
  5
13C
330
1D
100
AcDbEntity
  8
2
100
AcDbLine
 10
3.4
 20
-64.399999619
 30
0.0
 11
3.211111111
 21
-64.399999619
 31
0.0
  0
LINE
  5
13D
330
1D
100
AcDbEntity
  8
2
100
AcDbLine
 10
3.4
 20
-63.599999619
 30
0.0
 11
3.211111111
 21
-63.599999619
 31
0.0
  0
LINE
  5
13F
330
1D
100
AcDbEntity
  8
2
100
AcDbLine
 10
34.0
 20
-63.999999619
 30
0.0
 11
30.5
 21
-64.449999619
 31
0.0
  0
LINE
  5
140
330
1D
100
AcDbEntity
  8
2
100
AcDbLine
 10
30.5
 20
-64.449999619
 30
0.0
 11
30.5
 21
-63.549999619
 31
0.0
  0
LINE
  5
141
330
1D
100
AcDbEntity
  8
2
100
AcDbLine
 10
30.5
 20
-63.549999619
 30
0.0
 11
34.0
 21
-63.999999619
 31
0.0
  0
LINE
  5
142
330
1D
100
AcDbEntity
  8
2
100
AcDbLine
 10
30.6
 20
-63.999999619
 30
0.0
 11
33.9
 21
-63.999999619
 31
0.0
  0
LINE
  5
143
330
1D
100
AcDbEntity
  8
2
100
AcDbLine
 10
30.6
 20
-63.799999619
 30
0.0
 11
32.344444444
 21
-63.799999619
 31
0.0
  0
LINE
  5
144
330
1D
100
AcDbEntity
  8
2
100
AcDbLine
 10
30.6
 20
-64.199999619
 30
0.0
 11
32.344444444
 21
-64.199999619
 31
0.0
  0
LINE
  5
145
330
1D
100
AcDbEntity
  8
2
100
AcDbLine
 10
30.6
 20
-63.599999619
 30
0.0
 11
30.788888889
 21
-63.599999619
 31
0.0
  0
LINE
  5
146
330
1D
100
AcDbEntity
  8
2
100
AcDbLine
 10
30.6
 20
-64.399999619
 30
0.0
 11
30.788888889
 21
-64.399999619
 31
0.0
  0
LINE
  5
147
330
1D
100
AcDbEntity
  8
2
100
AcDbLine
 10
3.5
 20
-63.999999619
 30
0.0
 11
30.5
 21
-63.999999619
 31
0.0
  0
TEXT
  5
148
330
1D
100
AcDbEntity
  8
2
100
AcDbText
 10
15.52671837
 20
-62.499999619
 30
0.0
 40
3.5
  1
34
  7
BMG_Text
100
AcDbText
  0
LINE
  5
149
330
1D
100
AcDbEntity
  8
SK2
100
AcDbLine
 10
-62.000000002
 20
-37.5
 30
0.0
 11
-10.00014496
 21
-37.5
 31
0.0
  0
LINE
  5
14A
330
1D
100
AcDbEntity
  8
SK2
100
AcDbLine
 10
-60.000000002
 20
-37.5
 30
0.0
 11
-60.450000002
 21
-34.0
 31
0.0
  0
LINE
  5
14B
330
1D
100
AcDbEntity
  8
SK2
100
AcDbLine
 10
-60.450000002
 20
-34.0
 30
0.0
 11
-59.550000002
 21
-34.0
 31
0.0
  0
LINE
  5
14C
330
1D
100
AcDbEntity
  8
SK2
100
AcDbLine
 10
-59.550000002
 20
-34.0
 30
0.0
 11
-60.000000002
 21
-37.5
 31
0.0
  0
LINE
  5
14D
330
1D
100
AcDbEntity
  8
SK2
100
AcDbLine
 10
-60.000000002
 20
-34.1
 30
0.0
 11
-60.000000002
 21
-37.4
 31
0.0
  0
LINE
  5
14E
330
1D
100
AcDbEntity
  8
SK2
100
AcDbLine
 10
-59.800000002
 20
-34.1
 30
0.0
 11
-59.800000002
 21
-35.844444444
 31
0.0
  0
LINE
  5
14F
330
1D
100
AcDbEntity
  8
SK2
100
AcDbLine
 10
-60.200000002
 20
-34.1
 30
0.0
 11
-60.200000002
 21
-35.844444444
 31
0.0
  0
LINE
  5
150
330
1D
100
AcDbEntity
  8
SK2
100
AcDbLine
 10
-59.600000002
 20
-34.1
 30
0.0
 11
-59.600000002
 21
-34.288888889
 31
0.0
  0
LINE
  5
151
330
1D
100
AcDbEntity
  8
SK2
100
AcDbLine
 10
-60.400000002
 20
-34.1
 30
0.0
 11
-60.400000002
 21
-34.288888889
 31
0.0
  0
LINE
  5
152
330
1D
100
AcDbEntity
  8
SK2
100
AcDbLine
 10
-62.000000002
 20
37.5
 30
0.0
 11
-10.00014496
 21
37.5
 31
0.0
  0
LINE
  5
153
330
1D
100
AcDbEntity
  8
SK2
100
AcDbLine
 10
-60.000000002
 20
37.5
 30
0.0
 11
-59.550000002
 21
34.0
 31
0.0
  0
LINE
  5
154
330
1D
100
AcDbEntity
  8
SK2
100
AcDbLine
 10
-59.550000002
 20
34.0
 30
0.0
 11
-60.450000002
 21
34.0
 31
0.0
  0
LINE
  5
155
330
1D
100
AcDbEntity
  8
SK2
100
AcDbLine
 10
-60.450000002
 20
34.0
 30
0.0
 11
-60.000000002
 21
37.5
 31
0.0
  0
LINE
  5
156
330
1D
100
AcDbEntity
  8
SK2
100
AcDbLine
 10
-60.000000002
 20
34.1
 30
0.0
 11
-60.000000002
 21
37.4
 31
0.0
  0
LINE
  5
157
330
1D
100
AcDbEntity
  8
SK2
100
AcDbLine
 10
-60.200000002
 20
34.1
 30
0.0
 11
-60.200000002
 21
35.844444444
 31
0.0
  0
LINE
  5
158
330
1D
100
AcDbEntity
  8
SK2
100
AcDbLine
 10
-59.800000002
 20
34.1
 30
0.0
 11
-59.800000002
 21
35.844444444
 31
0.0
  0
LINE
  5
159
330
1D
100
AcDbEntity
  8
SK2
100
AcDbLine
 10
-60.400000002
 20
34.1
 30
0.0
 11
-60.400000002
 21
34.288888889
 31
0.0
  0
LINE
  5
15A
330
1D
100
AcDbEntity
  8
SK2
100
AcDbLine
 10
-59.600000002
 20
34.1
 30
0.0
 11
-59.600000002
 21
34.288888889
 31
0.0
  0
LINE
  5
15B
330
1D
100
AcDbEntity
  8
SK2
100
AcDbLine
 10
-60.000000002
 20
-34.0
 30
0.0
 11
-60.000000002
 21
34.0
 31
0.0
  0
TEXT
  5
15C
330
1D
100
AcDbEntity
  8
SK2
100
AcDbText
 10
-61.500000002
 20
0.194686662
 30
0.0
 40
3.5
  1
75
 50
90.0
  7
BMG_Text
100
AcDbText
  0
CIRCLE
  5
15D
330
1D
100
AcDbEntity
  8
SK2
100
AcDbCircle
 10
-62.750000002
 20
-2.055313338
 30
0.0
 40
1.25
  0
LINE
  5
15E
330
1D
100
AcDbEntity
  8
SK2
100
AcDbLine
 10
-61.500000002
 20
-3.305313338
 30
0.0
 11
-64.000000002
 21
-0.805313338
 31
0.0
  0
LINE
  5
15F
330
1D
100
AcDbEntity
  8
2
100
AcDbLine
 10
34.0
 20
-66.0
 30
0.0
 11
34.0
 21
-44.000003815
 31
0.0
  0
LINE
  5
160
330
1D
100
AcDbEntity
  8
2
100
AcDbLine
 10
34.0
 20
-64.0
 30
0.0
 11
37.5
 21
-63.55
 31
0.0
  0
LINE
  5
161
330
1D
100
AcDbEntity
  8
2
100
AcDbLine
 10
37.5
 20
-63.55
 30
0.0
 11
37.5
 21
-64.45
 31
0.0
  0
LINE
  5
162
330
1D
100
AcDbEntity
  8
2
100
AcDbLine
 10
37.5
 20
-64.45
 30
0.0
 11
34.0
 21
-64.0
 31
0.0
  0
LINE
  5
163
330
1D
100
AcDbEntity
  8
2
100
AcDbLine
 10
37.4
 20
-64.0
 30
0.0
 11
34.1
 21
-64.0
 31
0.0
  0
LINE
  5
164
330
1D
100
AcDbEntity
  8
2
100
AcDbLine
 10
37.4
 20
-64.2
 30
0.0
 11
35.655555556
 21
-64.2
 31
0.0
  0
LINE
  5
165
330
1D
100
AcDbEntity
  8
2
100
AcDbLine
 10
37.4
 20
-63.8
 30
0.0
 11
35.655555556
 21
-63.8
 31
0.0
  0
LINE
  5
166
330
1D
100
AcDbEntity
  8
2
100
AcDbLine
 10
37.4
 20
-64.4
 30
0.0
 11
37.211111111
 21
-64.4
 31
0.0
  0
LINE
  5
167
330
1D
100
AcDbEntity
  8
2
100
AcDbLine
 10
37.4
 20
-63.6
 30
0.0
 11
37.211111111
 21
-63.6
 31
0.0
  0
LINE
  5
168
330
1D
100
AcDbEntity
  8
2
100
AcDbLine
 10
37.5
 20
-64.0
 30
0.0
 11
136.3
 21
-64.0
 31
0.0
  0
TEXT
  5
169
330
1D
100
AcDbEntity
  8
2
100
AcDbText
 10
109.9349207088369
 20
-62.5
 30
0.0
 40
3.5
  1
210
  7
BMG_Text
100
AcDbText
  0
TEXT
  5
16A
330
1D
100
AcDbEntity
  8
2
100
AcDbText
 10
69.887030107
 20
-62.5
 30
0.0
 40
3.5
  1
Ausdrehtiefe
  7
BMG_Text
100
AcDbText
  0
TEXT
  5
16B
330
1D
100
AcDbEntity
  8
SK6
100
AcDbText
 10
97.00978306460819
 20
-43.238773623
 30
0.0
 40
3.5
  1
324.572N
  7
BMG_Text
100
AcDbText
  0
LINE
  5
16C
330
1D
100
AcDbEntity
  8
2
100
AcDbLine
 10
0.0
 20
60.536299324
 30
0.0
 11
0.0
 21
49.6
 31
0.0
  0
LINE
  5
16D
330
1D
100
AcDbEntity
  8
2
100
AcDbLine
 10
0.0
 20
58.536299324
 30
0.0
 11
3.500000002
 21
58.986299308
 31
0.0
  0
LINE
  5
16E
330
1D
100
AcDbEntity
  8
2
100
AcDbLine
 10
3.500000002
 20
58.986299308
 30
0.0
 11
3.499999998
 21
58.086299308
 31
0.0
  0
LINE
  5
16F
330
1D
100
AcDbEntity
  8
2
100
AcDbLine
 10
3.499999998
 20
58.086299308
 30
0.0
 11
0.0
 21
58.536299324
 31
0.0
  0
LINE
  5
170
330
1D
100
AcDbEntity
  8
2
100
AcDbLine
 10
3.4
 20
58.536299309
 30
0.0
 11
0.1
 21
58.536299324
 31
0.0
  0
LINE
  5
171
330
1D
100
AcDbEntity
  8
2
100
AcDbLine
 10
3.399999999
 20
58.336299309
 30
0.0
 11
1.655555555
 21
58.336299317
 31
0.0
  0
LINE
  5
172
330
1D
100
AcDbEntity
  8
2
100
AcDbLine
 10
3.400000001
 20
58.736299309
 30
0.0
 11
1.655555556
 21
58.736299317
 31
0.0
  0
LINE
  5
173
330
1D
100
AcDbEntity
  8
2
100
AcDbLine
 10
3.399999998
 20
58.136299309
 30
0.0
 11
3.211111109
 21
58.13629931
 31
0.0
  0
LINE
  5
174
330
1D
100
AcDbEntity
  8
2
100
AcDbLine
 10
3.400000002
 20
58.936299309
 30
0.0
 11
3.211111113
 21
58.93629931
 31
0.0
  0
LINE
  5
175
330
1D
100
AcDbEntity
  8
2
100
AcDbLine
 10
127.0
 20
60.536298752
 30
0.0
 11
127.0
 21
44.000003815
 31
0.0
  0
LINE
  5
176
330
1D
100
AcDbEntity
  8
2
100
AcDbLine
 10
127.0
 20
58.536298752
 30
0.0
 11
123.499999998
 21
58.086298768
 31
0.0
  0
LINE
  5
177
330
1D
100
AcDbEntity
  8
2
100
AcDbLine
 10
123.499999998
 20
58.086298768
 30
0.0
 11
123.500000002
 21
58.986298768
 31
0.0
  0
LINE
  5
178
330
1D
100
AcDbEntity
  8
2
100
AcDbLine
 10
123.500000002
 20
58.986298768
 30
0.0
 11
127.0
 21
58.536298752
 31
0.0
  0
LINE
  5
179
330
1D
100
AcDbEntity
  8
2
100
AcDbLine
 10
123.6
 20
58.536298767
 30
0.0
 11
126.9
 21
58.536298753
 31
0.0
  0
LINE
  5
17A
330
1D
100
AcDbEntity
  8
2
100
AcDbLine
 10
123.600000001
 20
58.736298767
 30
0.0
 11
125.344444445
 21
58.73629876
 31
0.0
  0
LINE
  5
17B
330
1D
100
AcDbEntity
  8
2
100
AcDbLine
 10
123.599999999
 20
58.336298767
 30
0.0
 11
125.344444444
 21
58.33629876
 31
0.0
  0
LINE
  5
17C
330
1D
100
AcDbEntity
  8
2
100
AcDbLine
 10
123.600000002
 20
58.936298767
 30
0.0
 11
123.788888891
 21
58.936298767
 31
0.0
  0
LINE
  5
17D
330
1D
100
AcDbEntity
  8
2
100
AcDbLine
 10
123.599999998
 20
58.136298767
 30
0.0
 11
123.788888887
 21
58.136298767
 31
0.0
  0
LINE
  5
17E
330
1D
100
AcDbEntity
  8
2
100
AcDbLine
 10
3.5
 20
58.536299308
 30
0.0
 11
123.5
 21
58.536298768
 31
0.0
  0
TEXT
  5
17F
330
1D
100
AcDbEntity
  8
2
100
AcDbText
 10
61.097029837
 20
60.036299049
 30
0.0
 40
3.5
  1
127
 50
359.999999742
  7
BMG_Text
100
AcDbText
  0
LINE
  5
180
330
1D
100
AcDbEntity
  8
SK4
100
AcDbLine
 10
108.14996643
 20
-13.026552736
 30
0.0
 11
108.14996643
 21
12.076134431
 31
0.0
  0
LINE
  5
228
330
1D
100
AcDbEntity
  8
NOCUT
100
AcDbLine
 10
0.0
 20
0.0
 30
0.0
 11
0.0
 21
49.6
 31
0.0
  0
LINE
  5
229
330
1D
100
AcDbEntity
  8
NOCUT
100
AcDbLine
 10
0.0
 20
49.6
 30
0.0
 11
0.4
 21
50.0
 31
0.0
  0
LINE
  5
22A
330
1D
100
AcDbEntity
  8
NOCUT
100
AcDbLine
 10
0.4
 20
50.0
 30
0.0
 11
16.752410889
 21
50.0
 31
0.0
  0
LINE
  5
22B
330
1D
100
AcDbEntity
  8
NOCUT
100
AcDbLine
 10
16.752410889
 20
50.0
 30
0.0
 11
18.124969482
 21
47.622589111
 31
0.0
  0
LINE
  5
22C
330
1D
100
AcDbEntity
  8
NOCUT
100
AcDbLine
 10
18.124969482
 20
47.622589111
 30
0.0
 11
18.124969482
 21
46.99173871082075
 31
0.0
  0
LINE
  5
22D
330
1D
100
AcDbEntity
  8
NOCUT
100
AcDbLine
 10
19.125
 20
46.000030518
 30
0.0
 11
20.89792539977807
 21
46.000030518
 31
0.0
  0
LINE
  5
22E
330
1D
100
AcDbEntity
  8
NOCUT
100
AcDbLine
 10
21.875000119
 20
47.000030518
 30
0.0
 11
21.875000119
 21
47.6114279515952
 31
0.0
  0
LINE
  5
22F
330
1D
100
AcDbEntity
  8
NOCUT
100
AcDbLine
 10
21.875000119
 20
47.6114279515952
 30
0.0
 11
23.247589111
 21
50.0
 31
0.0
  0
LINE
  5
230
330
1D
100
AcDbEntity
  8
NOCUT
100
AcDbLine
 10
23.247589111
 20
50.0
 30
0.0
 11
28.55
 21
50.0
 31
0.0
  0
LINE
  5
231
330
1D
100
AcDbEntity
  8
NOCUT
100
AcDbLine
 10
28.55
 20
50.0
 30
0.0
 11
28.95
 21
49.6
 31
0.0
  0
LINE
  5
232
330
1D
100
AcDbEntity
  8
NOCUT
100
AcDbLine
 10
28.95
 20
49.6
 30
0.0
 11
28.95
 21
42.0
 31
0.0
  0
LINE
  5
233
330
1D
100
AcDbEntity
  8
NOCUT
100
AcDbLine
 10
28.95
 20
42.0
 30
0.0
 11
47.0
 21
42.0
 31
0.0
  0
LINE
  5
234
330
1D
100
AcDbEntity
  8
NOCUT
100
AcDbLine
 10
47.0
 20
42.0
 30
0.0
 11
50.000003815
 21
45.000003815
 31
0.0
  0
LINE
  5
235
330
1D
100
AcDbEntity
  8
NOCUT
100
AcDbLine
 10
50.000003815
 20
45.000003815
 30
0.0
 11
126.0
 21
45.000003815
 31
0.0
  0
LINE
  5
236
330
1D
100
AcDbEntity
  8
NOCUT
100
AcDbLine
 10
126.0
 20
45.000003815
 30
0.0
 11
127.0
 21
44.000003815
 31
0.0
  0
LINE
  5
237
330
1D
100
AcDbEntity
  8
NOCUT
100
AcDbLine
 10
0.0
 20
0.0
 30
0.0
 11
127.0
 21
0.0000006850000034
 31
0.0
  0
LINE
  5
238
330
1D
100
AcDbEntity
  8
NOCUT
100
AcDbLine
 10
127.0
 20
0.0000006850000034
 30
0.0
 11
127.0
 21
44.000003815
 31
0.0
  0
ARC
  5
239
330
1D
100
AcDbEntity
  8
NOCUT
100
AcDbCircle
 10
20.87494810375666
 20
47.00005201412782
 30
0.0
 40
1.000052015474367
100
AcDbArc
 50
270.0029732810606
 51
359.9987684266607
  0
ARC
  5
23A
330
1D
100
AcDbEntity
  8
NOCUT
100
AcDbCircle
 10
19.125
 20
47.00003051800001
 30
0.0
 40
1.000000000000005
100
AcDbArc
 50
180.0000000000004
 51
269.9999999999998
  0
LWPOLYLINE
  5
247
330
1D
100
AcDbEntity
  8
INFTOTAL
100
AcDbPolyline
 90
        4
 70
     1
 43
0.0
 10
-107.2554468019729
 20
75.38161581944138
 10
-107.2554468019729
 20
-95.61203819934795
 10
191.6358996536342
 20
-95.61203819934795
 10
191.6358996536342
 20
75.38161581944138
  0
LINE
  5
271
330
1D
100
AcDbEntity
  8
SK3
100
AcDbLine
 10
0.0
 20
26.87502745800097
 30
0.0
 11
-0.0000031645269889
 21
26.87502745865912
 31
0.0
  0
LINE
  5
272
330
1D
100
AcDbEntity
  8
SK3
100
AcDbLine
 10
0.0
 20
-26.87502745800096
 30
0.0
 11
-0.0000031645269871
 21
-26.87502745865912
 31
0.0
  0
LINE
  5
278
330
1D
100
AcDbEntity
  8
SK1
100
AcDbLine
 10
-0.0000000000000003
 20
37.72005457328608
 30
0.0
 11
0.000006772343239
 21
-37.72005277783697
 31
0.0
  0
LINE
  5
27B
330
1D
100
AcDbEntity
  8
4
100
AcDbLine
 10
0.0
 20
0.0
 30
0.0
 11
131.496926966
 21
0.0
 31
0.0
  0
LINE
  5
27C
330
1D
100
AcDbEntity
  8
4
100
AcDbLine
 10
108.14996643
 20
12.076134431
 30
0.0
 11
108.14996643
 21
-13.026552736
 31
0.0
  0
LINE
  5
27E
330
1D
100
AcDbEntity
  8
SK1
100
AcDbLine
 10
-0.599999367571494
 20
-37.52001784327734
 30
0.0
 11
-1.599999367565998
 21
-37.52004854081958
 31
0.0
  0
ARC
  5
27F
330
1D
100
AcDbEntity
  8
SK1
100
AcDbCircle
 10
-1.599999188023751
 20
-38.52004854081957
 30
0.0
 40
0.9999999999999999
100
AcDbArc
 50
90.00001028701305
 51
140.3191366650128
  0
ARC
  5
280
330
1D
100
AcDbEntity
  8
SK1
100
AcDbCircle
 10
-0.5999991880237665
 20
-38.52004836127732
 30
0.0
 40
1.000000043
100
AcDbArc
 50
53.12967732093855
 51
90.00001028701308
  0
ENDSEC
  0
SECTION
  2
OBJECTS
  0
DICTIONARY
  5
C
330
0
100
AcDbDictionary
281
     1
  3
ACAD_COLOR
350
259
  3
ACAD_DETAILVIEWSTYLE
350
21B
  3
ACAD_GROUP
350
D
  3
ACAD_LAYOUT
350
1A
  3
ACAD_MATERIAL
350
1BE
  3
ACAD_MLEADERSTYLE
350
1CB
  3
ACAD_MLINESTYLE
350
17
  3
ACAD_PLOTSETTINGS
350
19
  3
ACAD_PLOTSTYLENAME
350
E
  3
ACAD_SCALELIST
350
187
  3
ACAD_SECTIONVIEWSTYLE
350
21C
  3
ACAD_TABLESTYLE
350
214
  3
ACAD_VISUALSTYLE
350
1AD
  3
ACDB_RECOMPOSE_DATA
350
28D
  3
AcDbVariableDictionary
350
1C9
  3
APPDATA
350
217
  0
SUN
  5
248
330
181
100
AcDbSun
 90
        1
290
     0
 63
     7
421
 16777215
 40
1.0
291
     1
 91
  2455826
 92
 54000000
292
     0
 70
     2
 71
   256
280
     1
  0
DICTIONARY
  5
21D
330
2
100
AcDbDictionary
280
     1
281
     1
  3
ACAD_LAYERSTATES
360
21E
  0
DICTIONARY
  5
259
102
{ACAD_REACTORS
330
C
102
}
330
C
100
AcDbDictionary
281
     1
  0
DICTIONARY
  5
21B
102
{ACAD_REACTORS
330
C
102
}
330
C
100
AcDbDictionary
281
     1
  0
DICTIONARY
  5
D
102
{ACAD_REACTORS
330
C
102
}
330
C
100
AcDbDictionary
281
     1
  0
DICTIONARY
  5
1A
102
{ACAD_REACTORS
330
C
102
}
330
C
100
AcDbDictionary
281
     1
  3
Layout1
350
1C
  3
Model
350
1E
  0
DICTIONARY
  5
1BE
102
{ACAD_REACTORS
330
C
102
}
330
C
100
AcDbDictionary
281
     1
  3
ByBlock
350
1C0
  3
ByLayer
350
1BF
  3
Global
350
1C1
  0
DICTIONARY
  5
1CB
102
{ACAD_REACTORS
330
C
102
}
330
C
100
AcDbDictionary
281
     1
  3
Standard
350
216
  0
DICTIONARY
  5
17
102
{ACAD_REACTORS
330
C
102
}
330
C
100
AcDbDictionary
281
     1
  3
Standard
350
18
  0
DICTIONARY
  5
19
102
{ACAD_REACTORS
330
C
102
}
330
C
100
AcDbDictionary
281
     1
  0
ACDBDICTIONARYWDFLT
  5
E
102
{ACAD_REACTORS
330
C
102
}
330
C
100
AcDbDictionary
281
     1
  3
Normal
350
F
100
AcDbDictionaryWithDefault
340
F
  0
DICTIONARY
  5
187
102
{ACAD_REACTORS
330
C
102
}
330
C
100
AcDbDictionary
281
     1
  3
A0
350
188
  3
A1
350
189
  3
A2
350
18A
  3
A3
350
18B
  3
A4
350
18C
  3
A5
350
18D
  3
A6
350
18E
  3
A7
350
18F
  3
A8
350
190
  3
A9
350
191
  3
B0
350
192
  3
B1
350
193
  3
B2
350
194
  3
B3
350
195
  3
B4
350
196
  3
B5
350
197
  3
B6
350
198
  3
B7
350
199
  3
B8
350
19A
  3
B9
350
19B
  3
C0
350
19C
  3
C1
350
19D
  3
C2
350
19E
  3
C3
350
19F
  3
C4
350
1A0
  3
C5
350
1A1
  3
C6
350
1A2
  3
C7
350
1A3
  3
C8
350
1A4
  3
C9
350
1A5
  3
D0
350
1A6
  3
D1
350
1A7
  3
D2
350
1A8
  0
DICTIONARY
  5
21C
102
{ACAD_REACTORS
330
C
102
}
330
C
100
AcDbDictionary
281
     1
  0
DICTIONARY
  5
214
102
{ACAD_REACTORS
330
C
102
}
330
C
100
AcDbDictionary
281
     1
  3
Standard
350
215
  0
DICTIONARY
  5
1AD
102
{ACAD_REACTORS
330
C
102
}
330
C
100
AcDbDictionary
281
     1
  3
2dWireframe
350
1B2
  3
3D Hidden
350
1B4
  3
3dWireframe
350
1B3
  3
Basic
350
1B5
  3
Brighten
350
1B9
  3
ColorChange
350
1BD
  3
Conceptual
350
1B7
  3
Dim
350
1B8
  3
EdgeColorOff
350
20E
  3
Facepattern
350
1BC
  3
Flat
350
1AE
  3
FlatWithEdges
350
1AF
  3
Gouraud
350
1B0
  3
GouraudWithEdges
350
1B1
  3
Hidden
350
20B
  3
JitterOff
350
20C
  3
Linepattern
350
1BB
  3
OverhangOff
350
20D
  3
Realistic
350
1B6
  3
Shaded
350
213
  3
Shaded with edges
350
212
  3
Shades of Gray
350
20F
  3
Sketchy
350
210
  3
Thicken
350
1BA
  3
Wireframe
350
20A
  3
X-Ray
350
211
  0
XRECORD
  5
28D
102
{ACAD_REACTORS
330
C
102
}
330
C
100
AcDbXrecord
280
     1
 90
        1
330
215
  0
DICTIONARY
  5
1C9
102
{ACAD_REACTORS
330
C
102
}
330
C
100
AcDbDictionary
281
     1
  3
CANNOSCALE
350
218
  3
CMLEADERSTYLE
350
21A
  3
CTABLESTYLE
350
219
  3
DIMASSOC
350
1CD
  3
HIDETEXT
350
1CE
  3
MSLTSCALE
350
1CC
  0
DICTIONARY
  5
217
102
{ACAD_REACTORS
330
C
102
}
330
C
100
AcDbDictionary
281
     1
  0
DICTIONARY
  5
21E
102
{ACAD_REACTORS
330
21D
102
}
330
21D
100
AcDbDictionary
281
     1
  0
LAYOUT
  5
1C
102
{ACAD_REACTORS
330
1A
102
}
330
1A
100
AcDbPlotSettings
  1

  2
none_device
  4

  6

 40
0.0
 41
0.0
 42
0.0
 43
0.0
 44
0.0
 45
0.0
 46
0.0
 47
0.0
 48
0.0
 49
0.0
140
0.0
141
0.0
142
1.0
143
1.0
 70
   688
 72
     0
 73
     0
 74
     5
  7

 75
    16
 76
     0
 77
     2
 78
   300
147
1.0
148
0.0
149
0.0
100
AcDbLayout
  1
Layout1
 70
     1
 71
     1
 10
0.0
 20
0.0
 11
12.0
 21
9.0
 12
0.0
 22
0.0
 32
0.0
 14
1.000000000000000E+20
 24
1.000000000000000E+20
 34
1.000000000000000E+20
 15
-1.000000000000000E+20
 25
-1.000000000000000E+20
 35
-1.000000000000000E+20
146
0.0
 13
0.0
 23
0.0
 33
0.0
 16
1.0
 26
0.0
 36
0.0
 17
0.0
 27
1.0
 37
0.0
 76
     0
330
1B
  0
LAYOUT
  5
1E
102
{ACAD_REACTORS
330
1A
102
}
330
1A
100
AcDbPlotSettings
  1

  2
none_device
  4

  6

 40
0.0
 41
0.0
 42
0.0
 43
0.0
 44
0.0
 45
0.0
 46
0.0
 47
0.0
 48
0.0
 49
0.0
140
0.0
141
0.0
142
1.0
143
1.0
 70
  1712
 72
     0
 73
     0
 74
     0
  7

 75
     0
 76
     0
 77
     2
 78
   300
147
1.0
148
0.0
149
0.0
100
AcDbLayout
  1
Model
 70
     1
 71
     0
 10
0.0
 20
0.0
 11
12.0
 21
9.0
 12
0.0
 22
0.0
 32
0.0
 14
-107.2554468019729
 24
-95.61203819934795
 34
0.0
 15
191.6358996536342
 25
75.38161581944138
 35
0.0
146
0.0
 13
0.0
 23
0.0
 33
0.0
 16
1.0
 26
0.0
 36
0.0
 17
0.0
 27
1.0
 37
0.0
 76
     0
330
1D
331
181
  0
MATERIAL
  5
1C0
102
{ACAD_REACTORS
330
1BE
102
}
330
1BE
100
AcDbMaterial
  1
ByBlock
 72
     1
 94
      127
  0
MATERIAL
  5
1BF
102
{ACAD_REACTORS
330
1BE
102
}
330
1BE
100
AcDbMaterial
  1
ByLayer
 72
     1
 94
      127
  0
MATERIAL
  5
1C1
102
{ACAD_REACTORS
330
1BE
102
}
330
1BE
100
AcDbMaterial
  1
Global
 72
     1
 94
      127
  0
MLEADERSTYLE
  5
216
102
{ACAD_REACTORS
330
1CB
102
}
330
1CB
100
AcDbMLeaderStyle
179
     2
170
     2
171
     1
172
     0
 90
        2
 40
0.0
 41
0.0
173
     1
 91
-1056964608
340
14
 92
       -2
290
     1
 42
0.09
291
     1
 43
0.36
  3
Standard
341
0
 44
0.18
300

342
11
174
     1
178
     1
175
     1
176
     0
 93
-1056964608
 45
0.18
292
     0
297
     0
 46
0.18
343
0
 94
-1056964608
 47
1.0
 49
1.0
140
1.0
293
     1
141
0.0
294
     1
177
     0
142
1.0
295
     0
296
     0
143
0.125
271
     0
272
     9
273
     9
298
     0
  0
MLINESTYLE
  5
18
102
{ACAD_REACTORS
330
17
102
}
330
17
100
AcDbMlineStyle
  2
Standard
 70
     0
  3

 62
   256
 51
90.0
 52
90.0
 71
     2
 49
0.5
 62
   256
  6
BYLAYER
 49
-0.5
 62
   256
  6
BYLAYER
  0
ACDBPLACEHOLDER
  5
F
102
{ACAD_REACTORS
330
E
102
}
330
E
  0
SCALE
  5
188
102
{ACAD_REACTORS
330
187
102
}
330
187
100
AcDbScale
 70
     0
300
1:1
140
1.0
141
1.0
290
     1
  0
SCALE
  5
189
102
{ACAD_REACTORS
330
187
102
}
330
187
100
AcDbScale
 70
     0
300
1:2
140
1.0
141
2.0
290
     0
  0
SCALE
  5
18A
102
{ACAD_REACTORS
330
187
102
}
330
187
100
AcDbScale
 70
     0
300
1:4
140
1.0
141
4.0
290
     0
  0
SCALE
  5
18B
102
{ACAD_REACTORS
330
187
102
}
330
187
100
AcDbScale
 70
     0
300
1:5
140
1.0
141
5.0
290
     0
  0
SCALE
  5
18C
102
{ACAD_REACTORS
330
187
102
}
330
187
100
AcDbScale
 70
     0
300
1:8
140
1.0
141
8.0
290
     0
  0
SCALE
  5
18D
102
{ACAD_REACTORS
330
187
102
}
330
187
100
AcDbScale
 70
     0
300
1:10
140
1.0
141
10.0
290
     0
  0
SCALE
  5
18E
102
{ACAD_REACTORS
330
187
102
}
330
187
100
AcDbScale
 70
     0
300
1:16
140
1.0
141
16.0
290
     0
  0
SCALE
  5
18F
102
{ACAD_REACTORS
330
187
102
}
330
187
100
AcDbScale
 70
     0
300
1:20
140
1.0
141
20.0
290
     0
  0
SCALE
  5
190
102
{ACAD_REACTORS
330
187
102
}
330
187
100
AcDbScale
 70
     0
300
1:30
140
1.0
141
30.0
290
     0
  0
SCALE
  5
191
102
{ACAD_REACTORS
330
187
102
}
330
187
100
AcDbScale
 70
     0
300
1:40
140
1.0
141
40.0
290
     0
  0
SCALE
  5
192
102
{ACAD_REACTORS
330
187
102
}
330
187
100
AcDbScale
 70
     0
300
1:50
140
1.0
141
50.0
290
     0
  0
SCALE
  5
193
102
{ACAD_REACTORS
330
187
102
}
330
187
100
AcDbScale
 70
     0
300
1:100
140
1.0
141
100.0
290
     0
  0
SCALE
  5
194
102
{ACAD_REACTORS
330
187
102
}
330
187
100
AcDbScale
 70
     0
300
2:1
140
2.0
141
1.0
290
     0
  0
SCALE
  5
195
102
{ACAD_REACTORS
330
187
102
}
330
187
100
AcDbScale
 70
     0
300
4:1
140
4.0
141
1.0
290
     0
  0
SCALE
  5
196
102
{ACAD_REACTORS
330
187
102
}
330
187
100
AcDbScale
 70
     0
300
8:1
140
8.0
141
1.0
290
     0
  0
SCALE
  5
197
102
{ACAD_REACTORS
330
187
102
}
330
187
100
AcDbScale
 70
     0
300
10:1
140
10.0
141
1.0
290
     0
  0
SCALE
  5
198
102
{ACAD_REACTORS
330
187
102
}
330
187
100
AcDbScale
 70
     0
300
100:1
140
100.0
141
1.0
290
     0
  0
SCALE
  5
199
102
{ACAD_REACTORS
330
187
102
}
330
187
100
AcDbScale
 70
     0
300
1/128" = 1'-0"
140
0.0078125
141
12.0
290
     0
  0
SCALE
  5
19A
102
{ACAD_REACTORS
330
187
102
}
330
187
100
AcDbScale
 70
     0
300
1/64" = 1'-0"
140
0.015625
141
12.0
290
     0
  0
SCALE
  5
19B
102
{ACAD_REACTORS
330
187
102
}
330
187
100
AcDbScale
 70
     0
300
1/32" = 1'-0"
140
0.03125
141
12.0
290
     0
  0
SCALE
  5
19C
102
{ACAD_REACTORS
330
187
102
}
330
187
100
AcDbScale
 70
     0
300
1/16" = 1'-0"
140
0.0625
141
12.0
290
     0
  0
SCALE
  5
19D
102
{ACAD_REACTORS
330
187
102
}
330
187
100
AcDbScale
 70
     0
300
3/32" = 1'-0"
140
0.09375
141
12.0
290
     0
  0
SCALE
  5
19E
102
{ACAD_REACTORS
330
187
102
}
330
187
100
AcDbScale
 70
     0
300
1/8" = 1'-0"
140
0.125
141
12.0
290
     0
  0
SCALE
  5
19F
102
{ACAD_REACTORS
330
187
102
}
330
187
100
AcDbScale
 70
     0
300
3/16" = 1'-0"
140
0.1875
141
12.0
290
     0
  0
SCALE
  5
1A0
102
{ACAD_REACTORS
330
187
102
}
330
187
100
AcDbScale
 70
     0
300
1/4" = 1'-0"
140
0.25
141
12.0
290
     0
  0
SCALE
  5
1A1
102
{ACAD_REACTORS
330
187
102
}
330
187
100
AcDbScale
 70
     0
300
3/8" = 1'-0"
140
0.375
141
12.0
290
     0
  0
SCALE
  5
1A2
102
{ACAD_REACTORS
330
187
102
}
330
187
100
AcDbScale
 70
     0
300
1/2" = 1'-0"
140
0.5
141
12.0
290
     0
  0
SCALE
  5
1A3
102
{ACAD_REACTORS
330
187
102
}
330
187
100
AcDbScale
 70
     0
300
3/4" = 1'-0"
140
0.75
141
12.0
290
     0
  0
SCALE
  5
1A4
102
{ACAD_REACTORS
330
187
102
}
330
187
100
AcDbScale
 70
     0
300
1" = 1'-0"
140
1.0
141
12.0
290
     0
  0
SCALE
  5
1A5
102
{ACAD_REACTORS
330
187
102
}
330
187
100
AcDbScale
 70
     0
300
1-1/2" = 1'-0"
140
1.5
141
12.0
290
     0
  0
SCALE
  5
1A6
102
{ACAD_REACTORS
330
187
102
}
330
187
100
AcDbScale
 70
     0
300
3" = 1'-0"
140
3.0
141
12.0
290
     0
  0
SCALE
  5
1A7
102
{ACAD_REACTORS
330
187
102
}
330
187
100
AcDbScale
 70
     0
300
6" = 1'-0"
140
6.0
141
12.0
290
     0
  0
SCALE
  5
1A8
102
{ACAD_REACTORS
330
187
102
}
330
187
100
AcDbScale
 70
     0
300
1'-0" = 1'-0"
140
12.0
141
12.0
290
     0
  0
TABLESTYLE
  5
215
102
{ACAD_REACTORS
330
214
102
}
102
{ACAD_XDICTIONARY
360
28B
102
}
330
214
100
AcDbTableStyle
  3
Standard
 70
     0
 71
     0
 40
0.06
 41
0.06
280
     0
281
     0
  7
Standard
140
0.18
170
     2
 62
     0
 63
   257
283
     0
 90
        4
 91
        0
  1

274
    -2
284
     1
 64
     0
275
    -2
285
     1
 65
     0
276
    -2
286
     1
 66
     0
277
    -2
287
     1
 67
     0
278
    -2
288
     1
 68
     0
279
    -2
289
     1
 69
     0
  7
Standard
140
0.25
170
     5
 62
     0
 63
   257
283
     0
 90
        4
 91
        0
  1

274
    -2
284
     1
 64
     0
275
    -2
285
     1
 65
     0
276
    -2
286
     1
 66
     0
277
    -2
287
     1
 67
     0
278
    -2
288
     1
 68
     0
279
    -2
289
     1
 69
     0
  7
Standard
140
0.18
170
     5
 62
     0
 63
   257
283
     0
 90
        4
 91
        0
  1

274
    -2
284
     1
 64
     0
275
    -2
285
     1
 65
     0
276
    -2
286
     1
 66
     0
277
    -2
287
     1
 67
     0
278
    -2
288
     1
 68
     0
279
    -2
289
     1
 69
     0
  0
VISUALSTYLE
  5
1B2
102
{ACAD_REACTORS
330
1AD
102
}
330
1AD
100
AcDbVisualStyle
  2
2dWireframe
 70
     4
177
     3
291
     0
 70
    58
 90
        0
176
     1
 90
        2
176
     1
 90
        0
176
     1
 90
        0
176
     1
 40
-0.6
176
     1
 40
-30.0
176
     1
 62
     7
176
     1
 90
        1
176
     1
 90
        4
176
     1
 62
     7
176
     1
 62
   257
176
     1
 90
        1
176
     1
 90
        1
176
     1
 40
1.0
176
     1
 90
        0
176
     1
 62
   257
176
     1
 40
1.0
176
     1
 90
        1
176
     1
 90
        6
176
     1
 90
        2
176
     1
 62
     7
176
     1
 90
        5
176
     1
 90
        0
176
     1
 90
        0
176
     1
290
     0
176
     1
 90
        1
176
     1
 40
0.0
176
     1
 90
        0
176
     1
290
     1
176
     1
290
     1
176
     1
290
     0
176
     1
290
     0
176
     1
290
     0
176
     1
290
     0
176
     1
290
     0
176
     1
290
     0
176
     1
290
     0
176
     1
 90
       50
176
     1
 40
0.0
176
     1
 40
1.0
176
     1
 90
        0
176
     1
 62
    18
420
        0
176
     1
 90
       50
176
     1
 90
        3
176
     1
 62
     5
420
      255
176
     1
290
     0
176
     1
 90
       50
176
     1
 90
       50
176
     1
 90
       50
176
     1
290
     0
176
     1
 90
       50
176
     1
 62
   256
176
     0
 40
1.0
176
     0
 90
        2
176
     1
  1
strokes_ogs.tif
176
     1
290
     0
176
     1
 40
1.0
176
     1
 40
1.0
176
     1
  0
VISUALSTYLE
  5
1B4
102
{ACAD_REACTORS
330
1AD
102
}
330
1AD
100
AcDbVisualStyle
  2
3D Hidden
 70
     6
177
     3
291
     0
 70
    58
 90
        1
176
     1
 90
        2
176
     1
 90
        2
176
     1
 90
        0
176
     1
 40
-0.6
176
     1
 40
-30.0
176
     1
 62
     7
176
     1
 90
        2
176
     1
 90
        2
176
     1
 62
     7
176
     1
 62
   257
176
     1
 90
        2
176
     1
 90
        1
176
     1
 40
40.0
176
     1
 90
        0
176
     1
 62
   257
176
     1
 40
1.0
176
     1
 90
        1
176
     1
 90
        6
176
     1
 90
        2
176
     1
 62
     7
176
     1
 90
        3
176
     1
 90
        0
176
     1
 90
        0
176
     1
290
     0
176
     1
 90
        1
176
     1
 40
0.0
176
     1
 90
        0
176
     1
290
     0
176
     1
290
     1
176
     1
290
     1
176
     1
290
     0
176
     1
290
     0
176
     1
290
     0
176
     1
290
     0
176
     1
290
     0
176
     1
290
     0
176
     1
 90
       50
176
     1
 40
0.0
176
     1
 40
1.0
176
     1
 90
        0
176
     1
 62
    18
420
        0
176
     1
 90
       50
176
     1
 90
        3
176
     1
 62
     5
420
      255
176
     1
290
     0
176
     1
 90
       50
176
     1
 90
       50
176
     1
 90
       50
176
     1
290
     0
176
     1
 90
       50
176
     1
 62
   256
176
     0
 40
1.0
176
     0
 90
        2
176
     1
  1
strokes_ogs.tif
176
     1
290
     0
176
     1
 40
1.0
176
     1
 40
1.0
176
     1
  0
VISUALSTYLE
  5
1B3
102
{ACAD_REACTORS
330
1AD
102
}
330
1AD
100
AcDbVisualStyle
  2
3dWireframe
 70
     5
177
     3
291
     0
 70
    58
 90
        0
176
     1
 90
        2
176
     1
 90
        0
176
     1
 90
        0
176
     1
 40
-0.6
176
     1
 40
-30.0
176
     1
 62
     7
176
     1
 90
        1
176
     1
 90
        4
176
     1
 62
     7
176
     1
 62
   257
176
     1
 90
        1
176
     1
 90
        1
176
     1
 40
1.0
176
     1
 90
        0
176
     1
 62
   257
176
     1
 40
1.0
176
     1
 90
        1
176
     1
 90
        6
176
     1
 90
        2
176
     1
 62
     7
176
     1
 90
        5
176
     1
 90
        0
176
     1
 90
        0
176
     1
290
     0
176
     1
 90
        1
176
     1
 40
0.0
176
     1
 90
        0
176
     1
290
     0
176
     1
290
     1
176
     1
290
     1
176
     1
290
     0
176
     1
290
     0
176
     1
290
     0
176
     1
290
     0
176
     1
290
     0
176
     1
290
     0
176
     1
 90
       50
176
     1
 40
0.0
176
     1
 40
1.0
176
     1
 90
        0
176
     1
 62
    18
420
        0
176
     1
 90
       50
176
     1
 90
        3
176
     1
 62
     5
420
      255
176
     1
290
     0
176
     1
 90
       50
176
     1
 90
       50
176
     1
 90
       50
176
     1
290
     0
176
     1
 90
       50
176
     1
 62
   256
176
     0
 40
1.0
176
     0
 90
        2
176
     1
  1
strokes_ogs.tif
176
     1
290
     0
176
     1
 40
1.0
176
     1
 40
1.0
176
     1
  0
VISUALSTYLE
  5
1B5
102
{ACAD_REACTORS
330
1AD
102
}
330
1AD
100
AcDbVisualStyle
  2
Basic
 70
     7
177
     3
291
     1
 70
    58
 90
        1
176
     1
 90
        0
176
     1
 90
        1
176
     1
 90
        0
176
     1
 40
-0.6
176
     1
 40
-30.0
176
     1
 62
     7
176
     1
 90
        0
176
     1
 90
        4
176
     1
 62
     7
176
     1
 62
   257
176
     1
 90
        1
176
     1
 90
        1
176
     1
 40
1.0
176
     1
 90
        8
176
     1
 62
     7
176
     1
 40
1.0
176
     1
 90
        1
176
     1
 90
        6
176
     1
 90
        2
176
     1
 62
     7
176
     1
 90
        5
176
     1
 90
        0
176
     1
 90
        0
176
     1
290
     0
176
     1
 90
        1
176
     1
 40
0.0
176
     1
 90
        0
176
     1
290
     0
176
     1
290
     1
176
     1
290
     1
176
     1
290
     0
176
     1
290
     0
176
     1
290
     0
176
     1
290
     0
176
     1
290
     0
176
     1
290
     0
176
     1
 90
       50
176
     1
 40
0.0
176
     1
 40
1.0
176
     1
 90
        0
176
     1
 62
    18
420
        0
176
     1
 90
       50
176
     1
 90
        3
176
     1
 62
     5
420
      255
176
     1
290
     0
176
     1
 90
       50
176
     1
 90
       50
176
     1
 90
       50
176
     1
290
     0
176
     1
 90
       50
176
     1
 62
   256
176
     0
 40
1.0
176
     0
 90
        2
176
     1
  1
strokes_ogs.tif
176
     1
290
     0
176
     1
 40
1.0
176
     1
 40
1.0
176
     1
  0
VISUALSTYLE
  5
1B9
102
{ACAD_REACTORS
330
1AD
102
}
330
1AD
100
AcDbVisualStyle
  2
Brighten
 70
    12
177
     3
291
     1
 70
    58
 90
        2
176
     1
 90
        2
176
     1
 90
        0
176
     1
 90
        0
176
     1
 40
-0.6
176
     1
 40
-30.0
176
     1
 62
     7
176
     1
 90
        1
176
     1
 90
        4
176
     1
 62
     7
176
     1
 62
   257
176
     1
 90
        1
176
     1
 90
        1
176
     1
 40
1.0
176
     1
 90
        8
176
     1
 62
     7
176
     1
 40
1.0
176
     1
 90
        1
176
     1
 90
        6
176
     1
 90
        2
176
     1
 62
     7
176
     1
 90
        5
176
     1
 90
        0
176
     1
 90
        0
176
     1
290
     0
176
     1
 90
        1
176
     1
 40
50.0
176
     1
 90
        0
176
     1
290
     0
176
     1
290
     1
176
     1
290
     1
176
     1
290
     0
176
     1
290
     0
176
     1
290
     0
176
     1
290
     0
176
     1
290
     0
176
     1
290
     0
176
     1
 90
       50
176
     1
 40
0.0
176
     1
 40
1.0
176
     1
 90
        0
176
     1
 62
    18
420
        0
176
     1
 90
       50
176
     1
 90
        3
176
     1
 62
     5
420
      255
176
     1
290
     0
176
     1
 90
       50
176
     1
 90
       50
176
     1
 90
       50
176
     1
290
     0
176
     1
 90
       50
176
     1
 62
   256
176
     0
 40
1.0
176
     0
 90
        2
176
     1
  1
strokes_ogs.tif
176
     1
290
     0
176
     1
 40
1.0
176
     1
 40
1.0
176
     1
  0
VISUALSTYLE
  5
1BD
102
{ACAD_REACTORS
330
1AD
102
}
330
1AD
100
AcDbVisualStyle
  2
ColorChange
 70
    16
177
     3
291
     1
 70
    58
 90
        2
176
     1
 90
        2
176
     1
 90
        3
176
     1
 90
        0
176
     1
 40
-0.6
176
     1
 40
-30.0
176
     1
 62
     8
176
     1
 90
        1
176
     1
 90
        4
176
     1
 62
     7
176
     1
 62
   257
176
     1
 90
        1
176
     1
 90
        1
176
     1
 40
1.0
176
     1
 90
        8
176
     1
 62
     8
176
     1
 40
1.0
176
     1
 90
        1
176
     1
 90
        6
176
     1
 90
        2
176
     1
 62
     7
176
     1
 90
        5
176
     1
 90
        0
176
     1
 90
        0
176
     1
290
     0
176
     1
 90
        1
176
     1
 40
0.0
176
     1
 90
        0
176
     1
290
     0
176
     1
290
     1
176
     1
290
     1
176
     1
290
     0
176
     1
290
     0
176
     1
290
     0
176
     1
290
     0
176
     1
290
     0
176
     1
290
     0
176
     1
 90
       50
176
     1
 40
0.0
176
     1
 40
1.0
176
     1
 90
        0
176
     1
 62
    18
420
        0
176
     1
 90
       50
176
     1
 90
        3
176
     1
 62
     5
420
      255
176
     1
290
     0
176
     1
 90
       50
176
     1
 90
       50
176
     1
 90
       50
176
     1
290
     0
176
     1
 90
       50
176
     1
 62
   256
176
     0
 40
1.0
176
     0
 90
        2
176
     1
  1
strokes_ogs.tif
176
     1
290
     0
176
     1
 40
1.0
176
     1
 40
1.0
176
     1
  0
VISUALSTYLE
  5
1B7
102
{ACAD_REACTORS
330
1AD
102
}
330
1AD
100
AcDbVisualStyle
  2
Conceptual
 70
     9
177
     3
291
     0
 70
    58
 90
        3
176
     1
 90
        2
176
     1
 90
        0
176
     1
 90
        0
176
     1
 40
-0.6
176
     1
 40
-30.0
176
     1
 62
     7
176
     1
 90
        2
176
     1
 90
        2
176
     1
 62
     7
176
     1
 62
   257
176
     1
 90
        1
176
     1
 90
        1
176
     1
 40
40.0
176
     1
 90
        8
176
     1
 62
     7
176
     1
 40
1.0
176
     1
 90
        1
176
     1
 90
        6
176
     1
 90
        2
176
     1
 62
     7
176
     1
 90
        3
176
     1
 90
        0
176
     1
 90
        0
176
     1
290
     0
176
     1
 90
        1
176
     1
 40
0.0
176
     1
 90
        0
176
     1
290
     0
176
     1
290
     1
176
     1
290
     1
176
     1
290
     0
176
     1
290
     0
176
     1
290
     0
176
     1
290
     0
176
     1
290
     0
176
     1
290
     0
176
     1
 90
       50
176
     1
 40
0.0
176
     1
 40
1.0
176
     1
 90
        0
176
     1
 62
    18
420
        0
176
     1
 90
       50
176
     1
 90
        3
176
     1
 62
     5
420
      255
176
     1
290
     0
176
     1
 90
       50
176
     1
 90
       50
176
     1
 90
       50
176
     1
290
     0
176
     1
 90
       50
176
     1
 62
   256
176
     0
 40
1.0
176
     0
 90
        2
176
     1
  1
strokes_ogs.tif
176
     1
290
     0
176
     1
 40
1.0
176
     1
 40
1.0
176
     1
  0
VISUALSTYLE
  5
1B8
102
{ACAD_REACTORS
330
1AD
102
}
330
1AD
100
AcDbVisualStyle
  2
Dim
 70
    11
177
     3
291
     1
 70
    58
 90
        2
176
     1
 90
        2
176
     1
 90
        0
176
     1
 90
        0
176
     1
 40
-0.6
176
     1
 40
-30.0
176
     1
 62
     7
176
     1
 90
        1
176
     1
 90
        4
176
     1
 62
     7
176
     1
 62
   257
176
     1
 90
        1
176
     1
 90
        1
176
     1
 40
1.0
176
     1
 90
        8
176
     1
 62
     7
176
     1
 40
1.0
176
     1
 90
        1
176
     1
 90
        6
176
     1
 90
        2
176
     1
 62
     7
176
     1
 90
        5
176
     1
 90
        0
176
     1
 90
        0
176
     1
290
     0
176
     1
 90
        1
176
     1
 40
-50.0
176
     1
 90
        0
176
     1
290
     0
176
     1
290
     1
176
     1
290
     1
176
     1
290
     0
176
     1
290
     0
176
     1
290
     0
176
     1
290
     0
176
     1
290
     0
176
     1
290
     0
176
     1
 90
       50
176
     1
 40
0.0
176
     1
 40
1.0
176
     1
 90
        0
176
     1
 62
    18
420
        0
176
     1
 90
       50
176
     1
 90
        3
176
     1
 62
     5
420
      255
176
     1
290
     0
176
     1
 90
       50
176
     1
 90
       50
176
     1
 90
       50
176
     1
290
     0
176
     1
 90
       50
176
     1
 62
   256
176
     0
 40
1.0
176
     0
 90
        2
176
     1
  1
strokes_ogs.tif
176
     1
290
     0
176
     1
 40
1.0
176
     1
 40
1.0
176
     1
  0
VISUALSTYLE
  5
20E
102
{ACAD_REACTORS
330
1AD
102
}
330
1AD
100
AcDbVisualStyle
  2
EdgeColorOff
 70
    22
177
     3
291
     1
 70
    58
 90
        2
176
     0
 90
        2
176
     0
 90
        0
176
     0
 90
        0
176
     0
 40
0.6
176
     0
 40
30.0
176
     0
 62
     7
420
 16777215
176
     0
 90
        1
176
     0
 90
        4
176
     0
 62
     7
176
     0
 62
   257
176
     0
 90
        1
176
     0
 90
        1
176
     0
 40
1.0
176
     0
 90
        8
176
     2
 62
     7
176
     0
 40
1.0
176
     0
 90
        1
176
     0
 90
        6
176
     0
 90
        2
176
     0
 62
     7
176
     0
 90
        5
176
     0
 90
        0
176
     0
 90
        0
176
     0
290
     0
176
     0
 90
        1
176
     0
 40
0.0
176
     0
 90
        0
176
     0
290
     0
176
     0
290
     1
176
     0
290
     1
176
     0
290
     0
176
     0
290
     0
176
     0
290
     0
176
     0
290
     0
176
     0
290
     0
176
     0
290
     0
176
     0
 90
       50
176
     0
 40
0.0
176
     0
 40
1.0
176
     0
 90
        0
176
     0
 62
    18
420
        0
176
     0
 90
       50
176
     0
 90
        3
176
     0
 62
     5
420
      255
176
     0
290
     0
176
     0
 90
       50
176
     0
 90
       50
176
     0
 90
       50
176
     0
290
     0
176
     0
 90
       50
176
     0
 62
   256
176
     0
 40
1.0
176
     0
 90
        2
176
     0
  1
strokes_ogs.tif
176
     0
290
     0
176
     0
 40
1.0
176
     0
 40
1.0
176
     0
  0
VISUALSTYLE
  5
1BC
102
{ACAD_REACTORS
330
1AD
102
}
330
1AD
100
AcDbVisualStyle
  2
Facepattern
 70
    15
177
     3
291
     1
 70
    58
 90
        2
176
     1
 90
        2
176
     1
 90
        0
176
     1
 90
        0
176
     1
 40
-0.6
176
     1
 40
-30.0
176
     1
 62
     7
176
     1
 90
        1
176
     1
 90
        4
176
     1
 62
     7
176
     1
 62
   257
176
     1
 90
        1
176
     1
 90
        1
176
     1
 40
1.0
176
     1
 90
        8
176
     1
 62
     7
176
     1
 40
1.0
176
     1
 90
        1
176
     1
 90
        6
176
     1
 90
        2
176
     1
 62
     7
176
     1
 90
        5
176
     1
 90
        0
176
     1
 90
        0
176
     1
290
     0
176
     1
 90
        1
176
     1
 40
0.0
176
     1
 90
        0
176
     1
290
     0
176
     1
290
     1
176
     1
290
     1
176
     1
290
     0
176
     1
290
     0
176
     1
290
     0
176
     1
290
     0
176
     1
290
     0
176
     1
290
     0
176
     1
 90
       50
176
     1
 40
0.0
176
     1
 40
1.0
176
     1
 90
        0
176
     1
 62
    18
420
        0
176
     1
 90
       50
176
     1
 90
        3
176
     1
 62
     5
420
      255
176
     1
290
     0
176
     1
 90
       50
176
     1
 90
       50
176
     1
 90
       50
176
     1
290
     0
176
     1
 90
       50
176
     1
 62
   256
176
     0
 40
1.0
176
     0
 90
        2
176
     1
  1
strokes_ogs.tif
176
     1
290
     0
176
     1
 40
1.0
176
     1
 40
1.0
176
     1
  0
VISUALSTYLE
  5
1AE
102
{ACAD_REACTORS
330
1AD
102
}
330
1AD
100
AcDbVisualStyle
  2
Flat
 70
     0
177
     3
291
     1
 70
    58
 90
        2
176
     1
 90
        1
176
     1
 90
        1
176
     1
 90
        2
176
     1
 40
-0.6
176
     1
 40
30.0
176
     1
 62
     7
176
     1
 90
        0
176
     1
 90
        4
176
     1
 62
     7
176
     1
 62
   257
176
     1
 90
        1
176
     1
 90
        1
176
     1
 40
1.0
176
     1
 90
        8
176
     1
 62
     7
176
     1
 40
1.0
176
     1
 90
        1
176
     1
 90
        6
176
     1
 90
        2
176
     1
 62
     7
176
     1
 90
        5
176
     1
 90
        0
176
     1
 90
        0
176
     1
290
     0
176
     1
 90
       13
176
     1
 40
0.0
176
     1
 90
        0
176
     1
290
     0
176
     1
290
     1
176
     1
290
     1
176
     1
290
     0
176
     1
290
     0
176
     1
290
     0
176
     1
290
     0
176
     1
290
     0
176
     1
290
     0
176
     1
 90
       50
176
     1
 40
0.0
176
     1
 40
1.0
176
     1
 90
        0
176
     1
 62
    18
420
        0
176
     1
 90
       50
176
     1
 90
        3
176
     1
 62
     5
420
      255
176
     1
290
     0
176
     1
 90
       50
176
     1
 90
       50
176
     1
 90
       50
176
     1
290
     0
176
     1
 90
       50
176
     1
 62
   256
176
     0
 40
1.0
176
     0
 90
        2
176
     1
  1
strokes_ogs.tif
176
     1
290
     0
176
     1
 40
1.0
176
     1
 40
1.0
176
     1
  0
VISUALSTYLE
  5
1AF
102
{ACAD_REACTORS
330
1AD
102
}
330
1AD
100
AcDbVisualStyle
  2
FlatWithEdges
 70
     1
177
     3
291
     1
 70
    58
 90
        2
176
     1
 90
        1
176
     1
 90
        1
176
     1
 90
        2
176
     1
 40
-0.6
176
     1
 40
30.0
176
     1
 62
     7
176
     1
 90
        1
176
     1
 90
        4
176
     1
 62
     7
176
     1
 62
   257
176
     1
 90
        1
176
     1
 90
        1
176
     1
 40
1.0
176
     1
 90
        0
176
     1
 62
   257
176
     1
 40
1.0
176
     1
 90
        1
176
     1
 90
        6
176
     1
 90
        2
176
     1
 62
     7
176
     1
 90
        5
176
     1
 90
        0
176
     1
 90
        0
176
     1
290
     0
176
     1
 90
       13
176
     1
 40
0.0
176
     1
 90
        0
176
     1
290
     0
176
     1
290
     1
176
     1
290
     1
176
     1
290
     0
176
     1
290
     0
176
     1
290
     0
176
     1
290
     0
176
     1
290
     0
176
     1
290
     0
176
     1
 90
       50
176
     1
 40
0.0
176
     1
 40
1.0
176
     1
 90
        0
176
     1
 62
    18
420
        0
176
     1
 90
       50
176
     1
 90
        3
176
     1
 62
     5
420
      255
176
     1
290
     0
176
     1
 90
       50
176
     1
 90
       50
176
     1
 90
       50
176
     1
290
     0
176
     1
 90
       50
176
     1
 62
   256
176
     0
 40
1.0
176
     0
 90
        2
176
     1
  1
strokes_ogs.tif
176
     1
290
     0
176
     1
 40
1.0
176
     1
 40
1.0
176
     1
  0
VISUALSTYLE
  5
1B0
102
{ACAD_REACTORS
330
1AD
102
}
330
1AD
100
AcDbVisualStyle
  2
Gouraud
 70
     2
177
     3
291
     1
 70
    58
 90
        2
176
     1
 90
        2
176
     1
 90
        1
176
     1
 90
        2
176
     1
 40
-0.6
176
     1
 40
30.0
176
     1
 62
     7
176
     1
 90
        0
176
     1
 90
        4
176
     1
 62
     7
176
     1
 62
   257
176
     1
 90
        1
176
     1
 90
        1
176
     1
 40
1.0
176
     1
 90
        0
176
     1
 62
     7
176
     1
 40
1.0
176
     1
 90
        1
176
     1
 90
        6
176
     1
 90
        2
176
     1
 62
     7
176
     1
 90
        5
176
     1
 90
        0
176
     1
 90
        0
176
     1
290
     0
176
     1
 90
       13
176
     1
 40
0.0
176
     1
 90
        0
176
     1
290
     0
176
     1
290
     1
176
     1
290
     1
176
     1
290
     0
176
     1
290
     0
176
     1
290
     0
176
     1
290
     0
176
     1
290
     0
176
     1
290
     0
176
     1
 90
       50
176
     1
 40
0.0
176
     1
 40
1.0
176
     1
 90
        0
176
     1
 62
    18
420
        0
176
     1
 90
       50
176
     1
 90
        3
176
     1
 62
     5
420
      255
176
     1
290
     0
176
     1
 90
       50
176
     1
 90
       50
176
     1
 90
       50
176
     1
290
     0
176
     1
 90
       50
176
     1
 62
   256
176
     0
 40
1.0
176
     0
 90
        2
176
     1
  1
strokes_ogs.tif
176
     1
290
     0
176
     1
 40
1.0
176
     1
 40
1.0
176
     1
  0
VISUALSTYLE
  5
1B1
102
{ACAD_REACTORS
330
1AD
102
}
330
1AD
100
AcDbVisualStyle
  2
GouraudWithEdges
 70
     3
177
     3
291
     1
 70
    58
 90
        2
176
     1
 90
        2
176
     1
 90
        1
176
     1
 90
        2
176
     1
 40
-0.6
176
     1
 40
30.0
176
     1
 62
     7
176
     1
 90
        1
176
     1
 90
        4
176
     1
 62
     7
176
     1
 62
   257
176
     1
 90
        1
176
     1
 90
        1
176
     1
 40
1.0
176
     1
 90
        0
176
     1
 62
   257
176
     1
 40
1.0
176
     1
 90
        1
176
     1
 90
        6
176
     1
 90
        2
176
     1
 62
     7
176
     1
 90
        5
176
     1
 90
        0
176
     1
 90
        0
176
     1
290
     0
176
     1
 90
       13
176
     1
 40
0.0
176
     1
 90
        0
176
     1
290
     0
176
     1
290
     1
176
     1
290
     1
176
     1
290
     0
176
     1
290
     0
176
     1
290
     0
176
     1
290
     0
176
     1
290
     0
176
     1
290
     0
176
     1
 90
       50
176
     1
 40
0.0
176
     1
 40
1.0
176
     1
 90
        0
176
     1
 62
    18
420
        0
176
     1
 90
       50
176
     1
 90
        3
176
     1
 62
     5
420
      255
176
     1
290
     0
176
     1
 90
       50
176
     1
 90
       50
176
     1
 90
       50
176
     1
290
     0
176
     1
 90
       50
176
     1
 62
   256
176
     0
 40
1.0
176
     0
 90
        2
176
     1
  1
strokes_ogs.tif
176
     1
290
     0
176
     1
 40
1.0
176
     1
 40
1.0
176
     1
  0
VISUALSTYLE
  5
20B
102
{ACAD_REACTORS
330
1AD
102
}
330
1AD
100
AcDbVisualStyle
  2
Hidden
 70
     6
177
     3
291
     0
 70
    58
 90
        1
176
     1
 90
        2
176
     1
 90
        2
176
     1
 90
        0
176
     1
 40
0.6
176
     1
 40
30.0
176
     1
 62
     7
420
 16777215
176
     1
 90
        2
176
     1
 90
        2
176
     1
 62
     7
176
     1
 62
   257
176
     1
 90
        2
176
     1
 90
        1
176
     1
 40
40.0
176
     1
 90
        0
176
     1
 62
   257
176
     1
 40
1.0
176
     1
 90
        1
176
     1
 90
        6
176
     1
 90
        2
176
     1
 62
     7
176
     1
 90
        3
176
     1
 90
        0
176
     1
 90
        0
176
     1
290
     0
176
     1
 90
        1
176
     1
 40
0.0
176
     1
 90
        0
176
     1
290
     0
176
     1
290
     1
176
     1
290
     1
176
     1
290
     0
176
     1
290
     0
176
     1
290
     0
176
     1
290
     0
176
     1
290
     0
176
     1
290
     0
176
     1
 90
       50
176
     1
 40
0.0
176
     1
 40
1.0
176
     1
 90
        0
176
     1
 62
    18
420
        0
176
     1
 90
       50
176
     1
 90
        3
176
     1
 62
     5
420
      255
176
     1
290
     0
176
     1
 90
       50
176
     1
 90
       50
176
     1
 90
       50
176
     1
290
     0
176
     1
 90
       50
176
     1
 62
   256
176
     0
 40
1.0
176
     0
 90
        2
176
     1
  1
strokes_ogs.tif
176
     1
290
     0
176
     1
 40
1.0
176
     1
 40
1.0
176
     1
  0
VISUALSTYLE
  5
20C
102
{ACAD_REACTORS
330
1AD
102
}
330
1AD
100
AcDbVisualStyle
  2
JitterOff
 70
    20
177
     3
291
     1
 70
    58
 90
        2
176
     0
 90
        2
176
     0
 90
        0
176
     0
 90
        0
176
     0
 40
0.6
176
     0
 40
30.0
176
     0
 62
     7
420
 16777215
176
     0
 90
        1
176
     0
 90
        4
176
     0
 62
     7
176
     0
 62
   257
176
     0
 90
        1
176
     0
 90
        1
176
     0
 40
1.0
176
     0
 90
       10
176
     2
 62
     7
176
     0
 40
1.0
176
     0
 90
        1
176
     0
 90
        6
176
     0
 90
        2
176
     0
 62
     7
176
     0
 90
        5
176
     0
 90
        0
176
     0
 90
        0
176
     0
290
     0
176
     0
 90
        1
176
     0
 40
0.0
176
     0
 90
        0
176
     0
290
     0
176
     0
290
     1
176
     0
290
     1
176
     0
290
     0
176
     0
290
     0
176
     0
290
     0
176
     0
290
     0
176
     0
290
     0
176
     0
290
     0
176
     0
 90
       50
176
     0
 40
0.0
176
     0
 40
1.0
176
     0
 90
        0
176
     0
 62
    18
420
        0
176
     0
 90
       50
176
     0
 90
        3
176
     0
 62
     5
420
      255
176
     0
290
     0
176
     0
 90
       50
176
     0
 90
       50
176
     0
 90
       50
176
     0
290
     0
176
     0
 90
       50
176
     0
 62
   256
176
     0
 40
1.0
176
     0
 90
        2
176
     0
  1
strokes_ogs.tif
176
     0
290
     0
176
     0
 40
1.0
176
     0
 40
1.0
176
     0
  0
VISUALSTYLE
  5
1BB
102
{ACAD_REACTORS
330
1AD
102
}
330
1AD
100
AcDbVisualStyle
  2
Linepattern
 70
    14
177
     3
291
     1
 70
    58
 90
        2
176
     1
 90
        2
176
     1
 90
        0
176
     1
 90
        0
176
     1
 40
-0.6
176
     1
 40
-30.0
176
     1
 62
     7
176
     1
 90
        1
176
     1
 90
        4
176
     1
 62
     7
176
     1
 62
   257
176
     1
 90
        7
176
     1
 90
        7
176
     1
 40
1.0
176
     1
 90
        8
176
     1
 62
     7
176
     1
 40
1.0
176
     1
 90
        1
176
     1
 90
        6
176
     1
 90
        2
176
     1
 62
     7
176
     1
 90
        5
176
     1
 90
        0
176
     1
 90
        0
176
     1
290
     0
176
     1
 90
        1
176
     1
 40
0.0
176
     1
 90
        0
176
     1
290
     0
176
     1
290
     1
176
     1
290
     1
176
     1
290
     0
176
     1
290
     0
176
     1
290
     0
176
     1
290
     0
176
     1
290
     0
176
     1
290
     0
176
     1
 90
       50
176
     1
 40
0.0
176
     1
 40
1.0
176
     1
 90
        0
176
     1
 62
    18
420
        0
176
     1
 90
       50
176
     1
 90
        3
176
     1
 62
     5
420
      255
176
     1
290
     0
176
     1
 90
       50
176
     1
 90
       50
176
     1
 90
       50
176
     1
290
     0
176
     1
 90
       50
176
     1
 62
   256
176
     0
 40
1.0
176
     0
 90
        2
176
     1
  1
strokes_ogs.tif
176
     1
290
     0
176
     1
 40
1.0
176
     1
 40
1.0
176
     1
  0
VISUALSTYLE
  5
20D
102
{ACAD_REACTORS
330
1AD
102
}
330
1AD
100
AcDbVisualStyle
  2
OverhangOff
 70
    21
177
     3
291
     1
 70
    58
 90
        2
176
     0
 90
        2
176
     0
 90
        0
176
     0
 90
        0
176
     0
 40
0.6
176
     0
 40
30.0
176
     0
 62
     7
420
 16777215
176
     0
 90
        1
176
     0
 90
        4
176
     0
 62
     7
176
     0
 62
   257
176
     0
 90
        1
176
     0
 90
        1
176
     0
 40
1.0
176
     0
 90
        9
176
     2
 62
     7
176
     0
 40
1.0
176
     0
 90
        1
176
     0
 90
        6
176
     0
 90
        2
176
     0
 62
     7
176
     0
 90
        5
176
     0
 90
        0
176
     0
 90
        0
176
     0
290
     0
176
     0
 90
        1
176
     0
 40
0.0
176
     0
 90
        0
176
     0
290
     0
176
     0
290
     1
176
     0
290
     1
176
     0
290
     0
176
     0
290
     0
176
     0
290
     0
176
     0
290
     0
176
     0
290
     0
176
     0
290
     0
176
     0
 90
       50
176
     0
 40
0.0
176
     0
 40
1.0
176
     0
 90
        0
176
     0
 62
    18
420
        0
176
     0
 90
       50
176
     0
 90
        3
176
     0
 62
     5
420
      255
176
     0
290
     0
176
     0
 90
       50
176
     0
 90
       50
176
     0
 90
       50
176
     0
290
     0
176
     0
 90
       50
176
     0
 62
   256
176
     0
 40
1.0
176
     0
 90
        2
176
     0
  1
strokes_ogs.tif
176
     0
290
     0
176
     0
 40
1.0
176
     0
 40
1.0
176
     0
  0
VISUALSTYLE
  5
1B6
102
{ACAD_REACTORS
330
1AD
102
}
330
1AD
100
AcDbVisualStyle
  2
Realistic
 70
     8
177
     3
291
     0
 70
    58
 90
        2
176
     1
 90
        2
176
     1
 90
        0
176
     1
 90
        0
176
     1
 40
-0.6
176
     1
 40
-30.0
176
     1
 62
     7
176
     1
 90
        1
176
     1
 90
        0
176
     1
 62
     7
176
     1
 62
   257
176
     1
 90
        1
176
     1
 90
        1
176
     1
 40
1.0
176
     1
 90
        8
176
     1
 62
     8
176
     1
 40
1.0
176
     1
 90
        1
176
     1
 90
        6
176
     1
 90
        2
176
     1
 62
     7
176
     1
 90
        5
176
     1
 90
        0
176
     1
 90
        0
176
     1
290
     0
176
     1
 90
       13
176
     1
 40
0.0
176
     1
 90
        0
176
     1
290
     0
176
     1
290
     1
176
     1
290
     1
176
     1
290
     0
176
     1
290
     0
176
     1
290
     0
176
     1
290
     0
176
     1
290
     0
176
     1
290
     0
176
     1
 90
       50
176
     1
 40
0.0
176
     1
 40
1.0
176
     1
 90
        0
176
     1
 62
    18
420
        0
176
     1
 90
       50
176
     1
 90
        3
176
     1
 62
     5
420
      255
176
     1
290
     0
176
     1
 90
       50
176
     1
 90
       50
176
     1
 90
       50
176
     1
290
     0
176
     1
 90
       50
176
     1
 62
   256
176
     0
 40
1.0
176
     0
 90
        2
176
     1
  1
strokes_ogs.tif
176
     1
290
     0
176
     1
 40
1.0
176
     1
 40
1.0
176
     1
  0
VISUALSTYLE
  5
213
102
{ACAD_REACTORS
330
1AD
102
}
330
1AD
100
AcDbVisualStyle
  2
Shaded
 70
    27
177
     3
291
     0
 70
    58
 90
        2
176
     1
 90
        2
176
     1
 90
        1
176
     1
 90
        2
176
     1
 40
0.6
176
     1
 40
30.0
176
     1
 62
     7
420
 16777215
176
     1
 90
        0
176
     1
 90
        4
176
     1
 62
     7
176
     1
 62
   257
176
     1
 90
        1
176
     1
 90
        1
176
     1
 40
1.0
176
     1
 90
        8
176
     1
 62
   257
176
     1
 40
1.0
176
     1
 90
        1
176
     1
 90
        6
176
     1
 90
        2
176
     1
 62
     8
420
  7895160
176
     1
 90
        3
176
     1
 90
        0
176
     1
 90
        0
176
     1
290
     0
176
     1
 90
        5
176
     1
 40
0.0
176
     1
 90
        0
176
     1
290
     0
176
     1
290
     1
176
     1
290
     1
176
     1
290
     0
176
     1
290
     0
176
     1
290
     0
176
     1
290
     0
176
     1
290
     0
176
     1
290
     0
176
     1
 90
       50
176
     1
 40
0.0
176
     1
 40
1.0
176
     1
 90
        0
176
     1
 62
    18
420
        0
176
     1
 90
       50
176
     1
 90
        3
176
     1
 62
     5
420
      255
176
     1
290
     0
176
     1
 90
       50
176
     1
 90
       50
176
     1
 90
       50
176
     1
290
     0
176
     1
 90
       50
176
     1
 62
   256
176
     0
 40
1.0
176
     0
 90
        2
176
     1
  1
strokes_ogs.tif
176
     1
290
     0
176
     1
 40
1.0
176
     1
 40
1.0
176
     1
  0
VISUALSTYLE
  5
212
102
{ACAD_REACTORS
330
1AD
102
}
330
1AD
100
AcDbVisualStyle
  2
Shaded with edges
 70
    26
177
     3
291
     0
 70
    58
 90
        2
176
     1
 90
        2
176
     1
 90
        1
176
     1
 90
        2
176
     1
 40
0.6
176
     1
 40
30.0
176
     1
 62
     7
420
 16777215
176
     1
 90
        1
176
     1
 90
       10
176
     1
 62
     7
176
     1
 62
   257
176
     1
 90
        2
176
     1
 90
        1
176
     1
 40
1.0
176
     1
 90
        8
176
     1
 62
   257
176
     1
 40
1.0
176
     1
 90
        1
176
     1
 90
        6
176
     1
 90
        2
176
     1
 62
     7
176
     1
 90
        3
176
     1
 90
        0
176
     1
 90
        0
176
     1
290
     0
176
     1
 90
        5
176
     1
 40
0.0
176
     1
 90
        0
176
     1
290
     0
176
     1
290
     1
176
     1
290
     1
176
     1
290
     0
176
     1
290
     0
176
     1
290
     0
176
     1
290
     0
176
     1
290
     0
176
     1
290
     0
176
     1
 90
       50
176
     1
 40
0.0
176
     1
 40
1.0
176
     1
 90
        0
176
     1
 62
    18
420
        0
176
     1
 90
       50
176
     1
 90
        3
176
     1
 62
     5
420
      255
176
     1
290
     0
176
     1
 90
       50
176
     1
 90
       50
176
     1
 90
       50
176
     1
290
     0
176
     1
 90
       50
176
     1
 62
   256
176
     0
 40
1.0
176
     0
 90
        2
176
     1
  1
strokes_ogs.tif
176
     1
290
     0
176
     1
 40
1.0
176
     1
 40
1.0
176
     1
  0
VISUALSTYLE
  5
20F
102
{ACAD_REACTORS
330
1AD
102
}
330
1AD
100
AcDbVisualStyle
  2
Shades of Gray
 70
    23
177
     3
291
     0
 70
    58
 90
        2
176
     1
 90
        2
176
     1
 90
        3
176
     1
 90
        0
176
     1
 40
0.6
176
     1
 40
30.0
176
     1
 62
     7
420
 16777215
176
     1
 90
        2
176
     1
 90
        2
176
     1
 62
     7
176
     1
 62
     7
176
     1
 90
        1
176
     1
 90
        1
176
     1
 40
40.0
176
     1
 90
        8
176
     1
 62
     7
176
     1
 40
1.0
176
     1
 90
        1
176
     1
 90
        6
176
     1
 90
        2
176
     1
 62
     7
176
     1
 90
        3
176
     1
 90
        0
176
     1
 90
        0
176
     1
290
     0
176
     1
 90
        1
176
     1
 40
0.0
176
     1
 90
        0
176
     1
290
     0
176
     1
290
     1
176
     1
290
     1
176
     1
290
     0
176
     1
290
     0
176
     1
290
     0
176
     1
290
     0
176
     1
290
     0
176
     1
290
     0
176
     1
 90
       50
176
     1
 40
0.0
176
     1
 40
1.0
176
     1
 90
        0
176
     1
 62
    18
420
        0
176
     1
 90
       50
176
     1
 90
        3
176
     1
 62
     5
420
      255
176
     1
290
     0
176
     1
 90
       50
176
     1
 90
       50
176
     1
 90
       50
176
     1
290
     0
176
     1
 90
       50
176
     1
 62
   256
176
     0
 40
1.0
176
     0
 90
        2
176
     1
  1
strokes_ogs.tif
176
     1
290
     0
176
     1
 40
1.0
176
     1
 40
1.0
176
     1
  0
VISUALSTYLE
  5
210
102
{ACAD_REACTORS
330
1AD
102
}
330
1AD
100
AcDbVisualStyle
  2
Sketchy
 70
    24
177
     3
291
     0
 70
    58
 90
        1
176
     1
 90
        2
176
     1
 90
        2
176
     1
 90
        0
176
     1
 40
0.6
176
     1
 40
30.0
176
     1
 62
     7
420
 16777215
176
     1
 90
        2
176
     1
 90
        2
176
     1
 62
     7
176
     1
 62
     7
176
     1
 90
        1
176
     1
 90
        1
176
     1
 40
40.0
176
     1
 90
       11
176
     1
 62
     7
176
     1
 40
1.0
176
     1
 90
        1
176
     1
 90
        6
176
     1
 90
        2
176
     1
 62
     7
176
     1
 90
        6
176
     1
 90
        0
176
     1
 90
        0
176
     1
290
     0
176
     1
 90
        1
176
     1
 40
0.0
176
     1
 90
        0
176
     1
290
     0
176
     1
290
     1
176
     1
290
     1
176
     1
290
     0
176
     1
290
     0
176
     1
290
     0
176
     1
290
     0
176
     1
290
     0
176
     1
290
     0
176
     1
 90
       50
176
     1
 40
0.0
176
     1
 40
1.0
176
     1
 90
        0
176
     1
 62
    18
420
        0
176
     1
 90
       50
176
     1
 90
        3
176
     1
 62
     5
420
      255
176
     1
290
     0
176
     1
 90
       50
176
     1
 90
       50
176
     1
 90
       50
176
     1
290
     0
176
     1
 90
       50
176
     1
 62
   256
176
     0
 40
1.0
176
     0
 90
        2
176
     1
  1
strokes_ogs.tif
176
     1
290
     0
176
     1
 40
1.0
176
     1
 40
1.0
176
     1
  0
VISUALSTYLE
  5
1BA
102
{ACAD_REACTORS
330
1AD
102
}
330
1AD
100
AcDbVisualStyle
  2
Thicken
 70
    13
177
     3
291
     1
 70
    58
 90
        2
176
     1
 90
        2
176
     1
 90
        0
176
     1
 90
        0
176
     1
 40
-0.6
176
     1
 40
-30.0
176
     1
 62
     7
176
     1
 90
        1
176
     1
 90
        4
176
     1
 62
     7
176
     1
 62
   257
176
     1
 90
        1
176
     1
 90
        1
176
     1
 40
1.0
176
     1
 90
       12
176
     1
 62
     7
176
     1
 40
1.0
176
     1
 90
        1
176
     1
 90
        6
176
     1
 90
        2
176
     1
 62
     7
176
     1
 90
        5
176
     1
 90
        0
176
     1
 90
        0
176
     1
290
     0
176
     1
 90
        1
176
     1
 40
0.0
176
     1
 90
        0
176
     1
290
     0
176
     1
290
     1
176
     1
290
     1
176
     1
290
     0
176
     1
290
     0
176
     1
290
     0
176
     1
290
     0
176
     1
290
     0
176
     1
290
     0
176
     1
 90
       50
176
     1
 40
0.0
176
     1
 40
1.0
176
     1
 90
        0
176
     1
 62
    18
420
        0
176
     1
 90
       50
176
     1
 90
        3
176
     1
 62
     5
420
      255
176
     1
290
     0
176
     1
 90
       50
176
     1
 90
       50
176
     1
 90
       50
176
     1
290
     0
176
     1
 90
       50
176
     1
 62
   256
176
     0
 40
1.0
176
     0
 90
        2
176
     1
  1
strokes_ogs.tif
176
     1
290
     0
176
     1
 40
1.0
176
     1
 40
1.0
176
     1
  0
VISUALSTYLE
  5
20A
102
{ACAD_REACTORS
330
1AD
102
}
330
1AD
100
AcDbVisualStyle
  2
Wireframe
 70
     5
177
     3
291
     0
 70
    58
 90
        0
176
     1
 90
        2
176
     1
 90
        0
176
     1
 90
        0
176
     1
 40
0.6
176
     1
 40
30.0
176
     1
 62
     7
420
 16777215
176
     1
 90
        1
176
     1
 90
        4
176
     1
 62
     7
176
     1
 62
   257
176
     1
 90
        1
176
     1
 90
        1
176
     1
 40
1.0
176
     1
 90
        0
176
     1
 62
   257
176
     1
 40
1.0
176
     1
 90
        1
176
     1
 90
        6
176
     1
 90
        2
176
     1
 62
     7
176
     1
 90
        3
176
     1
 90
        0
176
     1
 90
        0
176
     1
290
     0
176
     1
 90
        1
176
     1
 40
0.0
176
     1
 90
        0
176
     1
290
     0
176
     1
290
     1
176
     1
290
     1
176
     1
290
     0
176
     1
290
     0
176
     1
290
     0
176
     1
290
     0
176
     1
290
     0
176
     1
290
     0
176
     1
 90
       50
176
     1
 40
0.0
176
     1
 40
1.0
176
     1
 90
        0
176
     1
 62
    18
420
        0
176
     1
 90
       50
176
     1
 90
        3
176
     1
 62
     5
420
      255
176
     1
290
     0
176
     1
 90
       50
176
     1
 90
       50
176
     1
 90
       50
176
     1
290
     0
176
     1
 90
       50
176
     1
 62
   256
176
     0
 40
1.0
176
     0
 90
        2
176
     1
  1
strokes_ogs.tif
176
     1
290
     0
176
     1
 40
1.0
176
     1
 40
1.0
176
     1
  0
VISUALSTYLE
  5
211
102
{ACAD_REACTORS
330
1AD
102
}
330
1AD
100
AcDbVisualStyle
  2
X-Ray
 70
    25
177
     3
291
     0
 70
    58
 90
        2
176
     1
 90
        2
176
     1
 90
        1
176
     1
 90
        1
176
     1
 40
0.5
176
     1
 40
30.0
176
     1
 62
     7
420
 16777215
176
     1
 90
        1
176
     1
 90
        0
176
     1
 62
     7
176
     1
 62
   257
176
     1
 90
        1
176
     1
 90
        1
176
     1
 40
1.0
176
     1
 90
        8
176
     1
 62
     7
176
     1
 40
1.0
176
     1
 90
        1
176
     1
 90
        6
176
     1
 90
        2
176
     1
 62
     7
176
     1
 90
        3
176
     1
 90
        0
176
     1
 90
        0
176
     1
290
     0
176
     1
 90
       13
176
     1
 40
0.0
176
     1
 90
        0
176
     1
290
     0
176
     1
290
     1
176
     1
290
     1
176
     1
290
     0
176
     1
290
     0
176
     1
290
     0
176
     1
290
     0
176
     1
290
     0
176
     1
290
     0
176
     1
 90
       50
176
     1
 40
0.0
176
     1
 40
1.0
176
     1
 90
        0
176
     1
 62
    18
420
        0
176
     1
 90
       50
176
     1
 90
        3
176
     1
 62
     5
420
      255
176
     1
290
     0
176
     1
 90
       50
176
     1
 90
       50
176
     1
 90
       50
176
     1
290
     0
176
     1
 90
       50
176
     1
 62
   256
176
     0
 40
1.0
176
     0
 90
        2
176
     1
  1
strokes_ogs.tif
176
     1
290
     0
176
     1
 40
1.0
176
     1
 40
1.0
176
     1
  0
DICTIONARYVAR
  5
218
102
{ACAD_REACTORS
330
1C9
102
}
330
1C9
100
DictionaryVariables
280
     0
  1
1:1
  0
DICTIONARYVAR
  5
21A
102
{ACAD_REACTORS
330
1C9
102
}
330
1C9
100
DictionaryVariables
280
     0
  1
Standard
  0
DICTIONARYVAR
  5
219
102
{ACAD_REACTORS
330
1C9
102
}
330
1C9
100
DictionaryVariables
280
     0
  1
Standard
  0
DICTIONARYVAR
  5
1CD
102
{ACAD_REACTORS
330
1C9
102
}
330
1C9
100
DictionaryVariables
280
     0
  1
2
  0
DICTIONARYVAR
  5
1CE
102
{ACAD_REACTORS
330
1C9
102
}
330
1C9
100
DictionaryVariables
280
     0
  1
1
  0
DICTIONARYVAR
  5
1CC
102
{ACAD_REACTORS
330
1C9
102
}
330
1C9
100
DictionaryVariables
280
     0
  1
0
  0
DICTIONARY
  5
28B
330
215
100
AcDbDictionary
280
     1
281
     1
  3
ACAD_ROUNDTRIP_2008_TABLESTYLE_CELLSTYLEMAP
360
28C
  0
CELLSTYLEMAP
  5
28C
102
{ACAD_REACTORS
330
28B
102
}
330
28B
100
AcDbCellStyleMap
 90
        3
300
CELLSTYLE
  1
TABLEFORMAT_BEGIN
 90
        5
170
     1
 91
        0
 92
    32768
 62
   257
 93
        1
300
CONTENTFORMAT
  1
CONTENTFORMAT_BEGIN
 90
        0
 91
        0
 92
        4
 93
        0
300

 40
0.0
140
1.0
 94
        5
 62
     0
340
11
144
0.25
309
CONTENTFORMAT_END
171
     1
301
MARGIN
  1
CELLMARGIN_BEGIN
 40
0.06
 40
0.06
 40
0.06
 40
0.06
 40
0.06
 40
0.06
309
CELLMARGIN_END
 94
        6
 95
        1
302
GRIDFORMAT
  1
GRIDFORMAT_BEGIN
 90
        0
 91
        1
 62
     0
 92
       -2
340
14
 93
        0
 40
0.045
309
GRIDFORMAT_END
 95
        2
302
GRIDFORMAT
  1
GRIDFORMAT_BEGIN
 90
        0
 91
        1
 62
     0
 92
       -2
340
14
 93
        0
 40
0.045
309
GRIDFORMAT_END
 95
        4
302
GRIDFORMAT
  1
GRIDFORMAT_BEGIN
 90
        0
 91
        1
 62
     0
 92
       -2
340
14
 93
        0
 40
0.045
309
GRIDFORMAT_END
 95
        8
302
GRIDFORMAT
  1
GRIDFORMAT_BEGIN
 90
        0
 91
        1
 62
     0
 92
       -2
340
14
 93
        0
 40
0.045
309
GRIDFORMAT_END
 95
       16
302
GRIDFORMAT
  1
GRIDFORMAT_BEGIN
 90
        0
 91
        1
 62
     0
 92
       -2
340
14
 93
        0
 40
0.045
309
GRIDFORMAT_END
 95
       32
302
GRIDFORMAT
  1
GRIDFORMAT_BEGIN
 90
        0
 91
        1
 62
     0
 92
       -2
340
14
 93
        0
 40
0.045
309
GRIDFORMAT_END
309
TABLEFORMAT_END
  1
CELLSTYLE_BEGIN
 90
        1
 91
        1
300
_TITLE
309
CELLSTYLE_END
300
CELLSTYLE
  1
TABLEFORMAT_BEGIN
 90
        5
170
     1
 91
        0
 92
        0
 62
   257
 93
        1
300
CONTENTFORMAT
  1
CONTENTFORMAT_BEGIN
 90
        0
 91
        0
 92
        4
 93
        0
300

 40
0.0
140
1.0
 94
        5
 62
     0
340
11
144
0.18
309
CONTENTFORMAT_END
171
     1
301
MARGIN
  1
CELLMARGIN_BEGIN
 40
0.06
 40
0.06
 40
0.06
 40
0.06
 40
0.06
 40
0.06
309
CELLMARGIN_END
 94
        6
 95
        1
302
GRIDFORMAT
  1
GRIDFORMAT_BEGIN
 90
        0
 91
        1
 62
     0
 92
       -2
340
14
 93
        0
 40
0.045
309
GRIDFORMAT_END
 95
        2
302
GRIDFORMAT
  1
GRIDFORMAT_BEGIN
 90
        0
 91
        1
 62
     0
 92
       -2
340
14
 93
        0
 40
0.045
309
GRIDFORMAT_END
 95
        4
302
GRIDFORMAT
  1
GRIDFORMAT_BEGIN
 90
        0
 91
        1
 62
     0
 92
       -2
340
14
 93
        0
 40
0.045
309
GRIDFORMAT_END
 95
        8
302
GRIDFORMAT
  1
GRIDFORMAT_BEGIN
 90
        0
 91
        1
 62
     0
 92
       -2
340
14
 93
        0
 40
0.045
309
GRIDFORMAT_END
 95
       16
302
GRIDFORMAT
  1
GRIDFORMAT_BEGIN
 90
        0
 91
        1
 62
     0
 92
       -2
340
14
 93
        0
 40
0.045
309
GRIDFORMAT_END
 95
       32
302
GRIDFORMAT
  1
GRIDFORMAT_BEGIN
 90
        0
 91
        1
 62
     0
 92
       -2
340
14
 93
        0
 40
0.045
309
GRIDFORMAT_END
309
TABLEFORMAT_END
  1
CELLSTYLE_BEGIN
 90
        2
 91
        1
300
_HEADER
309
CELLSTYLE_END
300
CELLSTYLE
  1
TABLEFORMAT_BEGIN
 90
        5
170
     1
 91
        0
 92
        0
 62
   257
 93
        1
300
CONTENTFORMAT
  1
CONTENTFORMAT_BEGIN
 90
        0
 91
        0
 92
        4
 93
        0
300

 40
0.0
140
1.0
 94
        2
 62
     0
340
11
144
0.18
309
CONTENTFORMAT_END
171
     1
301
MARGIN
  1
CELLMARGIN_BEGIN
 40
0.06
 40
0.06
 40
0.06
 40
0.06
 40
0.06
 40
0.06
309
CELLMARGIN_END
 94
        6
 95
        1
302
GRIDFORMAT
  1
GRIDFORMAT_BEGIN
 90
        0
 91
        1
 62
     0
 92
       -2
340
14
 93
        0
 40
0.045
309
GRIDFORMAT_END
 95
        2
302
GRIDFORMAT
  1
GRIDFORMAT_BEGIN
 90
        0
 91
        1
 62
     0
 92
       -2
340
14
 93
        0
 40
0.045
309
GRIDFORMAT_END
 95
        4
302
GRIDFORMAT
  1
GRIDFORMAT_BEGIN
 90
        0
 91
        1
 62
     0
 92
       -2
340
14
 93
        0
 40
0.045
309
GRIDFORMAT_END
 95
        8
302
GRIDFORMAT
  1
GRIDFORMAT_BEGIN
 90
        0
 91
        1
 62
     0
 92
       -2
340
14
 93
        0
 40
0.045
309
GRIDFORMAT_END
 95
       16
302
GRIDFORMAT
  1
GRIDFORMAT_BEGIN
 90
        0
 91
        1
 62
     0
 92
       -2
340
14
 93
        0
 40
0.045
309
GRIDFORMAT_END
 95
       32
302
GRIDFORMAT
  1
GRIDFORMAT_BEGIN
 90
        0
 91
        1
 62
     0
 92
       -2
340
14
 93
        0
 40
0.045
309
GRIDFORMAT_END
309
TABLEFORMAT_END
  1
CELLSTYLE_BEGIN
 90
        3
 91
        2
300
_DATA
309
CELLSTYLE_END
  0
ENDSEC
  0
EOF
