  0
SECTION
  2
HEADER
  9
$ACADVER
  1
AC1027
  9
$ACADMAINTVER
 70
   105
  9
$DWGCODEPAGE
  3
ANSI_1252
  9
$REQUIREDVERSIONS
160
                 0
  9
$LASTSAVEDBY
  1
matthias.ochs
  9
$INSBASE
 10
0.0
 20
0.0
 30
0.0
  9
$EXTMIN
 10
-162.9232171835015
 20
-84.68482439943529
 30
0.0
  9
$EXTMAX
 10
151.3181693517056
 20
92.70950670914937
 30
0.0
  9
$LIMMIN
 10
-105.796021574
 20
-71.743702901
  9
$LIMMAX
 10
118.196000214
 20
68.29330922
  9
$ORTHOMODE
 70
     0
  9
$REGENMODE
 70
     1
  9
$FILLMODE
 70
     1
  9
$QTEXTMODE
 70
     0
  9
$MIRRTEXT
 70
     1
  9
$LTSCALE
 40
1.0
  9
$ATTMODE
 70
     1
  9
$TEXTSIZE
 40
0.2
  9
$TRACEWID
 40
0.05
  9
$TEXTSTYLE
  7
Standard
  9
$CLAYER
  8
1
  9
$CELTYPE
  6
ByLayer
  9
$CECOLOR
 62
   256
  9
$CELTSCALE
 40
1.0
  9
$DISPSILH
 70
     0
  9
$DIMSCALE
 40
1.0
  9
$DIMASZ
 40
0.18
  9
$DIMEXO
 40
0.0625
  9
$DIMDLI
 40
0.38
  9
$DIMRND
 40
0.0
  9
$DIMDLE
 40
0.0
  9
$DIMEXE
 40
0.18
  9
$DIMTP
 40
0.0
  9
$DIMTM
 40
0.0
  9
$DIMTXT
 40
0.18
  9
$DIMCEN
 40
0.09
  9
$DIMTSZ
 40
0.0
  9
$DIMTOL
 70
     0
  9
$DIMLIM
 70
     0
  9
$DIMTIH
 70
     1
  9
$DIMTOH
 70
     1
  9
$DIMSE1
 70
     0
  9
$DIMSE2
 70
     0
  9
$DIMTAD
 70
     0
  9
$DIMZIN
 70
     0
  9
$DIMBLK
  1

  9
$DIMASO
 70
     1
  9
$DIMSHO
 70
     1
  9
$DIMPOST
  1

  9
$DIMAPOST
  1

  9
$DIMALT
 70
     0
  9
$DIMALTD
 70
     2
  9
$DIMALTF
 40
25.4
  9
$DIMLFAC
 40
1.0
  9
$DIMTOFL
 70
     0
  9
$DIMTVP
 40
0.0
  9
$DIMTIX
 70
     0
  9
$DIMSOXD
 70
     0
  9
$DIMSAH
 70
     0
  9
$DIMBLK1
  1

  9
$DIMBLK2
  1

  9
$DIMSTYLE
  2
Standard
  9
$DIMCLRD
 70
     0
  9
$DIMCLRE
 70
     0
  9
$DIMCLRT
 70
     0
  9
$DIMTFAC
 40
1.0
  9
$DIMGAP
 40
0.09
  9
$DIMJUST
 70
     0
  9
$DIMSD1
 70
     0
  9
$DIMSD2
 70
     0
  9
$DIMTOLJ
 70
     1
  9
$DIMTZIN
 70
     0
  9
$DIMALTZ
 70
     0
  9
$DIMALTTZ
 70
     0
  9
$DIMUPT
 70
     0
  9
$DIMDEC
 70
     4
  9
$DIMTDEC
 70
     4
  9
$DIMALTU
 70
     2
  9
$DIMALTTD
 70
     2
  9
$DIMTXSTY
  7
Standard
  9
$DIMAUNIT
 70
     0
  9
$DIMADEC
 70
     0
  9
$DIMALTRND
 40
0.0
  9
$DIMAZIN
 70
     0
  9
$DIMDSEP
 70
    46
  9
$DIMATFIT
 70
     3
  9
$DIMFRAC
 70
     0
  9
$DIMLDRBLK
  1

  9
$DIMLUNIT
 70
     2
  9
$DIMLWD
 70
    -2
  9
$DIMLWE
 70
    -2
  9
$DIMTMOVE
 70
     2
  9
$DIMFXL
 40
1.0
  9
$DIMFXLON
 70
     0
  9
$DIMJOGANG
 40
0.7853981633974483
  9
$DIMTFILL
 70
     0
  9
$DIMTFILLCLR
 70
     0
  9
$DIMARCSYM
 70
     0
  9
$DIMLTYPE
  6

  9
$DIMLTEX1
  6

  9
$DIMLTEX2
  6

  9
$DIMTXTDIRECTION
 70
     0
  9
$LUNITS
 70
     2
  9
$LUPREC
 70
     4
  9
$SKETCHINC
 40
0.1
  9
$FILLETRAD
 40
0.5
  9
$AUNITS
 70
     2
  9
$AUPREC
 70
     0
  9
$MENU
  1
.
  9
$ELEVATION
 40
0.0
  9
$PELEVATION
 40
0.0
  9
$THICKNESS
 40
0.0
  9
$LIMCHECK
 70
     0
  9
$CHAMFERA
 40
0.5
  9
$CHAMFERB
 40
0.5
  9
$CHAMFERC
 40
1.0
  9
$CHAMFERD
 40
0.0
  9
$SKPOLY
 70
     0
  9
$TDCREATE
 40
2458327.549385127
  9
$TDUCREATE
 40
2458327.466051794
  9
$TDUPDATE
 40
2458681.381974086
  9
$TDUUPDATE
 40
2458681.298640752
  9
$TDINDWG
 40
0.0053960417
  9
$TDUSRTIMER
 40
0.007456794
  9
$USRTIMER
 70
     1
  9
$ANGBASE
 50
0.0
  9
$ANGDIR
 70
     0
  9
$PDMODE
 70
     0
  9
$PDSIZE
 40
0.0
  9
$PLINEWID
 40
0.0
  9
$SPLFRAME
 70
     0
  9
$SPLINETYPE
 70
     6
  9
$SPLINESEGS
 70
     8
  9
$HANDSEED
  5
29B
  9
$SURFTAB1
 70
     6
  9
$SURFTAB2
 70
     6
  9
$SURFTYPE
 70
     6
  9
$SURFU
 70
     6
  9
$SURFV
 70
     6
  9
$UCSBASE
  2

  9
$UCSNAME
  2

  9
$UCSORG
 10
0.0
 20
0.0
 30
0.0
  9
$UCSXDIR
 10
1.0
 20
0.0
 30
0.0
  9
$UCSYDIR
 10
0.0
 20
1.0
 30
0.0
  9
$UCSORTHOREF
  2

  9
$UCSORTHOVIEW
 70
     0
  9
$UCSORGTOP
 10
0.0
 20
0.0
 30
0.0
  9
$UCSORGBOTTOM
 10
0.0
 20
0.0
 30
0.0
  9
$UCSORGLEFT
 10
0.0
 20
0.0
 30
0.0
  9
$UCSORGRIGHT
 10
0.0
 20
0.0
 30
0.0
  9
$UCSORGFRONT
 10
0.0
 20
0.0
 30
0.0
  9
$UCSORGBACK
 10
0.0
 20
0.0
 30
0.0
  9
$PUCSBASE
  2

  9
$PUCSNAME
  2

  9
$PUCSORG
 10
0.0
 20
0.0
 30
0.0
  9
$PUCSXDIR
 10
1.0
 20
0.0
 30
0.0
  9
$PUCSYDIR
 10
0.0
 20
1.0
 30
0.0
  9
$PUCSORTHOREF
  2

  9
$PUCSORTHOVIEW
 70
     0
  9
$PUCSORGTOP
 10
0.0
 20
0.0
 30
0.0
  9
$PUCSORGBOTTOM
 10
0.0
 20
0.0
 30
0.0
  9
$PUCSORGLEFT
 10
0.0
 20
0.0
 30
0.0
  9
$PUCSORGRIGHT
 10
0.0
 20
0.0
 30
0.0
  9
$PUCSORGFRONT
 10
0.0
 20
0.0
 30
0.0
  9
$PUCSORGBACK
 10
0.0
 20
0.0
 30
0.0
  9
$USERI1
 70
     0
  9
$USERI2
 70
     0
  9
$USERI3
 70
     0
  9
$USERI4
 70
     0
  9
$USERI5
 70
     0
  9
$USERR1
 40
0.0
  9
$USERR2
 40
0.0
  9
$USERR3
 40
0.0
  9
$USERR4
 40
0.0
  9
$USERR5
 40
0.0
  9
$WORLDVIEW
 70
     1
  9
$SHADEDGE
 70
     3
  9
$SHADEDIF
 70
    70
  9
$TILEMODE
 70
     1
  9
$MAXACTVP
 70
    64
  9
$PINSBASE
 10
0.0
 20
0.0
 30
0.0
  9
$PLIMCHECK
 70
     0
  9
$PEXTMIN
 10
1.000000000000000E+20
 20
1.000000000000000E+20
 30
1.000000000000000E+20
  9
$PEXTMAX
 10
-1.000000000000000E+20
 20
-1.000000000000000E+20
 30
-1.000000000000000E+20
  9
$PLIMMIN
 10
0.0
 20
0.0
  9
$PLIMMAX
 10
0.0
 20
0.0
  9
$UNITMODE
 70
     0
  9
$VISRETAIN
 70
     1
  9
$PLINEGEN
 70
     0
  9
$PSLTSCALE
 70
     1
  9
$TREEDEPTH
 70
  3020
  9
$CMLSTYLE
  2
Standard
  9
$CMLJUST
 70
     0
  9
$CMLSCALE
 40
1.0
  9
$PROXYGRAPHICS
 70
     1
  9
$MEASUREMENT
 70
     0
  9
$CELWEIGHT
370
    -1
  9
$ENDCAPS
280
     0
  9
$JOINSTYLE
280
     0
  9
$LWDISPLAY
290
     0
  9
$INSUNITS
 70
     0
  9
$HYPERLINKBASE
  1

  9
$STYLESHEET
  1

  9
$XEDIT
290
     1
  9
$CEPSNTYPE
380
     0
  9
$PSTYLEMODE
290
     1
  9
$FINGERPRINTGUID
  2
{BA9FA0D4-CAEA-4249-90DF-F47C8212E79F}
  9
$VERSIONGUID
  2
{FAEB1C32-E019-11D5-929B-00C0DF256EC4}
  9
$EXTNAMES
290
     1
  9
$PSVPSCALE
 40
0.0
  9
$OLESTARTUP
290
     0
  9
$SORTENTS
280
   127
  9
$INDEXCTL
280
     0
  9
$HIDETEXT
280
     1
  9
$XCLIPFRAME
280
     2
  9
$HALOGAP
280
     0
  9
$OBSCOLOR
 70
   257
  9
$OBSLTYPE
280
     0
  9
$INTERSECTIONDISPLAY
280
     0
  9
$INTERSECTIONCOLOR
 70
   257
  9
$DIMASSOC
280
     2
  9
$PROJECTNAME
  1

  9
$CAMERADISPLAY
290
     0
  9
$LENSLENGTH
 40
50.0
  9
$CAMERAHEIGHT
 40
0.0
  9
$STEPSPERSEC
 40
2.0
  9
$STEPSIZE
 40
6.0
  9
$3DDWFPREC
 40
2.0
  9
$PSOLWIDTH
 40
0.25
  9
$PSOLHEIGHT
 40
4.0
  9
$LOFTANG1
 40
1.570796326794897
  9
$LOFTANG2
 40
1.570796326794897
  9
$LOFTMAG1
 40
0.0
  9
$LOFTMAG2
 40
0.0
  9
$LOFTPARAM
 70
     7
  9
$LOFTNORMALS
280
     1
  9
$LATITUDE
 40
37.795
  9
$LONGITUDE
 40
-122.394
  9
$NORTHDIRECTION
 40
0.0
  9
$TIMEZONE
 70
 -8000
  9
$LIGHTGLYPHDISPLAY
280
     1
  9
$TILEMODELIGHTSYNCH
280
     1
  9
$SOLIDHIST
280
     0
  9
$SHOWHIST
280
     1
  9
$DWFFRAME
280
     2
  9
$DGNFRAME
280
     2
  9
$REALWORLDSCALE
290
     1
  9
$INTERFERECOLOR
 62
   256
  9
$CSHADOW
280
     0
  9
$SHADOWPLANELOCATION
 40
0.0
  0
ENDSEC
  0
SECTION
  2
CLASSES
  0
CLASS
  1
ACDBDICTIONARYWDFLT
  2
AcDbDictionaryWithDefault
  3
ObjectDBX Classes
 90
        0
 91
        8
280
     0
281
     0
  0
CLASS
  1
SCALE
  2
AcDbScale
  3
ObjectDBX Classes
 90
     1153
 91
        8
280
     0
281
     0
  0
CLASS
  1
VISUALSTYLE
  2
AcDbVisualStyle
  3
ObjectDBX Classes
 90
     4095
 91
        8
280
     0
281
     0
  0
CLASS
  1
MATERIAL
  2
AcDbMaterial
  3
ObjectDBX Classes
 90
     1153
 91
        8
280
     0
281
     0
  0
CLASS
  1
DICTIONARYVAR
  2
AcDbDictionaryVar
  3
ObjectDBX Classes
 90
        0
 91
        8
280
     0
281
     0
  0
CLASS
  1
ACDBPLACEHOLDER
  2
AcDbPlaceHolder
  3
ObjectDBX Classes
 90
        0
 91
        1
280
     0
281
     0
  0
CLASS
  1
LAYOUT
  2
AcDbLayout
  3
ObjectDBX Classes
 90
        0
 91
        1
280
     0
281
     0
  0
CLASS
  1
TABLESTYLE
  2
AcDbTableStyle
  3
ObjectDBX Classes
 90
     4095
 91
        7
280
     0
281
     0
  0
CLASS
  1
MLEADERSTYLE
  2
AcDbMLeaderStyle
  3
ACDB_MLEADERSTYLE_CLASS
 90
     4095
 91
        7
280
     0
281
     0
  0
CLASS
  1
SUN
  2
AcDbSun
  3
SCENEOE
 90
     1153
 91
        8
280
     0
281
     0
  0
CLASS
  1
SORTENTSTABLE
  2
AcDbSortentsTable
  3
ObjectDBX Classes
 90
        0
 91
        7
280
     0
281
     0
  0
CLASS
  1
CELLSTYLEMAP
  2
AcDbCellStyleMap
  3
ObjectDBX Classes
 90
     1152
 91
        6
280
     0
281
     0
  0
ENDSEC
  0
SECTION
  2
TABLES
  0
TABLE
  2
VPORT
  5
8
330
0
100
AcDbSymbolTable
 70
     1
  0
VPORT
  5
147
330
8
100
AcDbSymbolTableRecord
100
AcDbViewportTableRecord
  2
*Active
 70
     0
 10
0.0
 20
0.0
 11
1.0
 21
1.0
 12
130.2946782814531
 22
-71.96885591313898
 13
0.0
 23
0.0
 14
0.5
 24
0.5
 15
0.5
 25
0.5
 16
0.0
 26
0.0
 36
1.0
 17
0.0
 27
0.0
 37
0.0
 40
766.172335771102
 41
1.831002331002331
 42
50.0
 43
0.0
 44
0.0
 50
0.0
 51
0.0
 71
    16
 72
   100
 73
     1
 74
     3
 75
     0
 76
     0
 77
     0
 78
     0
281
     0
 65
     1
110
0.0
120
0.0
130
0.0
111
1.0
121
0.0
131
0.0
112
0.0
122
1.0
132
0.0
 79
     0
146
0.0
348
178
 60
     3
 61
     5
292
     1
282
     1
141
0.0
142
0.0
 63
   256
361
25F
  0
ENDTAB
  0
TABLE
  2
LTYPE
  5
5
330
0
100
AcDbSymbolTable
 70
     8
  0
LTYPE
  5
14
330
5
100
AcDbSymbolTableRecord
100
AcDbLinetypeTableRecord
  2
ByBlock
 70
     0
  3

 72
    65
 73
     0
 40
0.0
  0
LTYPE
  5
15
330
5
100
AcDbSymbolTableRecord
100
AcDbLinetypeTableRecord
  2
ByLayer
 70
     0
  3

 72
    65
 73
     0
 40
0.0
  0
LTYPE
  5
16
330
5
100
AcDbSymbolTableRecord
100
AcDbLinetypeTableRecord
  2
Continuous
 70
     0
  3
Solid line
 72
    65
 73
     0
 40
0.0
  0
LTYPE
  5
20
330
5
100
AcDbSymbolTableRecord
100
AcDbLinetypeTableRecord
  2
PUNKT
 70
     0
  3
..............
 72
    65
 73
     2
 40
1.5
 49
0.7
 74
     0
 49
-0.8
 74
     0
  0
LTYPE
  5
21
330
5
100
AcDbSymbolTableRecord
100
AcDbLinetypeTableRecord
  2
GESTRICHELT
 70
     0
  3
-- -- -- -- --
 72
    65
 73
     7
 40
2.8
 49
0.9
 74
     0
 49
0.0
 74
     0
 49
0.9
 74
     0
 49
0.0
 74
     0
 49
0.2
 74
     0
 49
0.0
 74
     0
 49
-0.8
 74
     0
  0
LTYPE
  5
22
330
5
100
AcDbSymbolTableRecord
100
AcDbLinetypeTableRecord
  2
STRICHPUNKT
 70
     0
  3
--.--.--.--.--
 72
    65
 73
     4
 40
8.8
 49
5.5
 74
     0
 49
-1.3
 74
     0
 49
0.7
 74
     0
 49
-1.3
 74
     0
  0
LTYPE
  5
25
330
5
100
AcDbSymbolTableRecord
100
AcDbLinetypeTableRecord
  2
PHANTOM
 70
     0
  3
--..--..--..--
 72
    65
 73
     6
 40
14.2
 49
7.0
 74
     0
 49
-1.8
 74
     0
 49
0.9
 74
     0
 49
-1.8
 74
     0
 49
0.9
 74
     0
 49
-1.8
 74
     0
  0
LTYPE
  5
1BF
330
5
100
AcDbSymbolTableRecord
100
AcDbLinetypeTableRecord
  2
DASH
 70
     0
  3
DASH _ _ _ _ _
 72
    65
 73
     2
 40
0.75
 49
0.4
 74
     0
 49
-0.35
 74
     0
  0
LTYPE
  5
1C0
330
5
100
AcDbSymbolTableRecord
100
AcDbLinetypeTableRecord
  2
LONGDASH_DASH
 70
     0
  3
LONGDASH_DASH __ . __ . __
 72
    65
 73
     4
 40
0.85
 49
0.4
 74
     0
 49
-0.2
 74
     0
 49
0.05
 74
     0
 49
-0.2
 74
     0
  0
LTYPE
  5
1C1
330
5
100
AcDbSymbolTableRecord
100
AcDbLinetypeTableRecord
  2
LONGDASH_DASH_DASH
 70
     0
  3
LONGDASH_DASH_DASH __ . . __ . . __
 72
    65
 73
     6
 40
1.1
 49
0.4
 74
     0
 49
-0.2
 74
     0
 49
0.05
 74
     0
 49
-0.2
 74
     0
 49
0.05
 74
     0
 49
-0.2
 74
     0
  0
ENDTAB
  0
TABLE
  2
LAYER
  5
2
102
{ACAD_XDICTIONARY
360
1DE
102
}
330
0
100
AcDbSymbolTable
 70
    16
  0
LAYER
  5
189
330
2
100
AcDbSymbolTableRecord
100
AcDbLayerTableRecord
  2
200
 70
     0
 62
     2
  6
Continuous
370
    50
390
F
347
187
348
0
  0
LAYER
  5
1C2
330
2
100
AcDbSymbolTableRecord
100
AcDbLayerTableRecord
  2
0
 70
     0
 62
     1
  6
Continuous
370
    -3
390
F
347
187
348
0
  0
LAYER
  5
1C3
330
2
100
AcDbSymbolTableRecord
100
AcDbLayerTableRecord
  2
1
 70
     0
 62
     4
  6
Continuous
370
    50
390
F
347
187
348
0
  0
LAYER
  5
1C4
330
2
100
AcDbSymbolTableRecord
100
AcDbLayerTableRecord
  2
2
 70
     0
 62
     7
  6
Continuous
370
    25
390
F
347
187
348
0
  0
LAYER
  5
1C5
330
2
100
AcDbSymbolTableRecord
100
AcDbLayerTableRecord
  2
3
 70
     0
 62
     1
  6
DASH
370
    35
390
F
347
187
348
0
  0
LAYER
  5
1C6
330
2
100
AcDbSymbolTableRecord
100
AcDbLayerTableRecord
  2
4
 70
     0
 62
     2
  6
LONGDASH_DASH
370
    25
390
F
347
187
348
0
  0
LAYER
  5
1C7
330
2
100
AcDbSymbolTableRecord
100
AcDbLayerTableRecord
  2
6
 70
     0
 62
     5
  6
Continuous
370
    -3
390
F
347
187
348
0
  0
LAYER
  5
1C8
330
2
100
AcDbSymbolTableRecord
100
AcDbLayerTableRecord
  2
CUT
 70
     0
 62
     1
  6
Continuous
370
    25
390
F
347
187
348
0
  0
LAYER
  5
1C9
330
2
100
AcDbSymbolTableRecord
100
AcDbLayerTableRecord
  2
NOCUT
 70
     0
 62
     7
  6
Continuous
370
    25
390
F
347
187
348
0
  0
LAYER
  5
1CA
330
2
100
AcDbSymbolTableRecord
100
AcDbLayerTableRecord
  2
SK1
 70
     0
 62
     4
  6
Continuous
370
    50
390
F
347
187
348
0
  0
LAYER
  5
1CB
330
2
100
AcDbSymbolTableRecord
100
AcDbLayerTableRecord
  2
SK2
 70
     0
 62
     7
  6
Continuous
370
    25
390
F
347
187
348
0
  0
LAYER
  5
1CC
330
2
100
AcDbSymbolTableRecord
100
AcDbLayerTableRecord
  2
SK3
 70
     0
 62
     1
  6
DASH
370
    35
390
F
347
187
348
0
  0
LAYER
  5
1CD
330
2
100
AcDbSymbolTableRecord
100
AcDbLayerTableRecord
  2
SK4
 70
     0
 62
     2
  6
LONGDASH_DASH
370
    25
390
F
347
187
348
0
  0
LAYER
  5
1CE
330
2
100
AcDbSymbolTableRecord
100
AcDbLayerTableRecord
  2
SK6
 70
     0
 62
     5
  6
Continuous
370
    -3
390
F
347
187
348
0
  0
LAYER
  5
1CF
330
2
100
AcDbSymbolTableRecord
100
AcDbLayerTableRecord
  2
INFTOTAL
 70
     0
 62
     9
  6
Continuous
370
    18
390
F
347
187
348
0
  0
LAYER
  5
263
330
2
100
AcDbSymbolTableRecord
100
AcDbLayerTableRecord
  2
11
 70
     0
 62
     4
  6
Continuous
370
    50
390
F
347
187
348
0
1001
AcAecLayerStandard
1000

1000

  0
ENDTAB
  0
TABLE
  2
STYLE
  5
3
330
0
100
AcDbSymbolTable
 70
     3
  0
STYLE
  5
11
330
3
100
AcDbSymbolTableRecord
100
AcDbTextStyleTableRecord
  2
Standard
 70
     0
 40
0.0
 41
1.0
 50
0.0
 71
     0
 42
0.2
  3
txt
  4

  0
STYLE
  5
188
330
3
100
AcDbSymbolTableRecord
100
AcDbTextStyleTableRecord
  2
BMG_Text
 70
     0
 40
3.5
 41
1.0
 50
0.0
 71
     0
 42
0.2
  3
monos.ttf
  4

1001
ACAD
1000
Monospac821 BT
1071
       49
  0
STYLE
  5
269
330
3
100
AcDbSymbolTableRecord
100
AcDbTextStyleTableRecord
  2
SLDTEXTSTYLE0
 70
     0
 40
0.0
 41
0.605
 50
0.0
 71
     0
 42
0.2
  3
TXT
  4

  0
ENDTAB
  0
TABLE
  2
VIEW
  5
6
330
0
100
AcDbSymbolTable
 70
     0
  0
ENDTAB
  0
TABLE
  2
UCS
  5
7
330
0
100
AcDbSymbolTable
 70
     0
  0
ENDTAB
  0
TABLE
  2
APPID
  5
9
330
0
100
AcDbSymbolTable
 70
     2
  0
APPID
  5
12
330
9
100
AcDbSymbolTableRecord
100
AcDbRegAppTableRecord
  2
ACAD
 70
     0
  0
APPID
  5
264
330
9
100
AcDbSymbolTableRecord
100
AcDbRegAppTableRecord
  2
AcAecLayerStandard
 70
     0
  0
ENDTAB
  0
TABLE
  2
DIMSTYLE
  5
A
330
0
100
AcDbSymbolTable
 70
     6
100
AcDbDimStyleTable
  0
DIMSTYLE
105
28
330
A
100
AcDbSymbolTableRecord
100
AcDbDimStyleTableRecord
  2
Standard
 70
     0
178
     0
340
11
  0
DIMSTYLE
105
265
330
A
100
AcDbSymbolTableRecord
100
AcDbDimStyleTableRecord
  2
Matthias
 70
     0
 41
3.0
 44
2.0
 73
     0
 77
     1
140
3.0
147
2.0
178
     0
340
11
  0
DIMSTYLE
105
267
102
{ACAD_REACTORS
102
}
330
A
100
AcDbSymbolTableRecord
100
AcDbDimStyleTableRecord
  2
ISO-25
 70
     0
 41
2.5
 42
0.625
 43
3.75
 44
1.25
 73
     0
 74
     0
 77
     1
 78
     8
140
2.5
141
2.5
143
0.0393700787
147
0.625
171
     3
172
     1
178
     0
271
     2
272
     2
274
     3
278
    44
283
     0
284
     8
340
11
  0
DIMSTYLE
105
268
330
A
100
AcDbSymbolTableRecord
100
AcDbDimStyleTableRecord
  2
SLDDIMSTYLE0
 70
     0
 41
3.5
 44
0.0
 45
0.000000001
 73
     0
 74
     0
 77
     1
 78
    12
 79
     3
140
3.5
144
0.5
147
0.875
173
     1
178
     0
271
     2
272
     1
276
     2
284
    12
340
269
  0
DIMSTYLE
105
26A
330
A
100
AcDbSymbolTableRecord
100
AcDbDimStyleTableRecord
  2
SLDDIMSTYLE1
 70
     0
 41
3.5
 44
0.0
 45
0.000000001
 73
     0
 74
     0
 77
     1
 78
    12
 79
     3
140
3.5
144
0.5
147
0.875
173
     1
178
     0
271
     2
272
     3
276
     2
284
    12
340
269
  0
DIMSTYLE
105
26B
330
A
100
AcDbSymbolTableRecord
100
AcDbDimStyleTableRecord
  2
SLDDIMSTYLE2
 70
     0
 41
3.5
 44
0.0
 45
0.000000001
 73
     0
 74
     0
 77
     1
 78
    12
 79
     3
140
3.5
147
0.875
173
     1
178
     0
271
     2
272
     0
276
     2
284
    12
340
269
  0
ENDTAB
  0
TABLE
  2
BLOCK_RECORD
  5
1
330
0
100
AcDbSymbolTable
 70
     1
  0
BLOCK_RECORD
  5
1D
330
1
100
AcDbSymbolTableRecord
100
AcDbBlockTableRecord
  2
*Model_Space
340
1E
 70
     0
280
     1
281
     0
  0
BLOCK_RECORD
  5
1B
330
1
100
AcDbSymbolTableRecord
100
AcDbBlockTableRecord
  2
*Paper_Space
340
1C
 70
     0
280
     1
281
     0
  0
ENDTAB
  0
ENDSEC
  0
SECTION
  2
BLOCKS
  0
BLOCK
  5
171
330
1D
100
AcDbEntity
  8
0
100
AcDbBlockBegin
  2
*Model_Space
 70
     0
 10
0.0
 20
0.0
 30
0.0
  3
*Model_Space
  1

  0
ENDBLK
  5
172
330
1D
100
AcDbEntity
  8
0
100
AcDbBlockEnd
  0
BLOCK
  5
16F
330
1B
100
AcDbEntity
 67
     1
  8
0
100
AcDbBlockBegin
  2
*Paper_Space
 70
     0
 10
0.0
 20
0.0
 30
0.0
  3
*Paper_Space
  1

  0
ENDBLK
  5
170
330
1B
100
AcDbEntity
 67
     1
  8
0
100
AcDbBlockEnd
  0
ENDSEC
  0
SECTION
  2
ENTITIES
  0
ARC
  5
29
330
1D
100
AcDbEntity
  8
1
100
AcDbCircle
 10
12.52500916
 20
-46.00001526
 30
0.0
 40
0.5
100
AcDbArc
 50
0.0
 51
90.001748614
  0
LINE
  5
2A
330
1D
100
AcDbEntity
  8
1
100
AcDbLine
 10
12.5249939
 20
-45.5
 30
0.0
 11
9.67500305
 21
-45.50001526
 31
0.0
  0
ARC
  5
2B
330
1D
100
AcDbEntity
  8
1
100
AcDbCircle
 10
9.67500305
 20
-46.00001526
 30
0.0
 40
0.5
100
AcDbArc
 50
90.0
 51
180.0
  0
LINE
  5
2D
330
1D
100
AcDbEntity
  8
1
100
AcDbLine
 10
2.3999939
 20
34.92500305
 30
0.0
 11
0.0
 21
34.92500305
 31
0.0
  0
LINE
  5
2E
330
1D
100
AcDbEntity
  8
SK1
100
AcDbLine
 10
0.0
 20
34.92500305
 30
0.0
 11
-99.460777247
 21
20.420211703
 31
0.0
  0
ARC
  5
2F
330
1D
100
AcDbEntity
  8
SK1
100
AcDbCircle
 10
-99.1000061
 20
17.94636536
 30
0.0
 40
2.50001431
100
AcDbArc
 50
98.29718781
 51
180.0
  0
LINE
  5
30
330
1D
100
AcDbEntity
  8
SK1
100
AcDbLine
 10
-101.60002136
 20
17.94636536
 30
0.0
 11
-101.60002136
 21
-17.94636536
 31
0.0
  0
ARC
  5
31
330
1D
100
AcDbEntity
  8
SK1
100
AcDbCircle
 10
-99.10002136
 20
-17.94636536
 30
0.0
 40
2.5
100
AcDbArc
 50
180.0
 51
261.70295954
  0
LINE
  5
32
330
1D
100
AcDbEntity
  8
SK1
100
AcDbLine
 10
-99.46078491
 20
-20.42020416
 30
0.0
 11
0.0
 21
-34.92500305
 31
0.0
  0
LINE
  5
33
330
1D
100
AcDbEntity
  8
1
100
AcDbLine
 10
0.0
 20
-34.92500305
 30
0.0
 11
2.3999939
 21
-34.92500305
 31
0.0
  0
ARC
  5
34
330
1D
100
AcDbEntity
  8
1
100
AcDbCircle
 10
2.3999939
 20
-35.7250061
 30
0.0
 40
0.80000305
100
AcDbArc
 50
0.0
 51
90.0
  0
LINE
  5
35
330
1D
100
AcDbEntity
  8
1
100
AcDbLine
 10
82.95001221
 20
-2.30940247
 30
0.0
 11
80.95001221
 21
-1.1546936
 31
0.0
  0
LINE
  5
36
330
1D
100
AcDbEntity
  8
1
100
AcDbLine
 10
80.95001221
 20
-1.1546936
 30
0.0
 11
80.95001221
 21
1.1546936
 31
0.0
  0
LINE
  5
37
330
1D
100
AcDbEntity
  8
1
100
AcDbLine
 10
80.95001221
 20
1.1546936
 30
0.0
 11
82.95001221
 21
2.30940247
 31
0.0
  0
LINE
  5
38
330
1D
100
AcDbEntity
  8
1
100
AcDbLine
 10
82.95001221
 20
2.30940247
 30
0.0
 11
84.95001221
 21
1.1546936
 31
0.0
  0
LINE
  5
39
330
1D
100
AcDbEntity
  8
1
100
AcDbLine
 10
84.95001221
 20
1.1546936
 30
0.0
 11
84.95001221
 21
-1.1546936
 31
0.0
  0
LINE
  5
3A
330
1D
100
AcDbEntity
  8
1
100
AcDbLine
 10
84.95001221
 20
-1.1546936
 30
0.0
 11
82.95001221
 21
-2.30940247
 31
0.0
  0
ARC
  5
3B
330
1D
100
AcDbEntity
  8
1
100
AcDbCircle
 10
40.0
 20
24.50001526
 30
0.0
 40
5.0
100
AcDbArc
 50
180.0
 51
270.0
  0
LINE
  5
3C
330
1D
100
AcDbEntity
  8
1
100
AcDbLine
 10
40.0
 20
19.50001526
 30
0.0
 11
92.25
 21
19.50001526
 31
0.0
  0
LINE
  5
3D
330
1D
100
AcDbEntity
  8
1
100
AcDbLine
 10
92.25
 20
19.50001526
 30
0.0
 11
93.0
 21
18.75001526
 31
0.0
  0
LINE
  5
3E
330
1D
100
AcDbEntity
  8
1
100
AcDbLine
 10
93.0
 20
18.75001526
 30
0.0
 11
93.0
 21
-18.75
 31
0.0
  0
LINE
  5
3F
330
1D
100
AcDbEntity
  8
1
100
AcDbLine
 10
93.0
 20
-18.75
 30
0.0
 11
92.25
 21
-19.5
 31
0.0
  0
LINE
  5
40
330
1D
100
AcDbEntity
  8
1
100
AcDbLine
 10
92.25
 20
-19.5
 30
0.0
 11
40.0
 21
-19.5
 31
0.0
  0
ARC
  5
41
330
1D
100
AcDbEntity
  8
1
100
AcDbCircle
 10
40.0
 20
-24.5
 30
0.0
 40
5.0
100
AcDbArc
 50
90.0
 51
180.0
  0
ARC
  5
42
330
1D
100
AcDbEntity
  8
1
100
AcDbCircle
 10
19.8500061
 20
35.7250061
 30
0.0
 40
0.80000305
100
AcDbArc
 50
180.0
 51
270.0
  0
LINE
  5
43
330
1D
100
AcDbEntity
  8
1
100
AcDbLine
 10
19.8500061
 20
34.92500305
 30
0.0
 11
34.49998474
 21
34.92500305
 31
0.0
  0
LINE
  5
44
330
1D
100
AcDbEntity
  8
1
100
AcDbLine
 10
34.49998474
 20
34.92500305
 30
0.0
 11
35.0
 21
34.42500305
 31
0.0
  0
LINE
  5
45
330
1D
100
AcDbEntity
  8
1
100
AcDbLine
 10
35.0
 20
34.42500305
 30
0.0
 11
35.0
 21
-34.42500305
 31
0.0
  0
LINE
  5
46
330
1D
100
AcDbEntity
  8
1
100
AcDbLine
 10
35.0
 20
-34.42500305
 30
0.0
 11
34.5
 21
-34.92500305
 31
0.0
  0
LINE
  5
47
330
1D
100
AcDbEntity
  8
1
100
AcDbLine
 10
34.5
 20
-34.92500305
 30
0.0
 11
19.8500061
 21
-34.92500305
 31
0.0
  0
ARC
  5
48
330
1D
100
AcDbEntity
  8
1
100
AcDbCircle
 10
19.8500061
 20
-35.7250061
 30
0.0
 40
0.80000305
100
AcDbArc
 50
90.0
 51
180.0
  0
ARC
  5
49
330
1D
100
AcDbEntity
  8
1
100
AcDbCircle
 10
9.67498779
 20
46.0
 30
0.0
 40
0.5
100
AcDbArc
 50
180.0
 51
270.0
  0
LINE
  5
4A
330
1D
100
AcDbEntity
  8
1
100
AcDbLine
 10
9.67498779
 20
45.5
 30
0.0
 11
12.5249939
 21
45.5
 31
0.0
  0
ARC
  5
4B
330
1D
100
AcDbEntity
  8
1
100
AcDbCircle
 10
12.5249939
 20
46.0
 30
0.0
 40
0.5
100
AcDbArc
 50
270.0
 51
0.0
  0
LINE
  5
4C
330
1D
100
AcDbEntity
  8
3
100
AcDbLine
 10
65.267963756
 20
-8.0
 30
0.0
 11
65.267963756
 21
8.0
 31
0.0
  0
LINE
  5
4D
330
1D
100
AcDbEntity
  8
3
100
AcDbLine
 10
65.267963756
 20
8.0
 30
0.0
 11
9.843354726
 21
8.0
 31
0.0
  0
LINE
  5
4E
330
1D
100
AcDbEntity
  8
3
100
AcDbLine
 10
9.843354726
 20
8.0
 30
0.0
 11
9.843354726
 21
-8.0
 31
0.0
  0
LINE
  5
4F
330
1D
100
AcDbEntity
  8
3
100
AcDbLine
 10
9.843354726
 20
-8.0
 30
0.0
 11
65.267963756
 21
-8.0
 31
0.0
  0
LINE
  5
50
330
1D
100
AcDbEntity
  8
1
100
AcDbLine
 10
14.33312988
 20
30.0
 30
0.0
 11
14.33312988
 21
-48.72499847
 31
0.0
  0
LINE
  5
51
330
1D
100
AcDbEntity
  8
1
100
AcDbLine
 10
14.33312988
 20
-48.72499847
 30
0.0
 11
18.6000061
 21
-48.72499847
 31
0.0
  0
LINE
  5
52
330
1D
100
AcDbEntity
  8
1
100
AcDbLine
 10
18.6000061
 20
-48.72499847
 30
0.0
 11
19.05000305
 21
-48.27500153
 31
0.0
  0
LINE
  5
53
330
1D
100
AcDbEntity
  8
1
100
AcDbLine
 10
19.05000305
 20
-48.27500153
 30
0.0
 11
19.05000305
 21
48.27500916
 31
0.0
  0
LINE
  5
54
330
1D
100
AcDbEntity
  8
1
100
AcDbLine
 10
19.05000305
 20
48.27500916
 30
0.0
 11
18.60002136
 21
48.7250061
 31
0.0
  0
LINE
  5
55
330
1D
100
AcDbEntity
  8
1
100
AcDbLine
 10
18.60002136
 20
48.7250061
 30
0.0
 11
14.33314514
 21
48.7250061
 31
0.0
  0
LINE
  5
56
330
1D
100
AcDbEntity
  8
1
100
AcDbLine
 10
14.33314514
 20
48.7250061
 30
0.0
 11
14.33312988
 21
38.38999939
 31
0.0
  0
LINE
  5
57
330
1D
100
AcDbEntity
  8
1
100
AcDbLine
 10
14.33312988
 20
38.38999939
 30
0.0
 11
13.0249939
 21
34.20999146
 31
0.0
  0
LINE
  5
58
330
1D
100
AcDbEntity
  8
1
100
AcDbLine
 10
13.0249939
 20
34.20999146
 30
0.0
 11
9.17498779
 21
34.20999146
 31
0.0
  0
LINE
  5
59
330
1D
100
AcDbEntity
  8
1
100
AcDbLine
 10
9.17498779
 20
34.20999146
 30
0.0
 11
7.86682129
 21
38.38999939
 31
0.0
  0
LINE
  5
5A
330
1D
100
AcDbEntity
  8
1
100
AcDbLine
 10
7.86682129
 20
38.38999939
 30
0.0
 11
3.19999695
 21
38.38999939
 31
0.0
  0
LINE
  5
5B
330
1D
100
AcDbEntity
  8
1
100
AcDbLine
 10
7.86682129
 20
30.0
 30
0.0
 11
7.86682129
 21
-48.72499847
 31
0.0
  0
LINE
  5
5C
330
1D
100
AcDbEntity
  8
1
100
AcDbLine
 10
7.86682129
 20
-48.72499847
 30
0.0
 11
3.65000916
 21
-48.72499847
 31
0.0
  0
LINE
  5
5D
330
1D
100
AcDbEntity
  8
1
100
AcDbLine
 10
3.65000916
 20
-48.72499847
 30
0.0
 11
3.19999695
 21
-48.27500153
 31
0.0
  0
LINE
  5
5E
330
1D
100
AcDbEntity
  8
1
100
AcDbLine
 10
3.19999695
 20
-48.27500153
 30
0.0
 11
3.19999695
 21
48.27500916
 31
0.0
  0
LINE
  5
5F
330
1D
100
AcDbEntity
  8
1
100
AcDbLine
 10
3.19999695
 20
48.27500916
 30
0.0
 11
3.6499939
 21
48.7250061
 31
0.0
  0
LINE
  5
60
330
1D
100
AcDbEntity
  8
1
100
AcDbLine
 10
3.6499939
 20
48.7250061
 30
0.0
 11
7.86682129
 21
48.7250061
 31
0.0
  0
LINE
  5
61
330
1D
100
AcDbEntity
  8
1
100
AcDbLine
 10
7.86682129
 20
48.7250061
 30
0.0
 11
7.86682129
 21
38.38999939
 31
0.0
  0
LINE
  5
62
330
1D
100
AcDbEntity
  8
1
100
AcDbLine
 10
9.17498779
 20
30.0
 30
0.0
 11
9.17498779
 21
-46.45921326
 31
0.0
  0
LINE
  5
63
330
1D
100
AcDbEntity
  8
1
100
AcDbLine
 10
9.17498779
 20
-46.45921326
 30
0.0
 11
7.86682129
 21
-48.7250061
 31
0.0
  0
LINE
  5
64
330
1D
100
AcDbEntity
  8
1
100
AcDbLine
 10
13.0249939
 20
30.0
 30
0.0
 11
13.0249939
 21
-46.45921326
 31
0.0
  0
LINE
  5
65
330
1D
100
AcDbEntity
  8
1
100
AcDbLine
 10
13.0249939
 20
-46.45921326
 30
0.0
 11
14.33314514
 21
-48.7250061
 31
0.0
  0
LINE
  5
66
330
1D
100
AcDbEntity
  8
1
100
AcDbLine
 10
19.05000305
 20
38.38999939
 30
0.0
 11
14.33312988
 21
38.38999939
 31
0.0
  0
LINE
  5
67
330
1D
100
AcDbEntity
  8
1
100
AcDbLine
 10
19.05000305
 20
30.0
 30
0.0
 11
3.19999695
 21
30.0
 31
0.0
  0
LINE
  5
68
330
1D
100
AcDbEntity
  8
1
100
AcDbLine
 10
9.17498779
 20
34.20999146
 30
0.0
 11
9.17498779
 21
46.45921326
 31
0.0
  0
LINE
  5
69
330
1D
100
AcDbEntity
  8
1
100
AcDbLine
 10
9.17498779
 20
46.45921326
 30
0.0
 11
7.86682129
 21
48.7250061
 31
0.0
  0
LINE
  5
6A
330
1D
100
AcDbEntity
  8
1
100
AcDbLine
 10
13.0249939
 20
34.20999146
 30
0.0
 11
13.0249939
 21
46.45921326
 31
0.0
  0
LINE
  5
6B
330
1D
100
AcDbEntity
  8
1
100
AcDbLine
 10
13.0249939
 20
46.45921326
 30
0.0
 11
14.33314514
 21
48.7250061
 31
0.0
  0
LINE
  5
6C
330
1D
100
AcDbEntity
  8
SK4
100
AcDbLine
 10
82.95001221
 20
-5.0
 30
0.0
 11
82.95001221
 21
5.0
 31
0.0
  0
LINE
  5
6D
330
1D
100
AcDbEntity
  8
SK4
100
AcDbLine
 10
95.0
 20
0.0
 30
0.0
 11
-5.773554919
 21
0.0
 31
0.0
  0
LINE
  5
6E
330
1D
100
AcDbEntity
  8
SK4
100
AcDbLine
 10
-14.332294051
 20
0.0
 30
0.0
 11
-103.60002136
 21
0.0
 31
0.0
  0
LINE
  5
6F
330
1D
100
AcDbEntity
  8
3
100
AcDbLine
 10
93.0
 20
-11.0
 30
0.0
 11
67.0
 21
-11.0
 31
0.0
  0
LINE
  5
70
330
1D
100
AcDbEntity
  8
3
100
AcDbLine
 10
67.0
 20
-11.0
 30
0.0
 11
67.0
 21
11.0
 31
0.0
  0
LINE
  5
71
330
1D
100
AcDbEntity
  8
3
100
AcDbLine
 10
67.0
 20
11.0
 30
0.0
 11
93.0
 21
11.0
 31
0.0
  0
LINE
  5
72
330
1D
100
AcDbEntity
  8
3
100
AcDbLine
 10
67.0
 20
11.0
 30
0.0
 11
65.267963756
 21
8.0
 31
0.0
  0
LINE
  5
73
330
1D
100
AcDbEntity
  8
3
100
AcDbLine
 10
67.0
 20
-11.0
 30
0.0
 11
65.267955433
 21
-8.0
 31
0.0
  0
LINE
  5
74
330
1D
100
AcDbEntity
  8
SK1
100
AcDbLine
 10
0.0
 20
34.92500305
 30
0.0
 11
0.0
 21
-34.92500305
 31
0.0
  0
CIRCLE
  5
75
330
1D
100
AcDbEntity
  8
1
100
AcDbCircle
 10
82.95001221
 20
0.0
 30
0.0
 40
4.0
  0
LINE
  5
76
330
1D
100
AcDbEntity
  8
SK2
100
AcDbLine
 10
-10.0
 20
-34.92500305
 30
0.0
 11
0.0
 21
-34.92500305
 31
0.0
  0
LINE
  5
77
330
1D
100
AcDbEntity
  8
SK2
100
AcDbLine
 10
-8.0
 20
-34.92500305
 30
0.0
 11
-8.45
 21
-31.42500305
 31
0.0
  0
LINE
  5
78
330
1D
100
AcDbEntity
  8
SK2
100
AcDbLine
 10
-8.45
 20
-31.42500305
 30
0.0
 11
-7.55
 21
-31.42500305
 31
0.0
  0
LINE
  5
79
330
1D
100
AcDbEntity
  8
SK2
100
AcDbLine
 10
-7.55
 20
-31.42500305
 30
0.0
 11
-8.0
 21
-34.92500305
 31
0.0
  0
LINE
  5
7A
330
1D
100
AcDbEntity
  8
SK2
100
AcDbLine
 10
-8.0
 20
-31.52500305
 30
0.0
 11
-8.0
 21
-34.82500305
 31
0.0
  0
LINE
  5
7B
330
1D
100
AcDbEntity
  8
SK2
100
AcDbLine
 10
-7.8
 20
-31.52500305
 30
0.0
 11
-7.8
 21
-33.269447494
 31
0.0
  0
LINE
  5
7C
330
1D
100
AcDbEntity
  8
SK2
100
AcDbLine
 10
-8.2
 20
-31.52500305
 30
0.0
 11
-8.2
 21
-33.269447494
 31
0.0
  0
LINE
  5
7D
330
1D
100
AcDbEntity
  8
SK2
100
AcDbLine
 10
-7.6
 20
-31.52500305
 30
0.0
 11
-7.6
 21
-31.713891939
 31
0.0
  0
LINE
  5
7E
330
1D
100
AcDbEntity
  8
SK2
100
AcDbLine
 10
-8.4
 20
-31.52500305
 30
0.0
 11
-8.4
 21
-31.713891939
 31
0.0
  0
LINE
  5
7F
330
1D
100
AcDbEntity
  8
SK2
100
AcDbLine
 10
-10.0
 20
34.92500305
 30
0.0
 11
0.0
 21
34.92500305
 31
0.0
  0
LINE
  5
80
330
1D
100
AcDbEntity
  8
SK2
100
AcDbLine
 10
-8.0
 20
34.92500305
 30
0.0
 11
-7.55
 21
31.42500305
 31
0.0
  0
LINE
  5
81
330
1D
100
AcDbEntity
  8
SK2
100
AcDbLine
 10
-7.55
 20
31.42500305
 30
0.0
 11
-8.45
 21
31.42500305
 31
0.0
  0
LINE
  5
82
330
1D
100
AcDbEntity
  8
SK2
100
AcDbLine
 10
-8.45
 20
31.42500305
 30
0.0
 11
-8.0
 21
34.92500305
 31
0.0
  0
LINE
  5
83
330
1D
100
AcDbEntity
  8
SK2
100
AcDbLine
 10
-8.0
 20
31.52500305
 30
0.0
 11
-8.0
 21
34.82500305
 31
0.0
  0
LINE
  5
84
330
1D
100
AcDbEntity
  8
SK2
100
AcDbLine
 10
-8.2
 20
31.52500305
 30
0.0
 11
-8.2
 21
33.269447494
 31
0.0
  0
LINE
  5
85
330
1D
100
AcDbEntity
  8
SK2
100
AcDbLine
 10
-7.8
 20
31.52500305
 30
0.0
 11
-7.8
 21
33.269447494
 31
0.0
  0
LINE
  5
86
330
1D
100
AcDbEntity
  8
SK2
100
AcDbLine
 10
-8.4
 20
31.52500305
 30
0.0
 11
-8.4
 21
31.713891939
 31
0.0
  0
LINE
  5
87
330
1D
100
AcDbEntity
  8
SK2
100
AcDbLine
 10
-7.6
 20
31.52500305
 30
0.0
 11
-7.6
 21
31.713891939
 31
0.0
  0
LINE
  5
88
330
1D
100
AcDbEntity
  8
SK2
100
AcDbLine
 10
-8.0
 20
-31.42500305
 30
0.0
 11
-8.0
 21
31.42500305
 31
0.0
  0
TEXT
  5
89
330
1D
100
AcDbEntity
  8
SK2
100
AcDbText
 10
-9.5
 20
-2.430313281
 30
0.0
 40
3.5
  1
69.85
 50
90.0
  7
BMG_Text
100
AcDbText
  0
CIRCLE
  5
8A
330
1D
100
AcDbEntity
  8
SK2
100
AcDbCircle
 10
-10.75
 20
-4.680313281
 30
0.0
 40
1.25
  0
LINE
  5
8B
330
1D
100
AcDbEntity
  8
SK2
100
AcDbLine
 10
-9.5
 20
-5.930313281
 30
0.0
 11
-12.0
 21
-3.430313281
 31
0.0
  0
LINE
  5
8C
330
1D
100
AcDbEntity
  8
2
100
AcDbLine
 10
0.0
 20
57.999999998
 30
0.0
 11
0.0
 21
34.92500305
 31
0.0
  0
LINE
  5
8D
330
1D
100
AcDbEntity
  8
2
100
AcDbLine
 10
0.0
 20
55.999999998
 30
0.0
 11
3.5
 21
56.449999998
 31
0.0
  0
LINE
  5
8E
330
1D
100
AcDbEntity
  8
2
100
AcDbLine
 10
3.5
 20
56.449999998
 30
0.0
 11
3.5
 21
55.549999998
 31
0.0
  0
LINE
  5
8F
330
1D
100
AcDbEntity
  8
2
100
AcDbLine
 10
3.5
 20
55.549999998
 30
0.0
 11
0.0
 21
55.999999998
 31
0.0
  0
LINE
  5
90
330
1D
100
AcDbEntity
  8
2
100
AcDbLine
 10
3.4
 20
55.999999998
 30
0.0
 11
0.1
 21
55.999999998
 31
0.0
  0
LINE
  5
91
330
1D
100
AcDbEntity
  8
2
100
AcDbLine
 10
3.4
 20
55.799999998
 30
0.0
 11
1.655555556
 21
55.799999998
 31
0.0
  0
LINE
  5
92
330
1D
100
AcDbEntity
  8
2
100
AcDbLine
 10
3.4
 20
56.199999998
 30
0.0
 11
1.655555556
 21
56.199999998
 31
0.0
  0
LINE
  5
93
330
1D
100
AcDbEntity
  8
2
100
AcDbLine
 10
3.4
 20
55.599999998
 30
0.0
 11
3.211111111
 21
55.599999998
 31
0.0
  0
LINE
  5
94
330
1D
100
AcDbEntity
  8
2
100
AcDbLine
 10
3.4
 20
56.399999998
 30
0.0
 11
3.211111111
 21
56.399999998
 31
0.0
  0
LINE
  5
95
330
1D
100
AcDbEntity
  8
2
100
AcDbLine
 10
93.0
 20
58.000000001
 30
0.0
 11
93.0
 21
18.75001526
 31
0.0
  0
LINE
  5
96
330
1D
100
AcDbEntity
  8
2
100
AcDbLine
 10
93.0
 20
56.000000001
 30
0.0
 11
89.5
 21
55.550000001
 31
0.0
  0
LINE
  5
97
330
1D
100
AcDbEntity
  8
2
100
AcDbLine
 10
89.5
 20
55.550000001
 30
0.0
 11
89.5
 21
56.450000001
 31
0.0
  0
LINE
  5
98
330
1D
100
AcDbEntity
  8
2
100
AcDbLine
 10
89.5
 20
56.450000001
 30
0.0
 11
93.0
 21
56.000000001
 31
0.0
  0
LINE
  5
99
330
1D
100
AcDbEntity
  8
2
100
AcDbLine
 10
89.6
 20
56.000000001
 30
0.0
 11
92.9
 21
56.000000001
 31
0.0
  0
LINE
  5
9A
330
1D
100
AcDbEntity
  8
2
100
AcDbLine
 10
89.6
 20
56.200000001
 30
0.0
 11
91.344444444
 21
56.200000001
 31
0.0
  0
LINE
  5
9B
330
1D
100
AcDbEntity
  8
2
100
AcDbLine
 10
89.6
 20
55.800000001
 30
0.0
 11
91.344444444
 21
55.800000001
 31
0.0
  0
LINE
  5
9C
330
1D
100
AcDbEntity
  8
2
100
AcDbLine
 10
89.6
 20
56.400000001
 30
0.0
 11
89.788888889
 21
56.400000001
 31
0.0
  0
LINE
  5
9D
330
1D
100
AcDbEntity
  8
2
100
AcDbLine
 10
89.6
 20
55.600000001
 30
0.0
 11
89.788888889
 21
55.600000001
 31
0.0
  0
LINE
  5
9E
330
1D
100
AcDbEntity
  8
2
100
AcDbLine
 10
3.5
 20
55.999999998
 30
0.0
 11
89.5
 21
56.000000001
 31
0.0
  0
TEXT
  5
9F
330
1D
100
AcDbEntity
  8
2
100
AcDbText
 10
45.081405211
 20
57.5
 30
0.0
 40
3.5
  1
93
  7
BMG_Text
100
AcDbText
  0
LINE
  5
A0
330
1D
100
AcDbEntity
  8
SK2
100
AcDbLine
 10
118.0
 20
-19.5
 30
0.0
 11
92.25
 21
-19.5
 31
0.0
  0
LINE
  5
A1
330
1D
100
AcDbEntity
  8
SK2
100
AcDbLine
 10
116.0
 20
-19.5
 30
0.0
 11
115.55
 21
-16.0
 31
0.0
  0
LINE
  5
A2
330
1D
100
AcDbEntity
  8
SK2
100
AcDbLine
 10
115.55
 20
-16.0
 30
0.0
 11
116.45
 21
-16.0
 31
0.0
  0
LINE
  5
A3
330
1D
100
AcDbEntity
  8
SK2
100
AcDbLine
 10
116.45
 20
-16.0
 30
0.0
 11
116.0
 21
-19.5
 31
0.0
  0
LINE
  5
A4
330
1D
100
AcDbEntity
  8
SK2
100
AcDbLine
 10
116.0
 20
-16.1
 30
0.0
 11
116.0
 21
-19.4
 31
0.0
  0
LINE
  5
A5
330
1D
100
AcDbEntity
  8
SK2
100
AcDbLine
 10
116.2
 20
-16.1
 30
0.0
 11
116.2
 21
-17.844444444
 31
0.0
  0
LINE
  5
A6
330
1D
100
AcDbEntity
  8
SK2
100
AcDbLine
 10
115.8
 20
-16.1
 30
0.0
 11
115.8
 21
-17.844444444
 31
0.0
  0
LINE
  5
A7
330
1D
100
AcDbEntity
  8
SK2
100
AcDbLine
 10
116.4
 20
-16.1
 30
0.0
 11
116.4
 21
-16.288888889
 31
0.0
  0
LINE
  5
A8
330
1D
100
AcDbEntity
  8
SK2
100
AcDbLine
 10
115.6
 20
-16.1
 30
0.0
 11
115.6
 21
-16.288888889
 31
0.0
  0
LINE
  5
A9
330
1D
100
AcDbEntity
  8
SK2
100
AcDbLine
 10
118.0
 20
19.50001526
 30
0.0
 11
92.25
 21
19.50001526
 31
0.0
  0
LINE
  5
AA
330
1D
100
AcDbEntity
  8
SK2
100
AcDbLine
 10
116.0
 20
19.50001526
 30
0.0
 11
116.45
 21
16.00001526
 31
0.0
  0
LINE
  5
AB
330
1D
100
AcDbEntity
  8
SK2
100
AcDbLine
 10
116.45
 20
16.00001526
 30
0.0
 11
115.55
 21
16.00001526
 31
0.0
  0
LINE
  5
AC
330
1D
100
AcDbEntity
  8
SK2
100
AcDbLine
 10
115.55
 20
16.00001526
 30
0.0
 11
116.0
 21
19.50001526
 31
0.0
  0
LINE
  5
AD
330
1D
100
AcDbEntity
  8
SK2
100
AcDbLine
 10
116.0
 20
16.10001526
 30
0.0
 11
116.0
 21
19.40001526
 31
0.0
  0
LINE
  5
AE
330
1D
100
AcDbEntity
  8
SK2
100
AcDbLine
 10
115.8
 20
16.10001526
 30
0.0
 11
115.8
 21
17.844459704
 31
0.0
  0
LINE
  5
AF
330
1D
100
AcDbEntity
  8
SK2
100
AcDbLine
 10
116.2
 20
16.10001526
 30
0.0
 11
116.2
 21
17.844459704
 31
0.0
  0
LINE
  5
B0
330
1D
100
AcDbEntity
  8
SK2
100
AcDbLine
 10
115.6
 20
16.10001526
 30
0.0
 11
115.6
 21
16.288904149
 31
0.0
  0
LINE
  5
B1
330
1D
100
AcDbEntity
  8
SK2
100
AcDbLine
 10
116.4
 20
16.10001526
 30
0.0
 11
116.4
 21
16.288904149
 31
0.0
  0
LINE
  5
B2
330
1D
100
AcDbEntity
  8
SK2
100
AcDbLine
 10
116.0
 20
-16.0
 30
0.0
 11
116.0
 21
16.00001526
 31
0.0
  0
TEXT
  5
B3
330
1D
100
AcDbEntity
  8
SK2
100
AcDbText
 10
114.5
 20
0.331413444
 30
0.0
 40
3.5
  1
39
 50
90.0
  7
BMG_Text
100
AcDbText
  0
CIRCLE
  5
B4
330
1D
100
AcDbEntity
  8
SK2
100
AcDbCircle
 10
113.25
 20
-1.918586556
 30
0.0
 40
1.25
  0
LINE
  5
B5
330
1D
100
AcDbEntity
  8
SK2
100
AcDbLine
 10
114.5
 20
-3.168586556
 30
0.0
 11
112.0
 21
-0.668586556
 31
0.0
  0
LINE
  5
B6
330
1D
100
AcDbEntity
  8
SK2
100
AcDbLine
 10
110.0
 20
-11.0
 30
0.0
 11
93.0
 21
-11.0
 31
0.0
  0
LINE
  5
B7
330
1D
100
AcDbEntity
  8
SK2
100
AcDbLine
 10
108.0
 20
-11.0
 30
0.0
 11
107.55
 21
-7.5
 31
0.0
  0
LINE
  5
B8
330
1D
100
AcDbEntity
  8
SK2
100
AcDbLine
 10
107.55
 20
-7.5
 30
0.0
 11
108.45
 21
-7.5
 31
0.0
  0
LINE
  5
B9
330
1D
100
AcDbEntity
  8
SK2
100
AcDbLine
 10
108.45
 20
-7.5
 30
0.0
 11
108.0
 21
-11.0
 31
0.0
  0
LINE
  5
BA
330
1D
100
AcDbEntity
  8
SK2
100
AcDbLine
 10
108.0
 20
-7.6
 30
0.0
 11
108.0
 21
-10.9
 31
0.0
  0
LINE
  5
BB
330
1D
100
AcDbEntity
  8
SK2
100
AcDbLine
 10
108.2
 20
-7.6
 30
0.0
 11
108.2
 21
-9.344444444
 31
0.0
  0
LINE
  5
BC
330
1D
100
AcDbEntity
  8
SK2
100
AcDbLine
 10
107.8
 20
-7.6
 30
0.0
 11
107.8
 21
-9.344444444
 31
0.0
  0
LINE
  5
BD
330
1D
100
AcDbEntity
  8
SK2
100
AcDbLine
 10
108.4
 20
-7.6
 30
0.0
 11
108.4
 21
-7.788888889
 31
0.0
  0
LINE
  5
BE
330
1D
100
AcDbEntity
  8
SK2
100
AcDbLine
 10
107.6
 20
-7.6
 30
0.0
 11
107.6
 21
-7.788888889
 31
0.0
  0
LINE
  5
BF
330
1D
100
AcDbEntity
  8
SK2
100
AcDbLine
 10
110.0
 20
11.0
 30
0.0
 11
93.0
 21
11.0
 31
0.0
  0
LINE
  5
C0
330
1D
100
AcDbEntity
  8
SK2
100
AcDbLine
 10
108.0
 20
11.0
 30
0.0
 11
108.45
 21
7.5
 31
0.0
  0
LINE
  5
C1
330
1D
100
AcDbEntity
  8
SK2
100
AcDbLine
 10
108.45
 20
7.5
 30
0.0
 11
107.55
 21
7.5
 31
0.0
  0
LINE
  5
C2
330
1D
100
AcDbEntity
  8
SK2
100
AcDbLine
 10
107.55
 20
7.5
 30
0.0
 11
108.0
 21
11.0
 31
0.0
  0
LINE
  5
C3
330
1D
100
AcDbEntity
  8
SK2
100
AcDbLine
 10
108.0
 20
7.6
 30
0.0
 11
108.0
 21
10.9
 31
0.0
  0
LINE
  5
C4
330
1D
100
AcDbEntity
  8
SK2
100
AcDbLine
 10
107.8
 20
7.6
 30
0.0
 11
107.8
 21
9.344444444
 31
0.0
  0
LINE
  5
C5
330
1D
100
AcDbEntity
  8
SK2
100
AcDbLine
 10
108.2
 20
7.6
 30
0.0
 11
108.2
 21
9.344444444
 31
0.0
  0
LINE
  5
C6
330
1D
100
AcDbEntity
  8
SK2
100
AcDbLine
 10
107.6
 20
7.6
 30
0.0
 11
107.6
 21
7.788888889
 31
0.0
  0
LINE
  5
C7
330
1D
100
AcDbEntity
  8
SK2
100
AcDbLine
 10
108.4
 20
7.6
 30
0.0
 11
108.4
 21
7.788888889
 31
0.0
  0
LINE
  5
C8
330
1D
100
AcDbEntity
  8
SK2
100
AcDbLine
 10
108.0
 20
-7.5
 30
0.0
 11
108.0
 21
7.5
 31
0.0
  0
TEXT
  5
C9
330
1D
100
AcDbEntity
  8
SK2
100
AcDbText
 10
106.5
 20
0.085312254
 30
0.0
 40
3.5
  1
22
 50
90.0
  7
BMG_Text
100
AcDbText
  0
CIRCLE
  5
CA
330
1D
100
AcDbEntity
  8
SK2
100
AcDbCircle
 10
105.25
 20
-2.164687746
 30
0.0
 40
1.25
  0
LINE
  5
CB
330
1D
100
AcDbEntity
  8
SK2
100
AcDbLine
 10
106.5
 20
-3.414687746
 30
0.0
 11
104.0
 21
-0.914687746
 31
0.0
  0
LINE
  5
CC
330
1D
100
AcDbEntity
  8
2
100
AcDbLine
 10
0.0
 20
-61.999999998
 30
0.0
 11
0.0
 21
-34.92500305
 31
0.0
  0
LINE
  5
CD
330
1D
100
AcDbEntity
  8
2
100
AcDbLine
 10
0.0
 20
-59.999999998
 30
0.0
 11
3.5
 21
-59.549999999
 31
0.0
  0
LINE
  5
CE
330
1D
100
AcDbEntity
  8
2
100
AcDbLine
 10
3.5
 20
-59.549999999
 30
0.0
 11
3.5
 21
-60.449999999
 31
0.0
  0
LINE
  5
CF
330
1D
100
AcDbEntity
  8
2
100
AcDbLine
 10
3.5
 20
-60.449999999
 30
0.0
 11
0.0
 21
-59.999999998
 31
0.0
  0
LINE
  5
D0
330
1D
100
AcDbEntity
  8
2
100
AcDbLine
 10
3.4
 20
-59.999999999
 30
0.0
 11
0.1
 21
-59.999999998
 31
0.0
  0
LINE
  5
D1
330
1D
100
AcDbEntity
  8
2
100
AcDbLine
 10
3.4
 20
-60.199999999
 30
0.0
 11
1.655555556
 21
-60.199999998
 31
0.0
  0
LINE
  5
D2
330
1D
100
AcDbEntity
  8
2
100
AcDbLine
 10
3.4
 20
-59.799999999
 30
0.0
 11
1.655555556
 21
-59.799999998
 31
0.0
  0
LINE
  5
D3
330
1D
100
AcDbEntity
  8
2
100
AcDbLine
 10
3.4
 20
-60.399999999
 30
0.0
 11
3.211111111
 21
-60.399999999
 31
0.0
  0
LINE
  5
D4
330
1D
100
AcDbEntity
  8
2
100
AcDbLine
 10
3.4
 20
-59.599999999
 30
0.0
 11
3.211111111
 21
-59.599999999
 31
0.0
  0
LINE
  5
D6
330
1D
100
AcDbEntity
  8
2
100
AcDbLine
 10
40.0
 20
-60.000000004
 30
0.0
 11
36.5
 21
-60.450000003
 31
0.0
  0
LINE
  5
D7
330
1D
100
AcDbEntity
  8
2
100
AcDbLine
 10
36.5
 20
-60.450000003
 30
0.0
 11
36.5
 21
-59.550000003
 31
0.0
  0
LINE
  5
D8
330
1D
100
AcDbEntity
  8
2
100
AcDbLine
 10
36.5
 20
-59.550000003
 30
0.0
 11
40.0
 21
-60.000000004
 31
0.0
  0
LINE
  5
D9
330
1D
100
AcDbEntity
  8
2
100
AcDbLine
 10
36.6
 20
-60.000000003
 30
0.0
 11
39.9
 21
-60.000000004
 31
0.0
  0
LINE
  5
DA
330
1D
100
AcDbEntity
  8
2
100
AcDbLine
 10
36.6
 20
-59.800000003
 30
0.0
 11
38.344444444
 21
-59.800000003
 31
0.0
  0
LINE
  5
DB
330
1D
100
AcDbEntity
  8
2
100
AcDbLine
 10
36.6
 20
-60.200000003
 30
0.0
 11
38.344444444
 21
-60.200000003
 31
0.0
  0
LINE
  5
DC
330
1D
100
AcDbEntity
  8
2
100
AcDbLine
 10
36.6
 20
-59.600000003
 30
0.0
 11
36.788888889
 21
-59.600000003
 31
0.0
  0
LINE
  5
DD
330
1D
100
AcDbEntity
  8
2
100
AcDbLine
 10
36.6
 20
-60.400000003
 30
0.0
 11
36.788888889
 21
-60.400000003
 31
0.0
  0
LINE
  5
DE
330
1D
100
AcDbEntity
  8
2
100
AcDbLine
 10
3.5
 20
-59.999999999
 30
0.0
 11
36.5
 21
-60.000000003
 31
0.0
  0
TEXT
  5
DF
330
1D
100
AcDbEntity
  8
2
100
AcDbText
 10
18.335312053
 20
-58.500000001
 30
0.0
 40
3.5
  1
40
 50
359.999999992
  7
BMG_Text
100
AcDbText
  0
LINE
  5
E0
330
1D
100
AcDbEntity
  8
2
100
AcDbLine
 10
40.0
 20
-62.000000004
 30
0.0
 11
40.0
 21
-39.2749939
 31
0.0
  0
LINE
  5
E1
330
1D
100
AcDbEntity
  8
2
100
AcDbLine
 10
40.0
 20
-60.000000004
 30
0.0
 11
43.5
 21
-59.550000004
 31
0.0
  0
LINE
  5
E2
330
1D
100
AcDbEntity
  8
2
100
AcDbLine
 10
43.5
 20
-59.550000004
 30
0.0
 11
43.5
 21
-60.450000004
 31
0.0
  0
LINE
  5
E3
330
1D
100
AcDbEntity
  8
2
100
AcDbLine
 10
43.5
 20
-60.450000004
 30
0.0
 11
40.0
 21
-60.000000004
 31
0.0
  0
LINE
  5
E4
330
1D
100
AcDbEntity
  8
2
100
AcDbLine
 10
43.4
 20
-60.000000004
 30
0.0
 11
40.1
 21
-60.000000004
 31
0.0
  0
LINE
  5
E5
330
1D
100
AcDbEntity
  8
2
100
AcDbLine
 10
43.4
 20
-60.200000004
 30
0.0
 11
41.655555556
 21
-60.200000004
 31
0.0
  0
LINE
  5
E6
330
1D
100
AcDbEntity
  8
2
100
AcDbLine
 10
43.4
 20
-59.800000004
 30
0.0
 11
41.655555556
 21
-59.800000004
 31
0.0
  0
LINE
  5
E7
330
1D
100
AcDbEntity
  8
2
100
AcDbLine
 10
43.4
 20
-60.400000004
 30
0.0
 11
43.211111111
 21
-60.400000004
 31
0.0
  0
LINE
  5
E8
330
1D
100
AcDbEntity
  8
2
100
AcDbLine
 10
43.4
 20
-59.600000004
 30
0.0
 11
43.211111111
 21
-59.600000004
 31
0.0
  0
LINE
  5
E9
330
1D
100
AcDbEntity
  8
2
100
AcDbLine
 10
43.5
 20
-60.000000004
 30
0.0
 11
98.3
 21
-60.000000004
 31
0.0
  0
TEXT
  5
EA
330
1D
100
AcDbEntity
  8
2
100
AcDbText
 10
91.78366186668674
 20
-58.500000004
 30
0.0
 40
3.5
  1
100
  7
BMG_Text
100
AcDbText
  0
TEXT
  5
EB
330
1D
100
AcDbEntity
  8
2
100
AcDbText
 10
53.887030598
 20
-58.500000004
 30
0.0
 40
3.5
  1
Ausdrehtiefe
  7
BMG_Text
100
AcDbText
  0
TEXT
  5
EC
330
1D
100
AcDbEntity
  8
SK6
100
AcDbText
 10
68.26949475317967
 20
-17.159766403
 30
0.0
 40
3.5
  1
325.942
  7
BMG_Text
100
AcDbText
  0
LINE
  5
ED
330
1D
100
AcDbEntity
  8
6
100
AcDbLine
 10
-51.61193466
 20
-61.9303894
 30
0.0
 11
-51.61194563
 21
-62.92038727
 31
0.0
  0
ARC
  5
EE
330
1D
100
AcDbEntity
  8
6
100
AcDbCircle
 10
-49.09194565
 20
-62.92038727
 30
0.0
 40
2.51999998
100
AcDbArc
 50
180.0
 51
217.383168056
  0
LINE
  5
EF
330
1D
100
AcDbEntity
  8
6
100
AcDbLine
 10
-51.09432983
 20
-64.45039368
 30
0.0
 11
-48.57432938
 21
-64.45039368
 31
0.0
  0
LINE
  5
F0
330
1D
100
AcDbEntity
  8
6
100
AcDbLine
 10
-48.57432938
 20
-64.45039368
 30
0.0
 11
-48.484311104
 21
-64.450387102
 31
0.0
  0
ARC
  5
F1
330
1D
100
AcDbEntity
  8
6
100
AcDbCircle
 10
-46.48193741
 20
-62.92038727
 30
0.0
 40
2.51999998
100
AcDbArc
 50
180.009193697
 51
217.38319397
  0
LINE
  5
F2
330
1D
100
AcDbEntity
  8
6
100
AcDbLine
 10
-49.00193787
 20
-62.92079163
 30
0.0
 11
-49.002555302
 21
-58.927175587
 31
0.0
  0
ARC
  5
F3
330
1D
100
AcDbEntity
  8
6
100
AcDbCircle
 10
-51.52191544
 20
-58.87039185
 30
0.0
 40
2.51999998
100
AcDbArc
 50
358.70883179
 51
93.066711092
  0
ARC
  5
F4
330
1D
100
AcDbEntity
  8
6
100
AcDbCircle
 10
-51.79192734
 20
-53.83039093
 30
0.0
 40
2.51999998
100
AcDbArc
 50
273.06652832
 51
359.999826522
  0
LINE
  5
F5
330
1D
100
AcDbEntity
  8
6
100
AcDbLine
 10
-49.27191544
 20
-53.83039856
 30
0.0
 11
-49.27192736
 21
-51.22039795
 31
0.0
  0
ARC
  5
F6
330
1D
100
AcDbEntity
  8
6
100
AcDbCircle
 10
-51.79192734
 20
-51.22039795
 30
0.0
 40
2.51999998
100
AcDbArc
 50
0.0
 51
90.0
  0
LINE
  5
F7
330
1D
100
AcDbEntity
  8
6
100
AcDbLine
 10
-51.79192734
 20
-48.70037842
 30
0.0
 11
-56.74192047
 21
-48.70039368
 31
0.0
  0
LINE
  5
F8
330
1D
100
AcDbEntity
  8
6
100
AcDbLine
 10
-56.74192047
 20
-48.70039368
 30
0.0
 11
-56.74192047
 21
-64.45039368
 31
0.0
  0
LINE
  5
F9
330
1D
100
AcDbEntity
  8
6
100
AcDbLine
 10
-56.74192047
 20
-64.45039368
 30
0.0
 11
-54.04192734
 21
-64.45039368
 31
0.0
  0
LINE
  5
FA
330
1D
100
AcDbEntity
  8
6
100
AcDbLine
 10
-54.04192734
 20
-64.45039368
 30
0.0
 11
-54.04191589
 21
-57.61038208
 31
0.0
  0
LINE
  5
FB
330
1D
100
AcDbEntity
  8
6
100
AcDbLine
 10
-54.04191589
 20
-57.61038208
 30
0.0
 11
-52.691913744
 21
-57.61038387
 31
0.0
  0
ARC
  5
FC
330
1D
100
AcDbEntity
  8
6
100
AcDbCircle
 10
-52.6919136
 20
-58.69038391
 30
0.0
 40
1.08000004
100
AcDbArc
 50
359.999190416
 51
90.00000763
  0
LINE
  5
FD
330
1D
100
AcDbEntity
  8
6
100
AcDbLine
 10
-51.61193466
 20
-58.69039917
 30
0.0
 11
-51.61193466
 21
-62.92038727
 31
0.0
  0
LINE
  5
FE
330
1D
100
AcDbEntity
  8
6
100
AcDbLine
 10
-54.04192734
 20
-55.45039368
 30
0.0
 11
-52.42192459
 21
-55.45038456
 31
0.0
  0
ARC
  5
FF
330
1D
100
AcDbEntity
  8
6
100
AcDbCircle
 10
-52.42192459
 20
-54.55038452
 30
0.0
 40
0.90000004
100
AcDbArc
 50
270.0
 51
359.9995142640001
  0
LINE
  5
100
330
1D
100
AcDbEntity
  8
6
100
AcDbLine
 10
-51.52191544
 20
-54.55039215
 30
0.0
 11
-51.52192455
 21
-51.6703949
 31
0.0
  0
ARC
  5
101
330
1D
100
AcDbEntity
  8
6
100
AcDbCircle
 10
-52.42192459
 20
-51.6703949
 30
0.0
 40
0.90000004
100
AcDbArc
 50
0.0
 51
90.0
  0
LINE
  5
102
330
1D
100
AcDbEntity
  8
6
100
AcDbLine
 10
-52.42192459
 20
-50.770401
 30
0.0
 11
-54.04192734
 21
-50.770401
 31
0.0
  0
LINE
  5
103
330
1D
100
AcDbEntity
  8
6
100
AcDbLine
 10
-54.04192734
 20
-50.770401
 30
0.0
 11
-54.04192734
 21
-55.45039368
 31
0.0
  0
LINE
  5
104
330
1D
100
AcDbEntity
  8
6
100
AcDbLine
 10
-67.72193146
 20
-48.70037842
 30
0.0
 11
-67.72190857
 21
-50.770401
 31
0.0
  0
LINE
  5
105
330
1D
100
AcDbEntity
  8
6
100
AcDbLine
 10
-67.72190857
 20
-50.770401
 30
0.0
 11
-70.601913594
 21
-50.7703799
 31
0.0
  0
ARC
  5
106
330
1D
100
AcDbEntity
  8
6
100
AcDbCircle
 10
-70.60191345
 20
-51.85037994
 30
0.0
 40
1.08000004
100
AcDbArc
 50
90.00000763
 51
206.543329999
  0
LINE
  5
107
330
1D
100
AcDbEntity
  8
6
100
AcDbLine
 10
-71.56808472
 20
-52.33300781
 30
0.0
 11
-67.466522972
 21
-60.543814906
 31
0.0
  0
ARC
  5
108
330
1D
100
AcDbEntity
  8
6
100
AcDbCircle
 10
-69.88192749
 20
-61.7503891
 30
0.0
 40
2.70000005
100
AcDbArc
 50
270.0
 51
26.54364014
  0
LINE
  5
109
330
1D
100
AcDbEntity
  8
6
100
AcDbLine
 10
-69.88192749
 20
-64.45039368
 30
0.0
 11
-74.47193146
 21
-64.45039368
 31
0.0
  0
LINE
  5
10A
330
1D
100
AcDbEntity
  8
6
100
AcDbLine
 10
-74.47193146
 20
-64.45039368
 30
0.0
 11
-74.47190857
 21
-62.38038635
 31
0.0
  0
LINE
  5
10B
330
1D
100
AcDbEntity
  8
6
100
AcDbLine
 10
-74.47190857
 20
-62.38038635
 30
0.0
 11
-71.0519104
 21
-62.38038456
 31
0.0
  0
ARC
  5
10C
330
1D
100
AcDbEntity
  8
6
100
AcDbCircle
 10
-71.0519104
 20
-61.30038452
 30
0.0
 40
1.08000004
100
AcDbArc
 50
270.0
 51
26.544777804
  0
LINE
  5
10D
330
1D
100
AcDbEntity
  8
6
100
AcDbLine
 10
-70.08576965
 20
-60.81774139
 30
0.0
 11
-74.187331076
 21
-52.606950208
 31
0.0
  0
ARC
  5
10E
330
1D
100
AcDbEntity
  8
6
100
AcDbCircle
 10
-71.77192688
 20
-51.40037537
 30
0.0
 40
2.70000005
100
AcDbArc
 50
90.0
 51
206.5436554
  0
LINE
  5
10F
330
1D
100
AcDbEntity
  8
6
100
AcDbLine
 10
-71.77192688
 20
-48.70037842
 30
0.0
 11
-67.72192383
 21
-48.70037842
 31
0.0
  0
LINE
  5
110
330
1D
100
AcDbEntity
  8
6
100
AcDbLine
 10
-65.02192688
 20
-64.45039368
 30
0.0
 11
-65.02192688
 21
-48.70039368
 31
0.0
  0
LINE
  5
111
330
1D
100
AcDbEntity
  8
6
100
AcDbLine
 10
-98.77192688
 20
-48.70039368
 30
0.0
 11
-98.77192688
 21
-55.81040192
 31
0.0
  0
LINE
  5
112
330
1D
100
AcDbEntity
  8
6
100
AcDbLine
 10
-98.77192688
 20
-55.81040192
 30
0.0
 11
-95.80193329
 21
-48.70039368
 31
0.0
  0
LINE
  5
113
330
1D
100
AcDbEntity
  8
6
100
AcDbLine
 10
-95.80193329
 20
-48.70039368
 30
0.0
 11
-93.01193237
 21
-48.70039368
 31
0.0
  0
LINE
  5
114
330
1D
100
AcDbEntity
  8
6
100
AcDbLine
 10
-93.01193237
 20
-48.70039368
 30
0.0
 11
-96.07193756
 21
-55.45039368
 31
0.0
  0
LINE
  5
115
330
1D
100
AcDbEntity
  8
6
100
AcDbLine
 10
-96.07193756
 20
-55.45039368
 30
0.0
 11
-92.47193146
 21
-64.45039368
 31
0.0
  0
LINE
  5
116
330
1D
100
AcDbEntity
  8
6
100
AcDbLine
 10
-92.47193146
 20
-64.45039368
 30
0.0
 11
-95.26193237
 21
-64.45039368
 31
0.0
  0
LINE
  5
117
330
1D
100
AcDbEntity
  8
6
100
AcDbLine
 10
-95.26193237
 20
-64.45039368
 30
0.0
 11
-97.69192505
 21
-58.96038818
 31
0.0
  0
LINE
  5
118
330
1D
100
AcDbEntity
  8
6
100
AcDbLine
 10
-97.69192505
 20
-58.96038818
 30
0.0
 11
-98.77192688
 21
-61.03039551
 31
0.0
  0
LINE
  5
119
330
1D
100
AcDbEntity
  8
6
100
AcDbLine
 10
-98.77192688
 20
-61.03039551
 30
0.0
 11
-98.77192688
 21
-64.45039368
 31
0.0
  0
LINE
  5
11A
330
1D
100
AcDbEntity
  8
6
100
AcDbLine
 10
-98.77192688
 20
-64.45039368
 30
0.0
 11
-101.5619278
 21
-64.45039368
 31
0.0
  0
LINE
  5
11B
330
1D
100
AcDbEntity
  8
6
100
AcDbLine
 10
-101.5619278
 20
-64.45039368
 30
0.0
 11
-101.5619278
 21
-48.70039368
 31
0.0
  0
LINE
  5
11C
330
1D
100
AcDbEntity
  8
6
100
AcDbLine
 10
-101.5619278
 20
-48.70039368
 30
0.0
 11
-98.77192688
 21
-48.70039368
 31
0.0
  0
LINE
  5
11D
330
1D
100
AcDbEntity
  8
6
100
AcDbLine
 10
-79.51191711
 20
-48.70039368
 30
0.0
 11
-79.51191711
 21
-64.45039368
 31
0.0
  0
LINE
  5
11E
330
1D
100
AcDbEntity
  8
6
100
AcDbLine
 10
-79.51191711
 20
-64.45039368
 30
0.0
 11
-76.63191223
 21
-64.45039368
 31
0.0
  0
LINE
  5
11F
330
1D
100
AcDbEntity
  8
6
100
AcDbLine
 10
-76.63191223
 20
-64.45039368
 30
0.0
 11
-76.63191223
 21
-48.70039368
 31
0.0
  0
LINE
  5
120
330
1D
100
AcDbEntity
  8
6
100
AcDbLine
 10
-76.63191223
 20
-48.70039368
 30
0.0
 11
-79.51192474
 21
-48.70039368
 31
0.0
  0
LINE
  5
121
330
1D
100
AcDbEntity
  8
6
100
AcDbLine
 10
-65.02192688
 20
-64.45039368
 30
0.0
 11
-59.17192459
 21
-64.45039368
 31
0.0
  0
LINE
  5
122
330
1D
100
AcDbEntity
  8
6
100
AcDbLine
 10
-59.17192459
 20
-64.45039368
 30
0.0
 11
-59.17192459
 21
-62.38038635
 31
0.0
  0
LINE
  5
123
330
1D
100
AcDbEntity
  8
6
100
AcDbLine
 10
-59.17193604
 20
-62.38038635
 30
0.0
 11
-62.14195251
 21
-62.38038635
 31
0.0
  0
LINE
  5
124
330
1D
100
AcDbEntity
  8
6
100
AcDbLine
 10
-62.14195251
 20
-62.38038635
 30
0.0
 11
-62.14195251
 21
-57.61037445
 31
0.0
  0
LINE
  5
125
330
1D
100
AcDbEntity
  8
6
100
AcDbLine
 10
-62.14195251
 20
-57.61037445
 30
0.0
 11
-59.17193604
 21
-57.61037445
 31
0.0
  0
LINE
  5
126
330
1D
100
AcDbEntity
  8
6
100
AcDbLine
 10
-59.17193604
 20
-57.61037445
 30
0.0
 11
-59.17193604
 21
-55.45039368
 31
0.0
  0
LINE
  5
127
330
1D
100
AcDbEntity
  8
6
100
AcDbLine
 10
-59.17193604
 20
-55.45039368
 30
0.0
 11
-62.14195251
 21
-55.45039368
 31
0.0
  0
LINE
  5
128
330
1D
100
AcDbEntity
  8
6
100
AcDbLine
 10
-62.14195251
 20
-55.45039368
 30
0.0
 11
-62.14195251
 21
-50.77038574
 31
0.0
  0
LINE
  5
129
330
1D
100
AcDbEntity
  8
6
100
AcDbLine
 10
-62.14195251
 20
-50.77038574
 30
0.0
 11
-59.17193604
 21
-50.77038574
 31
0.0
  0
LINE
  5
12A
330
1D
100
AcDbEntity
  8
6
100
AcDbLine
 10
-59.17193604
 20
-50.77038574
 30
0.0
 11
-59.17193604
 21
-48.70039368
 31
0.0
  0
LINE
  5
12B
330
1D
100
AcDbEntity
  8
6
100
AcDbLine
 10
-59.17193604
 20
-48.70039368
 30
0.0
 11
-65.02194214
 21
-48.70039368
 31
0.0
  0
LINE
  5
12C
330
1D
100
AcDbEntity
  8
6
100
AcDbLine
 10
-88.33193207
 20
-48.2503891
 30
0.0
 11
-85.27192688
 21
-48.2503891
 31
0.0
  0
LINE
  5
12D
330
1D
100
AcDbEntity
  8
6
100
AcDbLine
 10
-85.27192688
 20
-48.2503891
 30
0.0
 11
-80.86192322
 21
-64.45039368
 31
0.0
  0
LINE
  5
12E
330
1D
100
AcDbEntity
  8
6
100
AcDbLine
 10
-80.86192322
 20
-64.45039368
 30
0.0
 11
-83.83193207
 21
-64.45039368
 31
0.0
  0
LINE
  5
12F
330
1D
100
AcDbEntity
  8
6
100
AcDbLine
 10
-83.83193207
 20
-64.45039368
 30
0.0
 11
-86.89192963
 21
-52.57039642
 31
0.0
  0
LINE
  5
130
330
1D
100
AcDbEntity
  8
6
100
AcDbLine
 10
-86.89192963
 20
-52.57039642
 30
0.0
 11
-88.42193604
 21
-61.93038177
 31
0.0
  0
LINE
  5
131
330
1D
100
AcDbEntity
  8
6
100
AcDbLine
 10
-88.42193604
 20
-61.93038177
 30
0.0
 11
-85.54191589
 21
-61.93038177
 31
0.0
  0
LINE
  5
132
330
1D
100
AcDbEntity
  8
6
100
AcDbLine
 10
-85.54191589
 20
-61.93038177
 30
0.0
 11
-85.09192657
 21
-64.45039368
 31
0.0
  0
LINE
  5
133
330
1D
100
AcDbEntity
  8
6
100
AcDbLine
 10
-85.09192657
 20
-64.45039368
 30
0.0
 11
-91.39192963
 21
-64.45039368
 31
0.0
  0
LINE
  5
134
330
1D
100
AcDbEntity
  8
6
100
AcDbLine
 10
-91.39192963
 20
-64.45039368
 30
0.0
 11
-88.33193207
 21
-48.2503891
 31
0.0
  0
LINE
  5
135
330
1D
100
AcDbEntity
  8
SK3
100
AcDbLine
 10
-88.74531555
 20
10.5
 30
0.0
 11
-88.74532318
 21
-10.5
 31
0.0
  0
LINE
  5
136
330
1D
100
AcDbEntity
  8
3
100
AcDbLine
 10
0.0
 20
-10.5
 30
0.0
 11
8.39997864
 21
-10.5
 31
0.0
  0
LINE
  5
137
330
1D
100
AcDbEntity
  8
3
100
AcDbLine
 10
8.39997864
 20
-10.5
 30
0.0
 11
8.39997864
 21
10.5
 31
0.0
  0
LINE
  5
138
330
1D
100
AcDbEntity
  8
3
100
AcDbLine
 10
8.39997864
 20
10.5
 30
0.0
 11
0.0
 21
10.5
 31
0.0
  0
LINE
  5
139
330
1D
100
AcDbEntity
  8
SK3
100
AcDbLine
 10
-88.74531555
 20
10.5
 30
0.0
 11
-89.90002441
 21
12.5
 31
0.0
  0
LINE
  5
13A
330
1D
100
AcDbEntity
  8
SK3
100
AcDbLine
 10
-89.90002441
 20
12.5
 30
0.0
 11
-89.90002441
 21
-12.5
 31
0.0
  0
LINE
  5
13B
330
1D
100
AcDbEntity
  8
SK3
100
AcDbLine
 10
-89.90002441
 20
-12.5
 30
0.0
 11
-101.60002136
 21
-12.5
 31
0.0
  0
LINE
  5
13C
330
1D
100
AcDbEntity
  8
SK3
100
AcDbLine
 10
-47.00196838
 20
10.5
 30
0.0
 11
-52.60002136
 21
12.0
 31
0.0
  0
LINE
  5
13D
330
1D
100
AcDbEntity
  8
SK3
100
AcDbLine
 10
-52.60002136
 20
12.0
 30
0.0
 11
-52.60002136
 21
-12.0
 31
0.0
  0
LINE
  5
13E
330
1D
100
AcDbEntity
  8
SK3
100
AcDbLine
 10
-52.60002136
 20
-12.0
 30
0.0
 11
-47.36891937
 21
-10.5
 31
0.0
  0
LINE
  5
13F
330
1D
100
AcDbEntity
  8
SK3
100
AcDbLine
 10
-89.90002441
 20
12.5
 30
0.0
 11
-101.60002136
 21
12.5
 31
0.0
  0
LINE
  5
140
330
1D
100
AcDbEntity
  8
11
100
AcDbLine
 10
-52.60002136
 20
12.0
 30
0.0
 11
-89.61134338
 21
12.0
 31
0.0
  0
LINE
  5
141
330
1D
100
AcDbEntity
  8
3
100
AcDbLine
 10
8.39997864
 20
10.5
 30
0.0
 11
9.843354726
 21
8.0
 31
0.0
  0
LINE
  5
144
330
1D
100
AcDbEntity
  8
SK3
100
AcDbLine
 10
-89.90002441
 20
-12.5
 30
0.0
 11
-88.74532318
 21
-10.5
 31
0.0
  0
LINE
  5
145
330
1D
100
AcDbEntity
  8
11
100
AcDbLine
 10
-52.60002136
 20
-12.0
 30
0.0
 11
-89.61135101
 21
-12.0
 31
0.0
  0
LINE
  5
146
330
1D
100
AcDbEntity
  8
3
100
AcDbLine
 10
8.39997864
 20
-10.5
 30
0.0
 11
9.843354726
 21
-8.0
 31
0.0
  0
LINE
  5
1E6
330
1D
100
AcDbEntity
  8
NOCUT
100
AcDbLine
 10
40.0
 20
19.50001526
 30
0.0
 11
92.25
 21
19.50001526
 31
0.0
  0
LINE
  5
1E7
330
1D
100
AcDbEntity
  8
NOCUT
100
AcDbLine
 10
92.25
 20
19.50001526
 30
0.0
 11
93.0
 21
18.75001526
 31
0.0
  0
LINE
  5
1E8
330
1D
100
AcDbEntity
  8
NOCUT
100
AcDbLine
 10
93.0
 20
18.75001526
 30
0.0
 11
93.0
 21
0.0
 31
0.0
  0
LINE
  5
1E9
330
1D
100
AcDbEntity
  8
NOCUT
100
AcDbLine
 10
93.0
 20
0.0
 30
0.0
 11
0.0
 21
0.0
 31
0.0
  0
LINE
  5
1EB
330
1D
100
AcDbEntity
  8
NOCUT
100
AcDbLine
 10
0.0
 20
34.92500305
 30
0.0
 11
2.3999939
 21
34.92500305
 31
0.0
  0
LINE
  5
1EC
330
1D
100
AcDbEntity
  8
NOCUT
100
AcDbLine
 10
3.19999695
 20
35.7250061
 30
0.0
 11
3.19999695
 21
48.27500916
 31
0.0
  0
LINE
  5
1ED
330
1D
100
AcDbEntity
  8
NOCUT
100
AcDbLine
 10
3.19999695
 20
48.27500916
 30
0.0
 11
3.6499939
 21
48.7250061
 31
0.0
  0
LINE
  5
1EE
330
1D
100
AcDbEntity
  8
NOCUT
100
AcDbLine
 10
3.6499939
 20
48.7250061
 30
0.0
 11
7.86682129
 21
48.7250061
 31
0.0
  0
LINE
  5
1EF
330
1D
100
AcDbEntity
  8
NOCUT
100
AcDbLine
 10
7.86682129
 20
48.7250061
 30
0.0
 11
9.17498779
 21
46.45921326
 31
0.0
  0
LINE
  5
1F0
330
1D
100
AcDbEntity
  8
NOCUT
100
AcDbLine
 10
9.17498779
 20
46.45921326
 30
0.0
 11
9.17498779
 21
46.0
 31
0.0
  0
LINE
  5
1F1
330
1D
100
AcDbEntity
  8
NOCUT
100
AcDbLine
 10
9.67498779
 20
45.5
 30
0.0
 11
12.5249939
 21
45.5
 31
0.0
  0
LINE
  5
1F2
330
1D
100
AcDbEntity
  8
NOCUT
100
AcDbLine
 10
13.0249939
 20
46.0
 30
0.0
 11
13.0249939
 21
46.45921326
 31
0.0
  0
LINE
  5
1F3
330
1D
100
AcDbEntity
  8
NOCUT
100
AcDbLine
 10
13.0249939
 20
46.45921326
 30
0.0
 11
14.33314514
 21
48.7250061
 31
0.0
  0
LINE
  5
1F4
330
1D
100
AcDbEntity
  8
NOCUT
100
AcDbLine
 10
14.33314514
 20
48.7250061
 30
0.0
 11
18.60002136
 21
48.7250061
 31
0.0
  0
LINE
  5
1F5
330
1D
100
AcDbEntity
  8
NOCUT
100
AcDbLine
 10
18.60002136
 20
48.7250061
 30
0.0
 11
19.05000305
 21
48.27500916
 31
0.0
  0
LINE
  5
1F6
330
1D
100
AcDbEntity
  8
NOCUT
100
AcDbLine
 10
19.05000305
 20
48.27500916
 30
0.0
 11
19.05000305
 21
35.7250061
 31
0.0
  0
LINE
  5
1F7
330
1D
100
AcDbEntity
  8
NOCUT
100
AcDbLine
 10
19.8500061
 20
34.92500305
 30
0.0
 11
34.49998474
 21
34.92500305
 31
0.0
  0
LINE
  5
1F8
330
1D
100
AcDbEntity
  8
NOCUT
100
AcDbLine
 10
34.49998474
 20
34.92500305
 30
0.0
 11
35.0
 21
34.42500305
 31
0.0
  0
LINE
  5
1F9
330
1D
100
AcDbEntity
  8
NOCUT
100
AcDbLine
 10
35.0
 20
34.42500305
 30
0.0
 11
35.0
 21
24.50001526
 31
0.0
  0
ARC
  5
1FA
330
1D
100
AcDbEntity
  8
NOCUT
100
AcDbCircle
 10
9.674987789999996
 20
45.99999999999999
 30
0.0
 40
0.4999999999999964
100
AcDbArc
 50
179.9999999999992
 51
270.0000000000004
  0
ARC
  5
1FB
330
1D
100
AcDbEntity
  8
NOCUT
100
AcDbCircle
 10
12.5249939
 20
45.99999999999999
 30
0.0
 40
0.4999999999999964
100
AcDbArc
 50
269.9999999999996
 51
0.0000000000008142
  0
ARC
  5
1FC
330
1D
100
AcDbEntity
  8
NOCUT
100
AcDbCircle
 10
19.8500061
 20
35.7250061
 30
0.0
 40
0.8000030500000012
100
AcDbArc
 50
180.0
 51
270.0
  0
ARC
  5
1FD
330
1D
100
AcDbEntity
  8
NOCUT
100
AcDbCircle
 10
40.0
 20
24.50001526
 30
0.0
 40
5.0
100
AcDbArc
 50
180.0
 51
270.0
  0
ARC
  5
206
330
1D
100
AcDbEntity
  8
1
100
AcDbCircle
 10
2.399993899999999
 20
35.7250061
 30
0.0
 40
0.8000030500000012
100
AcDbArc
 50
270.0000000000001
 51
0.0
  0
ARC
  5
208
330
1D
100
AcDbEntity
  8
NOCUT
100
AcDbCircle
 10
2.399993899999999
 20
35.7250061
 30
0.0
 40
0.8000030500000012
100
AcDbArc
 50
270.0000000000001
 51
0.0
  0
LWPOLYLINE
  5
243
330
1D
100
AcDbEntity
  8
INFTOTAL
100
AcDbPolyline
 90
        4
 70
     1
 43
0.0
 10
-162.9232171835015
 20
92.70950670914937
 10
-162.9232171835015
 20
-84.68482439943529
 10
151.3181693517056
 20
-84.68482439943529
 10
151.3181693517056
 20
92.70950670914937
  0
LINE
  5
27E
330
1D
100
AcDbEntity
  8
SK3
100
AcDbLine
 10
0.0
 20
10.5
 30
0.0
 11
-88.74531555
 21
10.5
 31
0.0
  0
LINE
  5
27F
330
1D
100
AcDbEntity
  8
SK3
100
AcDbLine
 10
-88.74532318
 20
-10.5
 30
0.0
 11
0.0
 21
-10.5
 31
0.0
  0
LINE
  5
285
330
1D
100
AcDbEntity
  8
1
100
AcDbLine
 10
0.0
 20
34.92500305
 30
0.0
 11
0.0
 21
-34.92500305
 31
0.0
  0
LINE
  5
288
330
1D
100
AcDbEntity
  8
4
100
AcDbLine
 10
95.0
 20
0.0
 30
0.0
 11
0.0
 21
0.0
 31
0.0
  0
LINE
  5
289
330
1D
100
AcDbEntity
  8
4
100
AcDbLine
 10
82.95001221
 20
-5.0
 30
0.0
 11
82.95001221
 21
5.0
 31
0.0
  0
LINE
  5
296
330
1D
100
AcDbEntity
  8
NOCUT
100
AcDbLine
 10
0.0
 20
34.92500305
 30
0.0
 11
0.0
 21
0.0
 31
0.0
  0
ENDSEC
  0
SECTION
  2
OBJECTS
  0
DICTIONARY
  5
C
330
0
100
AcDbDictionary
281
     1
  3
ACAD_COLOR
350
26D
  3
ACAD_DETAILVIEWSTYLE
350
201
  3
ACAD_GROUP
350
D
  3
ACAD_LAYOUT
350
1A
  3
ACAD_MATERIAL
350
184
  3
ACAD_MLEADERSTYLE
350
191
  3
ACAD_MLINESTYLE
350
17
  3
ACAD_PLOTSETTINGS
350
19
  3
ACAD_PLOTSTYLENAME
350
E
  3
ACAD_SCALELIST
350
14D
  3
ACAD_SECTIONVIEWSTYLE
350
202
  3
ACAD_TABLESTYLE
350
1DA
  3
ACAD_VISUALSTYLE
350
173
  3
ACDB_RECOMPOSE_DATA
350
29A
  3
AcDbVariableDictionary
350
18F
  3
APPDATA
350
1DD
  0
SUN
  5
25F
330
147
100
AcDbSun
 90
        1
290
     0
 63
     7
421
 16777215
 40
1.0
291
     1
 91
  2455826
 92
 54000000
292
     0
 70
     2
 71
   256
280
     1
  0
DICTIONARY
  5
1DE
330
2
100
AcDbDictionary
280
     1
281
     1
  3
ACAD_LAYERSTATES
360
1DF
  0
DICTIONARY
  5
26D
102
{ACAD_REACTORS
330
C
102
}
330
C
100
AcDbDictionary
281
     1
  0
DICTIONARY
  5
201
102
{ACAD_REACTORS
330
C
102
}
330
C
100
AcDbDictionary
281
     1
  0
DICTIONARY
  5
D
102
{ACAD_REACTORS
330
C
102
}
330
C
100
AcDbDictionary
281
     1
  0
DICTIONARY
  5
1A
102
{ACAD_REACTORS
330
C
102
}
330
C
100
AcDbDictionary
281
     1
  3
Layout1
350
1C
  3
Model
350
1E
  0
DICTIONARY
  5
184
102
{ACAD_REACTORS
330
C
102
}
330
C
100
AcDbDictionary
281
     1
  3
ByBlock
350
186
  3
ByLayer
350
185
  3
Global
350
187
  0
DICTIONARY
  5
191
102
{ACAD_REACTORS
330
C
102
}
330
C
100
AcDbDictionary
281
     1
  3
Standard
350
1DC
  0
DICTIONARY
  5
17
102
{ACAD_REACTORS
330
C
102
}
330
C
100
AcDbDictionary
281
     1
  3
Standard
350
18
  0
DICTIONARY
  5
19
102
{ACAD_REACTORS
330
C
102
}
330
C
100
AcDbDictionary
281
     1
  0
ACDBDICTIONARYWDFLT
  5
E
102
{ACAD_REACTORS
330
C
102
}
330
C
100
AcDbDictionary
281
     1
  3
Normal
350
F
100
AcDbDictionaryWithDefault
340
F
  0
DICTIONARY
  5
14D
102
{ACAD_REACTORS
330
C
102
}
330
C
100
AcDbDictionary
281
     1
  3
A0
350
14E
  3
A1
350
14F
  3
A2
350
150
  3
A3
350
151
  3
A4
350
152
  3
A5
350
153
  3
A6
350
154
  3
A7
350
155
  3
A8
350
156
  3
A9
350
157
  3
B0
350
158
  3
B1
350
159
  3
B2
350
15A
  3
B3
350
15B
  3
B4
350
15C
  3
B5
350
15D
  3
B6
350
15E
  3
B7
350
15F
  3
B8
350
160
  3
B9
350
161
  3
C0
350
162
  3
C1
350
163
  3
C2
350
164
  3
C3
350
165
  3
C4
350
166
  3
C5
350
167
  3
C6
350
168
  3
C7
350
169
  3
C8
350
16A
  3
C9
350
16B
  3
D0
350
16C
  3
D1
350
16D
  3
D2
350
16E
  0
DICTIONARY
  5
202
102
{ACAD_REACTORS
330
C
102
}
330
C
100
AcDbDictionary
281
     1
  0
DICTIONARY
  5
1DA
102
{ACAD_REACTORS
330
C
102
}
330
C
100
AcDbDictionary
281
     1
  3
Standard
350
1DB
  0
DICTIONARY
  5
173
102
{ACAD_REACTORS
330
C
102
}
330
C
100
AcDbDictionary
281
     1
  3
2dWireframe
350
178
  3
3D Hidden
350
17A
  3
3dWireframe
350
179
  3
Basic
350
17B
  3
Brighten
350
17F
  3
ColorChange
350
183
  3
Conceptual
350
17D
  3
Dim
350
17E
  3
EdgeColorOff
350
1D4
  3
Facepattern
350
182
  3
Flat
350
174
  3
FlatWithEdges
350
175
  3
Gouraud
350
176
  3
GouraudWithEdges
350
177
  3
Hidden
350
1D1
  3
JitterOff
350
1D2
  3
Linepattern
350
181
  3
OverhangOff
350
1D3
  3
Realistic
350
17C
  3
Shaded
350
1D9
  3
Shaded with edges
350
1D8
  3
Shades of Gray
350
1D5
  3
Sketchy
350
1D6
  3
Thicken
350
180
  3
Wireframe
350
1D0
  3
X-Ray
350
1D7
  0
XRECORD
  5
29A
102
{ACAD_REACTORS
330
C
102
}
330
C
100
AcDbXrecord
280
     1
 90
        1
330
1DB
  0
DICTIONARY
  5
18F
102
{ACAD_REACTORS
330
C
102
}
330
C
100
AcDbDictionary
281
     1
  3
CANNOSCALE
350
1FE
  3
CMLEADERSTYLE
350
200
  3
CTABLESTYLE
350
1FF
  3
DIMASSOC
350
193
  3
HIDETEXT
350
194
  3
MSLTSCALE
350
192
  0
DICTIONARY
  5
1DD
102
{ACAD_REACTORS
330
C
102
}
330
C
100
AcDbDictionary
281
     1
  0
DICTIONARY
  5
1DF
102
{ACAD_REACTORS
330
1DE
102
}
330
1DE
100
AcDbDictionary
281
     1
  0
LAYOUT
  5
1C
102
{ACAD_REACTORS
330
1A
102
}
330
1A
100
AcDbPlotSettings
  1

  2
none_device
  4

  6

 40
0.0
 41
0.0
 42
0.0
 43
0.0
 44
0.0
 45
0.0
 46
0.0
 47
0.0
 48
0.0
 49
0.0
140
0.0
141
0.0
142
1.0
143
1.0
 70
   688
 72
     0
 73
     0
 74
     5
  7

 75
    16
 76
     0
 77
     2
 78
   300
147
1.0
148
0.0
149
0.0
100
AcDbLayout
  1
Layout1
 70
     1
 71
     1
 10
0.0
 20
0.0
 11
12.0
 21
9.0
 12
0.0
 22
0.0
 32
0.0
 14
1.000000000000000E+20
 24
1.000000000000000E+20
 34
1.000000000000000E+20
 15
-1.000000000000000E+20
 25
-1.000000000000000E+20
 35
-1.000000000000000E+20
146
0.0
 13
0.0
 23
0.0
 33
0.0
 16
1.0
 26
0.0
 36
0.0
 17
0.0
 27
1.0
 37
0.0
 76
     0
330
1B
  0
LAYOUT
  5
1E
102
{ACAD_REACTORS
330
1A
102
}
330
1A
100
AcDbPlotSettings
  1

  2
none_device
  4

  6

 40
0.0
 41
0.0
 42
0.0
 43
0.0
 44
0.0
 45
0.0
 46
0.0
 47
0.0
 48
0.0
 49
0.0
140
0.0
141
0.0
142
1.0
143
1.0
 70
  1712
 72
     0
 73
     0
 74
     0
  7

 75
     0
 76
     0
 77
     2
 78
   300
147
1.0
148
0.0
149
0.0
100
AcDbLayout
  1
Model
 70
     1
 71
     0
 10
0.0
 20
0.0
 11
12.0
 21
9.0
 12
0.0
 22
0.0
 32
0.0
 14
-162.9232171835015
 24
-84.68482439943529
 34
0.0
 15
151.3181693517056
 25
92.70950670914937
 35
0.0
146
0.0
 13
0.0
 23
0.0
 33
0.0
 16
1.0
 26
0.0
 36
0.0
 17
0.0
 27
1.0
 37
0.0
 76
     0
330
1D
331
147
  0
MATERIAL
  5
186
102
{ACAD_REACTORS
330
184
102
}
330
184
100
AcDbMaterial
  1
ByBlock
 72
     1
 94
      127
  0
MATERIAL
  5
185
102
{ACAD_REACTORS
330
184
102
}
330
184
100
AcDbMaterial
  1
ByLayer
 72
     1
 94
      127
  0
MATERIAL
  5
187
102
{ACAD_REACTORS
330
184
102
}
330
184
100
AcDbMaterial
  1
Global
 72
     1
 94
      127
  0
MLEADERSTYLE
  5
1DC
102
{ACAD_REACTORS
330
191
102
}
330
191
100
AcDbMLeaderStyle
179
     2
170
     2
171
     1
172
     0
 90
        2
 40
0.0
 41
0.0
173
     1
 91
-1056964608
340
14
 92
       -2
290
     1
 42
0.09
291
     1
 43
0.36
  3
Standard
341
0
 44
0.18
300

342
11
174
     1
178
     1
175
     1
176
     0
 93
-1056964608
 45
0.18
292
     0
297
     0
 46
0.18
343
0
 94
-1056964608
 47
1.0
 49
1.0
140
1.0
293
     1
141
0.0
294
     1
177
     0
142
1.0
295
     0
296
     0
143
0.125
271
     0
272
     9
273
     9
298
     0
  0
MLINESTYLE
  5
18
102
{ACAD_REACTORS
330
17
102
}
330
17
100
AcDbMlineStyle
  2
Standard
 70
     0
  3

 62
   256
 51
90.0
 52
90.0
 71
     2
 49
0.5
 62
   256
  6
BYLAYER
 49
-0.5
 62
   256
  6
BYLAYER
  0
ACDBPLACEHOLDER
  5
F
102
{ACAD_REACTORS
330
E
102
}
330
E
  0
SCALE
  5
14E
102
{ACAD_REACTORS
330
14D
102
}
330
14D
100
AcDbScale
 70
     0
300
1:1
140
1.0
141
1.0
290
     1
  0
SCALE
  5
14F
102
{ACAD_REACTORS
330
14D
102
}
330
14D
100
AcDbScale
 70
     0
300
1:2
140
1.0
141
2.0
290
     0
  0
SCALE
  5
150
102
{ACAD_REACTORS
330
14D
102
}
330
14D
100
AcDbScale
 70
     0
300
1:4
140
1.0
141
4.0
290
     0
  0
SCALE
  5
151
102
{ACAD_REACTORS
330
14D
102
}
330
14D
100
AcDbScale
 70
     0
300
1:5
140
1.0
141
5.0
290
     0
  0
SCALE
  5
152
102
{ACAD_REACTORS
330
14D
102
}
330
14D
100
AcDbScale
 70
     0
300
1:8
140
1.0
141
8.0
290
     0
  0
SCALE
  5
153
102
{ACAD_REACTORS
330
14D
102
}
330
14D
100
AcDbScale
 70
     0
300
1:10
140
1.0
141
10.0
290
     0
  0
SCALE
  5
154
102
{ACAD_REACTORS
330
14D
102
}
330
14D
100
AcDbScale
 70
     0
300
1:16
140
1.0
141
16.0
290
     0
  0
SCALE
  5
155
102
{ACAD_REACTORS
330
14D
102
}
330
14D
100
AcDbScale
 70
     0
300
1:20
140
1.0
141
20.0
290
     0
  0
SCALE
  5
156
102
{ACAD_REACTORS
330
14D
102
}
330
14D
100
AcDbScale
 70
     0
300
1:30
140
1.0
141
30.0
290
     0
  0
SCALE
  5
157
102
{ACAD_REACTORS
330
14D
102
}
330
14D
100
AcDbScale
 70
     0
300
1:40
140
1.0
141
40.0
290
     0
  0
SCALE
  5
158
102
{ACAD_REACTORS
330
14D
102
}
330
14D
100
AcDbScale
 70
     0
300
1:50
140
1.0
141
50.0
290
     0
  0
SCALE
  5
159
102
{ACAD_REACTORS
330
14D
102
}
330
14D
100
AcDbScale
 70
     0
300
1:100
140
1.0
141
100.0
290
     0
  0
SCALE
  5
15A
102
{ACAD_REACTORS
330
14D
102
}
330
14D
100
AcDbScale
 70
     0
300
2:1
140
2.0
141
1.0
290
     0
  0
SCALE
  5
15B
102
{ACAD_REACTORS
330
14D
102
}
330
14D
100
AcDbScale
 70
     0
300
4:1
140
4.0
141
1.0
290
     0
  0
SCALE
  5
15C
102
{ACAD_REACTORS
330
14D
102
}
330
14D
100
AcDbScale
 70
     0
300
8:1
140
8.0
141
1.0
290
     0
  0
SCALE
  5
15D
102
{ACAD_REACTORS
330
14D
102
}
330
14D
100
AcDbScale
 70
     0
300
10:1
140
10.0
141
1.0
290
     0
  0
SCALE
  5
15E
102
{ACAD_REACTORS
330
14D
102
}
330
14D
100
AcDbScale
 70
     0
300
100:1
140
100.0
141
1.0
290
     0
  0
SCALE
  5
15F
102
{ACAD_REACTORS
330
14D
102
}
330
14D
100
AcDbScale
 70
     0
300
1/128" = 1'-0"
140
0.0078125
141
12.0
290
     0
  0
SCALE
  5
160
102
{ACAD_REACTORS
330
14D
102
}
330
14D
100
AcDbScale
 70
     0
300
1/64" = 1'-0"
140
0.015625
141
12.0
290
     0
  0
SCALE
  5
161
102
{ACAD_REACTORS
330
14D
102
}
330
14D
100
AcDbScale
 70
     0
300
1/32" = 1'-0"
140
0.03125
141
12.0
290
     0
  0
SCALE
  5
162
102
{ACAD_REACTORS
330
14D
102
}
330
14D
100
AcDbScale
 70
     0
300
1/16" = 1'-0"
140
0.0625
141
12.0
290
     0
  0
SCALE
  5
163
102
{ACAD_REACTORS
330
14D
102
}
330
14D
100
AcDbScale
 70
     0
300
3/32" = 1'-0"
140
0.09375
141
12.0
290
     0
  0
SCALE
  5
164
102
{ACAD_REACTORS
330
14D
102
}
330
14D
100
AcDbScale
 70
     0
300
1/8" = 1'-0"
140
0.125
141
12.0
290
     0
  0
SCALE
  5
165
102
{ACAD_REACTORS
330
14D
102
}
330
14D
100
AcDbScale
 70
     0
300
3/16" = 1'-0"
140
0.1875
141
12.0
290
     0
  0
SCALE
  5
166
102
{ACAD_REACTORS
330
14D
102
}
330
14D
100
AcDbScale
 70
     0
300
1/4" = 1'-0"
140
0.25
141
12.0
290
     0
  0
SCALE
  5
167
102
{ACAD_REACTORS
330
14D
102
}
330
14D
100
AcDbScale
 70
     0
300
3/8" = 1'-0"
140
0.375
141
12.0
290
     0
  0
SCALE
  5
168
102
{ACAD_REACTORS
330
14D
102
}
330
14D
100
AcDbScale
 70
     0
300
1/2" = 1'-0"
140
0.5
141
12.0
290
     0
  0
SCALE
  5
169
102
{ACAD_REACTORS
330
14D
102
}
330
14D
100
AcDbScale
 70
     0
300
3/4" = 1'-0"
140
0.75
141
12.0
290
     0
  0
SCALE
  5
16A
102
{ACAD_REACTORS
330
14D
102
}
330
14D
100
AcDbScale
 70
     0
300
1" = 1'-0"
140
1.0
141
12.0
290
     0
  0
SCALE
  5
16B
102
{ACAD_REACTORS
330
14D
102
}
330
14D
100
AcDbScale
 70
     0
300
1-1/2" = 1'-0"
140
1.5
141
12.0
290
     0
  0
SCALE
  5
16C
102
{ACAD_REACTORS
330
14D
102
}
330
14D
100
AcDbScale
 70
     0
300
3" = 1'-0"
140
3.0
141
12.0
290
     0
  0
SCALE
  5
16D
102
{ACAD_REACTORS
330
14D
102
}
330
14D
100
AcDbScale
 70
     0
300
6" = 1'-0"
140
6.0
141
12.0
290
     0
  0
SCALE
  5
16E
102
{ACAD_REACTORS
330
14D
102
}
330
14D
100
AcDbScale
 70
     0
300
1'-0" = 1'-0"
140
12.0
141
12.0
290
     0
  0
TABLESTYLE
  5
1DB
102
{ACAD_REACTORS
330
1DA
102
}
102
{ACAD_XDICTIONARY
360
298
102
}
330
1DA
100
AcDbTableStyle
  3
Standard
 70
     0
 71
     0
 40
0.06
 41
0.06
280
     0
281
     0
  7
Standard
140
0.18
170
     2
 62
     0
 63
   257
283
     0
 90
        4
 91
        0
  1

274
    -2
284
     1
 64
     0
275
    -2
285
     1
 65
     0
276
    -2
286
     1
 66
     0
277
    -2
287
     1
 67
     0
278
    -2
288
     1
 68
     0
279
    -2
289
     1
 69
     0
  7
Standard
140
0.25
170
     5
 62
     0
 63
   257
283
     0
 90
        4
 91
        0
  1

274
    -2
284
     1
 64
     0
275
    -2
285
     1
 65
     0
276
    -2
286
     1
 66
     0
277
    -2
287
     1
 67
     0
278
    -2
288
     1
 68
     0
279
    -2
289
     1
 69
     0
  7
Standard
140
0.18
170
     5
 62
     0
 63
   257
283
     0
 90
        4
 91
        0
  1

274
    -2
284
     1
 64
     0
275
    -2
285
     1
 65
     0
276
    -2
286
     1
 66
     0
277
    -2
287
     1
 67
     0
278
    -2
288
     1
 68
     0
279
    -2
289
     1
 69
     0
  0
VISUALSTYLE
  5
178
102
{ACAD_REACTORS
330
173
102
}
330
173
100
AcDbVisualStyle
  2
2dWireframe
 70
     4
177
     3
291
     0
 70
    58
 90
        0
176
     1
 90
        2
176
     1
 90
        0
176
     1
 90
        0
176
     1
 40
-0.6
176
     1
 40
-30.0
176
     1
 62
     7
176
     1
 90
        1
176
     1
 90
        4
176
     1
 62
     7
176
     1
 62
   257
176
     1
 90
        1
176
     1
 90
        1
176
     1
 40
1.0
176
     1
 90
        0
176
     1
 62
   257
176
     1
 40
1.0
176
     1
 90
        1
176
     1
 90
        6
176
     1
 90
        2
176
     1
 62
     7
176
     1
 90
        5
176
     1
 90
        0
176
     1
 90
        0
176
     1
290
     0
176
     1
 90
        1
176
     1
 40
0.0
176
     1
 90
        0
176
     1
290
     1
176
     1
290
     1
176
     1
290
     0
176
     1
290
     0
176
     1
290
     0
176
     1
290
     0
176
     1
290
     0
176
     1
290
     0
176
     1
290
     0
176
     1
 90
       50
176
     1
 40
0.0
176
     1
 40
1.0
176
     1
 90
        0
176
     1
 62
    18
420
        0
176
     1
 90
       50
176
     1
 90
        3
176
     1
 62
     5
420
      255
176
     1
290
     0
176
     1
 90
       50
176
     1
 90
       50
176
     1
 90
       50
176
     1
290
     0
176
     1
 90
       50
176
     1
 62
   256
176
     0
 40
1.0
176
     0
 90
        2
176
     1
  1
strokes_ogs.tif
176
     1
290
     0
176
     1
 40
1.0
176
     1
 40
1.0
176
     1
  0
VISUALSTYLE
  5
17A
102
{ACAD_REACTORS
330
173
102
}
330
173
100
AcDbVisualStyle
  2
3D Hidden
 70
     6
177
     3
291
     0
 70
    58
 90
        1
176
     1
 90
        2
176
     1
 90
        2
176
     1
 90
        0
176
     1
 40
-0.6
176
     1
 40
-30.0
176
     1
 62
     7
176
     1
 90
        2
176
     1
 90
        2
176
     1
 62
     7
176
     1
 62
   257
176
     1
 90
        2
176
     1
 90
        1
176
     1
 40
40.0
176
     1
 90
        0
176
     1
 62
   257
176
     1
 40
1.0
176
     1
 90
        1
176
     1
 90
        6
176
     1
 90
        2
176
     1
 62
     7
176
     1
 90
        3
176
     1
 90
        0
176
     1
 90
        0
176
     1
290
     0
176
     1
 90
        1
176
     1
 40
0.0
176
     1
 90
        0
176
     1
290
     0
176
     1
290
     1
176
     1
290
     1
176
     1
290
     0
176
     1
290
     0
176
     1
290
     0
176
     1
290
     0
176
     1
290
     0
176
     1
290
     0
176
     1
 90
       50
176
     1
 40
0.0
176
     1
 40
1.0
176
     1
 90
        0
176
     1
 62
    18
420
        0
176
     1
 90
       50
176
     1
 90
        3
176
     1
 62
     5
420
      255
176
     1
290
     0
176
     1
 90
       50
176
     1
 90
       50
176
     1
 90
       50
176
     1
290
     0
176
     1
 90
       50
176
     1
 62
   256
176
     0
 40
1.0
176
     0
 90
        2
176
     1
  1
strokes_ogs.tif
176
     1
290
     0
176
     1
 40
1.0
176
     1
 40
1.0
176
     1
  0
VISUALSTYLE
  5
179
102
{ACAD_REACTORS
330
173
102
}
330
173
100
AcDbVisualStyle
  2
3dWireframe
 70
     5
177
     3
291
     0
 70
    58
 90
        0
176
     1
 90
        2
176
     1
 90
        0
176
     1
 90
        0
176
     1
 40
-0.6
176
     1
 40
-30.0
176
     1
 62
     7
176
     1
 90
        1
176
     1
 90
        4
176
     1
 62
     7
176
     1
 62
   257
176
     1
 90
        1
176
     1
 90
        1
176
     1
 40
1.0
176
     1
 90
        0
176
     1
 62
   257
176
     1
 40
1.0
176
     1
 90
        1
176
     1
 90
        6
176
     1
 90
        2
176
     1
 62
     7
176
     1
 90
        5
176
     1
 90
        0
176
     1
 90
        0
176
     1
290
     0
176
     1
 90
        1
176
     1
 40
0.0
176
     1
 90
        0
176
     1
290
     0
176
     1
290
     1
176
     1
290
     1
176
     1
290
     0
176
     1
290
     0
176
     1
290
     0
176
     1
290
     0
176
     1
290
     0
176
     1
290
     0
176
     1
 90
       50
176
     1
 40
0.0
176
     1
 40
1.0
176
     1
 90
        0
176
     1
 62
    18
420
        0
176
     1
 90
       50
176
     1
 90
        3
176
     1
 62
     5
420
      255
176
     1
290
     0
176
     1
 90
       50
176
     1
 90
       50
176
     1
 90
       50
176
     1
290
     0
176
     1
 90
       50
176
     1
 62
   256
176
     0
 40
1.0
176
     0
 90
        2
176
     1
  1
strokes_ogs.tif
176
     1
290
     0
176
     1
 40
1.0
176
     1
 40
1.0
176
     1
  0
VISUALSTYLE
  5
17B
102
{ACAD_REACTORS
330
173
102
}
330
173
100
AcDbVisualStyle
  2
Basic
 70
     7
177
     3
291
     1
 70
    58
 90
        1
176
     1
 90
        0
176
     1
 90
        1
176
     1
 90
        0
176
     1
 40
-0.6
176
     1
 40
-30.0
176
     1
 62
     7
176
     1
 90
        0
176
     1
 90
        4
176
     1
 62
     7
176
     1
 62
   257
176
     1
 90
        1
176
     1
 90
        1
176
     1
 40
1.0
176
     1
 90
        8
176
     1
 62
     7
176
     1
 40
1.0
176
     1
 90
        1
176
     1
 90
        6
176
     1
 90
        2
176
     1
 62
     7
176
     1
 90
        5
176
     1
 90
        0
176
     1
 90
        0
176
     1
290
     0
176
     1
 90
        1
176
     1
 40
0.0
176
     1
 90
        0
176
     1
290
     0
176
     1
290
     1
176
     1
290
     1
176
     1
290
     0
176
     1
290
     0
176
     1
290
     0
176
     1
290
     0
176
     1
290
     0
176
     1
290
     0
176
     1
 90
       50
176
     1
 40
0.0
176
     1
 40
1.0
176
     1
 90
        0
176
     1
 62
    18
420
        0
176
     1
 90
       50
176
     1
 90
        3
176
     1
 62
     5
420
      255
176
     1
290
     0
176
     1
 90
       50
176
     1
 90
       50
176
     1
 90
       50
176
     1
290
     0
176
     1
 90
       50
176
     1
 62
   256
176
     0
 40
1.0
176
     0
 90
        2
176
     1
  1
strokes_ogs.tif
176
     1
290
     0
176
     1
 40
1.0
176
     1
 40
1.0
176
     1
  0
VISUALSTYLE
  5
17F
102
{ACAD_REACTORS
330
173
102
}
330
173
100
AcDbVisualStyle
  2
Brighten
 70
    12
177
     3
291
     1
 70
    58
 90
        2
176
     1
 90
        2
176
     1
 90
        0
176
     1
 90
        0
176
     1
 40
-0.6
176
     1
 40
-30.0
176
     1
 62
     7
176
     1
 90
        1
176
     1
 90
        4
176
     1
 62
     7
176
     1
 62
   257
176
     1
 90
        1
176
     1
 90
        1
176
     1
 40
1.0
176
     1
 90
        8
176
     1
 62
     7
176
     1
 40
1.0
176
     1
 90
        1
176
     1
 90
        6
176
     1
 90
        2
176
     1
 62
     7
176
     1
 90
        5
176
     1
 90
        0
176
     1
 90
        0
176
     1
290
     0
176
     1
 90
        1
176
     1
 40
50.0
176
     1
 90
        0
176
     1
290
     0
176
     1
290
     1
176
     1
290
     1
176
     1
290
     0
176
     1
290
     0
176
     1
290
     0
176
     1
290
     0
176
     1
290
     0
176
     1
290
     0
176
     1
 90
       50
176
     1
 40
0.0
176
     1
 40
1.0
176
     1
 90
        0
176
     1
 62
    18
420
        0
176
     1
 90
       50
176
     1
 90
        3
176
     1
 62
     5
420
      255
176
     1
290
     0
176
     1
 90
       50
176
     1
 90
       50
176
     1
 90
       50
176
     1
290
     0
176
     1
 90
       50
176
     1
 62
   256
176
     0
 40
1.0
176
     0
 90
        2
176
     1
  1
strokes_ogs.tif
176
     1
290
     0
176
     1
 40
1.0
176
     1
 40
1.0
176
     1
  0
VISUALSTYLE
  5
183
102
{ACAD_REACTORS
330
173
102
}
330
173
100
AcDbVisualStyle
  2
ColorChange
 70
    16
177
     3
291
     1
 70
    58
 90
        2
176
     1
 90
        2
176
     1
 90
        3
176
     1
 90
        0
176
     1
 40
-0.6
176
     1
 40
-30.0
176
     1
 62
     8
176
     1
 90
        1
176
     1
 90
        4
176
     1
 62
     7
176
     1
 62
   257
176
     1
 90
        1
176
     1
 90
        1
176
     1
 40
1.0
176
     1
 90
        8
176
     1
 62
     8
176
     1
 40
1.0
176
     1
 90
        1
176
     1
 90
        6
176
     1
 90
        2
176
     1
 62
     7
176
     1
 90
        5
176
     1
 90
        0
176
     1
 90
        0
176
     1
290
     0
176
     1
 90
        1
176
     1
 40
0.0
176
     1
 90
        0
176
     1
290
     0
176
     1
290
     1
176
     1
290
     1
176
     1
290
     0
176
     1
290
     0
176
     1
290
     0
176
     1
290
     0
176
     1
290
     0
176
     1
290
     0
176
     1
 90
       50
176
     1
 40
0.0
176
     1
 40
1.0
176
     1
 90
        0
176
     1
 62
    18
420
        0
176
     1
 90
       50
176
     1
 90
        3
176
     1
 62
     5
420
      255
176
     1
290
     0
176
     1
 90
       50
176
     1
 90
       50
176
     1
 90
       50
176
     1
290
     0
176
     1
 90
       50
176
     1
 62
   256
176
     0
 40
1.0
176
     0
 90
        2
176
     1
  1
strokes_ogs.tif
176
     1
290
     0
176
     1
 40
1.0
176
     1
 40
1.0
176
     1
  0
VISUALSTYLE
  5
17D
102
{ACAD_REACTORS
330
173
102
}
330
173
100
AcDbVisualStyle
  2
Conceptual
 70
     9
177
     3
291
     0
 70
    58
 90
        3
176
     1
 90
        2
176
     1
 90
        0
176
     1
 90
        0
176
     1
 40
-0.6
176
     1
 40
-30.0
176
     1
 62
     7
176
     1
 90
        2
176
     1
 90
        2
176
     1
 62
     7
176
     1
 62
   257
176
     1
 90
        1
176
     1
 90
        1
176
     1
 40
40.0
176
     1
 90
        8
176
     1
 62
     7
176
     1
 40
1.0
176
     1
 90
        1
176
     1
 90
        6
176
     1
 90
        2
176
     1
 62
     7
176
     1
 90
        3
176
     1
 90
        0
176
     1
 90
        0
176
     1
290
     0
176
     1
 90
        1
176
     1
 40
0.0
176
     1
 90
        0
176
     1
290
     0
176
     1
290
     1
176
     1
290
     1
176
     1
290
     0
176
     1
290
     0
176
     1
290
     0
176
     1
290
     0
176
     1
290
     0
176
     1
290
     0
176
     1
 90
       50
176
     1
 40
0.0
176
     1
 40
1.0
176
     1
 90
        0
176
     1
 62
    18
420
        0
176
     1
 90
       50
176
     1
 90
        3
176
     1
 62
     5
420
      255
176
     1
290
     0
176
     1
 90
       50
176
     1
 90
       50
176
     1
 90
       50
176
     1
290
     0
176
     1
 90
       50
176
     1
 62
   256
176
     0
 40
1.0
176
     0
 90
        2
176
     1
  1
strokes_ogs.tif
176
     1
290
     0
176
     1
 40
1.0
176
     1
 40
1.0
176
     1
  0
VISUALSTYLE
  5
17E
102
{ACAD_REACTORS
330
173
102
}
330
173
100
AcDbVisualStyle
  2
Dim
 70
    11
177
     3
291
     1
 70
    58
 90
        2
176
     1
 90
        2
176
     1
 90
        0
176
     1
 90
        0
176
     1
 40
-0.6
176
     1
 40
-30.0
176
     1
 62
     7
176
     1
 90
        1
176
     1
 90
        4
176
     1
 62
     7
176
     1
 62
   257
176
     1
 90
        1
176
     1
 90
        1
176
     1
 40
1.0
176
     1
 90
        8
176
     1
 62
     7
176
     1
 40
1.0
176
     1
 90
        1
176
     1
 90
        6
176
     1
 90
        2
176
     1
 62
     7
176
     1
 90
        5
176
     1
 90
        0
176
     1
 90
        0
176
     1
290
     0
176
     1
 90
        1
176
     1
 40
-50.0
176
     1
 90
        0
176
     1
290
     0
176
     1
290
     1
176
     1
290
     1
176
     1
290
     0
176
     1
290
     0
176
     1
290
     0
176
     1
290
     0
176
     1
290
     0
176
     1
290
     0
176
     1
 90
       50
176
     1
 40
0.0
176
     1
 40
1.0
176
     1
 90
        0
176
     1
 62
    18
420
        0
176
     1
 90
       50
176
     1
 90
        3
176
     1
 62
     5
420
      255
176
     1
290
     0
176
     1
 90
       50
176
     1
 90
       50
176
     1
 90
       50
176
     1
290
     0
176
     1
 90
       50
176
     1
 62
   256
176
     0
 40
1.0
176
     0
 90
        2
176
     1
  1
strokes_ogs.tif
176
     1
290
     0
176
     1
 40
1.0
176
     1
 40
1.0
176
     1
  0
VISUALSTYLE
  5
1D4
102
{ACAD_REACTORS
330
173
102
}
330
173
100
AcDbVisualStyle
  2
EdgeColorOff
 70
    22
177
     3
291
     1
 70
    58
 90
        2
176
     0
 90
        2
176
     0
 90
        0
176
     0
 90
        0
176
     0
 40
0.6
176
     0
 40
30.0
176
     0
 62
     7
420
 16777215
176
     0
 90
        1
176
     0
 90
        4
176
     0
 62
     7
176
     0
 62
   257
176
     0
 90
        1
176
     0
 90
        1
176
     0
 40
1.0
176
     0
 90
        8
176
     2
 62
     7
176
     0
 40
1.0
176
     0
 90
        1
176
     0
 90
        6
176
     0
 90
        2
176
     0
 62
     7
176
     0
 90
        5
176
     0
 90
        0
176
     0
 90
        0
176
     0
290
     0
176
     0
 90
        1
176
     0
 40
0.0
176
     0
 90
        0
176
     0
290
     0
176
     0
290
     1
176
     0
290
     1
176
     0
290
     0
176
     0
290
     0
176
     0
290
     0
176
     0
290
     0
176
     0
290
     0
176
     0
290
     0
176
     0
 90
       50
176
     0
 40
0.0
176
     0
 40
1.0
176
     0
 90
        0
176
     0
 62
    18
420
        0
176
     0
 90
       50
176
     0
 90
        3
176
     0
 62
     5
420
      255
176
     0
290
     0
176
     0
 90
       50
176
     0
 90
       50
176
     0
 90
       50
176
     0
290
     0
176
     0
 90
       50
176
     0
 62
   256
176
     0
 40
1.0
176
     0
 90
        2
176
     0
  1
strokes_ogs.tif
176
     0
290
     0
176
     0
 40
1.0
176
     0
 40
1.0
176
     0
  0
VISUALSTYLE
  5
182
102
{ACAD_REACTORS
330
173
102
}
330
173
100
AcDbVisualStyle
  2
Facepattern
 70
    15
177
     3
291
     1
 70
    58
 90
        2
176
     1
 90
        2
176
     1
 90
        0
176
     1
 90
        0
176
     1
 40
-0.6
176
     1
 40
-30.0
176
     1
 62
     7
176
     1
 90
        1
176
     1
 90
        4
176
     1
 62
     7
176
     1
 62
   257
176
     1
 90
        1
176
     1
 90
        1
176
     1
 40
1.0
176
     1
 90
        8
176
     1
 62
     7
176
     1
 40
1.0
176
     1
 90
        1
176
     1
 90
        6
176
     1
 90
        2
176
     1
 62
     7
176
     1
 90
        5
176
     1
 90
        0
176
     1
 90
        0
176
     1
290
     0
176
     1
 90
        1
176
     1
 40
0.0
176
     1
 90
        0
176
     1
290
     0
176
     1
290
     1
176
     1
290
     1
176
     1
290
     0
176
     1
290
     0
176
     1
290
     0
176
     1
290
     0
176
     1
290
     0
176
     1
290
     0
176
     1
 90
       50
176
     1
 40
0.0
176
     1
 40
1.0
176
     1
 90
        0
176
     1
 62
    18
420
        0
176
     1
 90
       50
176
     1
 90
        3
176
     1
 62
     5
420
      255
176
     1
290
     0
176
     1
 90
       50
176
     1
 90
       50
176
     1
 90
       50
176
     1
290
     0
176
     1
 90
       50
176
     1
 62
   256
176
     0
 40
1.0
176
     0
 90
        2
176
     1
  1
strokes_ogs.tif
176
     1
290
     0
176
     1
 40
1.0
176
     1
 40
1.0
176
     1
  0
VISUALSTYLE
  5
174
102
{ACAD_REACTORS
330
173
102
}
330
173
100
AcDbVisualStyle
  2
Flat
 70
     0
177
     3
291
     1
 70
    58
 90
        2
176
     1
 90
        1
176
     1
 90
        1
176
     1
 90
        2
176
     1
 40
-0.6
176
     1
 40
30.0
176
     1
 62
     7
176
     1
 90
        0
176
     1
 90
        4
176
     1
 62
     7
176
     1
 62
   257
176
     1
 90
        1
176
     1
 90
        1
176
     1
 40
1.0
176
     1
 90
        8
176
     1
 62
     7
176
     1
 40
1.0
176
     1
 90
        1
176
     1
 90
        6
176
     1
 90
        2
176
     1
 62
     7
176
     1
 90
        5
176
     1
 90
        0
176
     1
 90
        0
176
     1
290
     0
176
     1
 90
       13
176
     1
 40
0.0
176
     1
 90
        0
176
     1
290
     0
176
     1
290
     1
176
     1
290
     1
176
     1
290
     0
176
     1
290
     0
176
     1
290
     0
176
     1
290
     0
176
     1
290
     0
176
     1
290
     0
176
     1
 90
       50
176
     1
 40
0.0
176
     1
 40
1.0
176
     1
 90
        0
176
     1
 62
    18
420
        0
176
     1
 90
       50
176
     1
 90
        3
176
     1
 62
     5
420
      255
176
     1
290
     0
176
     1
 90
       50
176
     1
 90
       50
176
     1
 90
       50
176
     1
290
     0
176
     1
 90
       50
176
     1
 62
   256
176
     0
 40
1.0
176
     0
 90
        2
176
     1
  1
strokes_ogs.tif
176
     1
290
     0
176
     1
 40
1.0
176
     1
 40
1.0
176
     1
  0
VISUALSTYLE
  5
175
102
{ACAD_REACTORS
330
173
102
}
330
173
100
AcDbVisualStyle
  2
FlatWithEdges
 70
     1
177
     3
291
     1
 70
    58
 90
        2
176
     1
 90
        1
176
     1
 90
        1
176
     1
 90
        2
176
     1
 40
-0.6
176
     1
 40
30.0
176
     1
 62
     7
176
     1
 90
        1
176
     1
 90
        4
176
     1
 62
     7
176
     1
 62
   257
176
     1
 90
        1
176
     1
 90
        1
176
     1
 40
1.0
176
     1
 90
        0
176
     1
 62
   257
176
     1
 40
1.0
176
     1
 90
        1
176
     1
 90
        6
176
     1
 90
        2
176
     1
 62
     7
176
     1
 90
        5
176
     1
 90
        0
176
     1
 90
        0
176
     1
290
     0
176
     1
 90
       13
176
     1
 40
0.0
176
     1
 90
        0
176
     1
290
     0
176
     1
290
     1
176
     1
290
     1
176
     1
290
     0
176
     1
290
     0
176
     1
290
     0
176
     1
290
     0
176
     1
290
     0
176
     1
290
     0
176
     1
 90
       50
176
     1
 40
0.0
176
     1
 40
1.0
176
     1
 90
        0
176
     1
 62
    18
420
        0
176
     1
 90
       50
176
     1
 90
        3
176
     1
 62
     5
420
      255
176
     1
290
     0
176
     1
 90
       50
176
     1
 90
       50
176
     1
 90
       50
176
     1
290
     0
176
     1
 90
       50
176
     1
 62
   256
176
     0
 40
1.0
176
     0
 90
        2
176
     1
  1
strokes_ogs.tif
176
     1
290
     0
176
     1
 40
1.0
176
     1
 40
1.0
176
     1
  0
VISUALSTYLE
  5
176
102
{ACAD_REACTORS
330
173
102
}
330
173
100
AcDbVisualStyle
  2
Gouraud
 70
     2
177
     3
291
     1
 70
    58
 90
        2
176
     1
 90
        2
176
     1
 90
        1
176
     1
 90
        2
176
     1
 40
-0.6
176
     1
 40
30.0
176
     1
 62
     7
176
     1
 90
        0
176
     1
 90
        4
176
     1
 62
     7
176
     1
 62
   257
176
     1
 90
        1
176
     1
 90
        1
176
     1
 40
1.0
176
     1
 90
        0
176
     1
 62
     7
176
     1
 40
1.0
176
     1
 90
        1
176
     1
 90
        6
176
     1
 90
        2
176
     1
 62
     7
176
     1
 90
        5
176
     1
 90
        0
176
     1
 90
        0
176
     1
290
     0
176
     1
 90
       13
176
     1
 40
0.0
176
     1
 90
        0
176
     1
290
     0
176
     1
290
     1
176
     1
290
     1
176
     1
290
     0
176
     1
290
     0
176
     1
290
     0
176
     1
290
     0
176
     1
290
     0
176
     1
290
     0
176
     1
 90
       50
176
     1
 40
0.0
176
     1
 40
1.0
176
     1
 90
        0
176
     1
 62
    18
420
        0
176
     1
 90
       50
176
     1
 90
        3
176
     1
 62
     5
420
      255
176
     1
290
     0
176
     1
 90
       50
176
     1
 90
       50
176
     1
 90
       50
176
     1
290
     0
176
     1
 90
       50
176
     1
 62
   256
176
     0
 40
1.0
176
     0
 90
        2
176
     1
  1
strokes_ogs.tif
176
     1
290
     0
176
     1
 40
1.0
176
     1
 40
1.0
176
     1
  0
VISUALSTYLE
  5
177
102
{ACAD_REACTORS
330
173
102
}
330
173
100
AcDbVisualStyle
  2
GouraudWithEdges
 70
     3
177
     3
291
     1
 70
    58
 90
        2
176
     1
 90
        2
176
     1
 90
        1
176
     1
 90
        2
176
     1
 40
-0.6
176
     1
 40
30.0
176
     1
 62
     7
176
     1
 90
        1
176
     1
 90
        4
176
     1
 62
     7
176
     1
 62
   257
176
     1
 90
        1
176
     1
 90
        1
176
     1
 40
1.0
176
     1
 90
        0
176
     1
 62
   257
176
     1
 40
1.0
176
     1
 90
        1
176
     1
 90
        6
176
     1
 90
        2
176
     1
 62
     7
176
     1
 90
        5
176
     1
 90
        0
176
     1
 90
        0
176
     1
290
     0
176
     1
 90
       13
176
     1
 40
0.0
176
     1
 90
        0
176
     1
290
     0
176
     1
290
     1
176
     1
290
     1
176
     1
290
     0
176
     1
290
     0
176
     1
290
     0
176
     1
290
     0
176
     1
290
     0
176
     1
290
     0
176
     1
 90
       50
176
     1
 40
0.0
176
     1
 40
1.0
176
     1
 90
        0
176
     1
 62
    18
420
        0
176
     1
 90
       50
176
     1
 90
        3
176
     1
 62
     5
420
      255
176
     1
290
     0
176
     1
 90
       50
176
     1
 90
       50
176
     1
 90
       50
176
     1
290
     0
176
     1
 90
       50
176
     1
 62
   256
176
     0
 40
1.0
176
     0
 90
        2
176
     1
  1
strokes_ogs.tif
176
     1
290
     0
176
     1
 40
1.0
176
     1
 40
1.0
176
     1
  0
VISUALSTYLE
  5
1D1
102
{ACAD_REACTORS
330
173
102
}
330
173
100
AcDbVisualStyle
  2
Hidden
 70
     6
177
     3
291
     0
 70
    58
 90
        1
176
     1
 90
        2
176
     1
 90
        2
176
     1
 90
        0
176
     1
 40
0.6
176
     1
 40
30.0
176
     1
 62
     7
420
 16777215
176
     1
 90
        2
176
     1
 90
        2
176
     1
 62
     7
176
     1
 62
   257
176
     1
 90
        2
176
     1
 90
        1
176
     1
 40
40.0
176
     1
 90
        0
176
     1
 62
   257
176
     1
 40
1.0
176
     1
 90
        1
176
     1
 90
        6
176
     1
 90
        2
176
     1
 62
     7
176
     1
 90
        3
176
     1
 90
        0
176
     1
 90
        0
176
     1
290
     0
176
     1
 90
        1
176
     1
 40
0.0
176
     1
 90
        0
176
     1
290
     0
176
     1
290
     1
176
     1
290
     1
176
     1
290
     0
176
     1
290
     0
176
     1
290
     0
176
     1
290
     0
176
     1
290
     0
176
     1
290
     0
176
     1
 90
       50
176
     1
 40
0.0
176
     1
 40
1.0
176
     1
 90
        0
176
     1
 62
    18
420
        0
176
     1
 90
       50
176
     1
 90
        3
176
     1
 62
     5
420
      255
176
     1
290
     0
176
     1
 90
       50
176
     1
 90
       50
176
     1
 90
       50
176
     1
290
     0
176
     1
 90
       50
176
     1
 62
   256
176
     0
 40
1.0
176
     0
 90
        2
176
     1
  1
strokes_ogs.tif
176
     1
290
     0
176
     1
 40
1.0
176
     1
 40
1.0
176
     1
  0
VISUALSTYLE
  5
1D2
102
{ACAD_REACTORS
330
173
102
}
330
173
100
AcDbVisualStyle
  2
JitterOff
 70
    20
177
     3
291
     1
 70
    58
 90
        2
176
     0
 90
        2
176
     0
 90
        0
176
     0
 90
        0
176
     0
 40
0.6
176
     0
 40
30.0
176
     0
 62
     7
420
 16777215
176
     0
 90
        1
176
     0
 90
        4
176
     0
 62
     7
176
     0
 62
   257
176
     0
 90
        1
176
     0
 90
        1
176
     0
 40
1.0
176
     0
 90
       10
176
     2
 62
     7
176
     0
 40
1.0
176
     0
 90
        1
176
     0
 90
        6
176
     0
 90
        2
176
     0
 62
     7
176
     0
 90
        5
176
     0
 90
        0
176
     0
 90
        0
176
     0
290
     0
176
     0
 90
        1
176
     0
 40
0.0
176
     0
 90
        0
176
     0
290
     0
176
     0
290
     1
176
     0
290
     1
176
     0
290
     0
176
     0
290
     0
176
     0
290
     0
176
     0
290
     0
176
     0
290
     0
176
     0
290
     0
176
     0
 90
       50
176
     0
 40
0.0
176
     0
 40
1.0
176
     0
 90
        0
176
     0
 62
    18
420
        0
176
     0
 90
       50
176
     0
 90
        3
176
     0
 62
     5
420
      255
176
     0
290
     0
176
     0
 90
       50
176
     0
 90
       50
176
     0
 90
       50
176
     0
290
     0
176
     0
 90
       50
176
     0
 62
   256
176
     0
 40
1.0
176
     0
 90
        2
176
     0
  1
strokes_ogs.tif
176
     0
290
     0
176
     0
 40
1.0
176
     0
 40
1.0
176
     0
  0
VISUALSTYLE
  5
181
102
{ACAD_REACTORS
330
173
102
}
330
173
100
AcDbVisualStyle
  2
Linepattern
 70
    14
177
     3
291
     1
 70
    58
 90
        2
176
     1
 90
        2
176
     1
 90
        0
176
     1
 90
        0
176
     1
 40
-0.6
176
     1
 40
-30.0
176
     1
 62
     7
176
     1
 90
        1
176
     1
 90
        4
176
     1
 62
     7
176
     1
 62
   257
176
     1
 90
        7
176
     1
 90
        7
176
     1
 40
1.0
176
     1
 90
        8
176
     1
 62
     7
176
     1
 40
1.0
176
     1
 90
        1
176
     1
 90
        6
176
     1
 90
        2
176
     1
 62
     7
176
     1
 90
        5
176
     1
 90
        0
176
     1
 90
        0
176
     1
290
     0
176
     1
 90
        1
176
     1
 40
0.0
176
     1
 90
        0
176
     1
290
     0
176
     1
290
     1
176
     1
290
     1
176
     1
290
     0
176
     1
290
     0
176
     1
290
     0
176
     1
290
     0
176
     1
290
     0
176
     1
290
     0
176
     1
 90
       50
176
     1
 40
0.0
176
     1
 40
1.0
176
     1
 90
        0
176
     1
 62
    18
420
        0
176
     1
 90
       50
176
     1
 90
        3
176
     1
 62
     5
420
      255
176
     1
290
     0
176
     1
 90
       50
176
     1
 90
       50
176
     1
 90
       50
176
     1
290
     0
176
     1
 90
       50
176
     1
 62
   256
176
     0
 40
1.0
176
     0
 90
        2
176
     1
  1
strokes_ogs.tif
176
     1
290
     0
176
     1
 40
1.0
176
     1
 40
1.0
176
     1
  0
VISUALSTYLE
  5
1D3
102
{ACAD_REACTORS
330
173
102
}
330
173
100
AcDbVisualStyle
  2
OverhangOff
 70
    21
177
     3
291
     1
 70
    58
 90
        2
176
     0
 90
        2
176
     0
 90
        0
176
     0
 90
        0
176
     0
 40
0.6
176
     0
 40
30.0
176
     0
 62
     7
420
 16777215
176
     0
 90
        1
176
     0
 90
        4
176
     0
 62
     7
176
     0
 62
   257
176
     0
 90
        1
176
     0
 90
        1
176
     0
 40
1.0
176
     0
 90
        9
176
     2
 62
     7
176
     0
 40
1.0
176
     0
 90
        1
176
     0
 90
        6
176
     0
 90
        2
176
     0
 62
     7
176
     0
 90
        5
176
     0
 90
        0
176
     0
 90
        0
176
     0
290
     0
176
     0
 90
        1
176
     0
 40
0.0
176
     0
 90
        0
176
     0
290
     0
176
     0
290
     1
176
     0
290
     1
176
     0
290
     0
176
     0
290
     0
176
     0
290
     0
176
     0
290
     0
176
     0
290
     0
176
     0
290
     0
176
     0
 90
       50
176
     0
 40
0.0
176
     0
 40
1.0
176
     0
 90
        0
176
     0
 62
    18
420
        0
176
     0
 90
       50
176
     0
 90
        3
176
     0
 62
     5
420
      255
176
     0
290
     0
176
     0
 90
       50
176
     0
 90
       50
176
     0
 90
       50
176
     0
290
     0
176
     0
 90
       50
176
     0
 62
   256
176
     0
 40
1.0
176
     0
 90
        2
176
     0
  1
strokes_ogs.tif
176
     0
290
     0
176
     0
 40
1.0
176
     0
 40
1.0
176
     0
  0
VISUALSTYLE
  5
17C
102
{ACAD_REACTORS
330
173
102
}
330
173
100
AcDbVisualStyle
  2
Realistic
 70
     8
177
     3
291
     0
 70
    58
 90
        2
176
     1
 90
        2
176
     1
 90
        0
176
     1
 90
        0
176
     1
 40
-0.6
176
     1
 40
-30.0
176
     1
 62
     7
176
     1
 90
        1
176
     1
 90
        0
176
     1
 62
     7
176
     1
 62
   257
176
     1
 90
        1
176
     1
 90
        1
176
     1
 40
1.0
176
     1
 90
        8
176
     1
 62
     8
176
     1
 40
1.0
176
     1
 90
        1
176
     1
 90
        6
176
     1
 90
        2
176
     1
 62
     7
176
     1
 90
        5
176
     1
 90
        0
176
     1
 90
        0
176
     1
290
     0
176
     1
 90
       13
176
     1
 40
0.0
176
     1
 90
        0
176
     1
290
     0
176
     1
290
     1
176
     1
290
     1
176
     1
290
     0
176
     1
290
     0
176
     1
290
     0
176
     1
290
     0
176
     1
290
     0
176
     1
290
     0
176
     1
 90
       50
176
     1
 40
0.0
176
     1
 40
1.0
176
     1
 90
        0
176
     1
 62
    18
420
        0
176
     1
 90
       50
176
     1
 90
        3
176
     1
 62
     5
420
      255
176
     1
290
     0
176
     1
 90
       50
176
     1
 90
       50
176
     1
 90
       50
176
     1
290
     0
176
     1
 90
       50
176
     1
 62
   256
176
     0
 40
1.0
176
     0
 90
        2
176
     1
  1
strokes_ogs.tif
176
     1
290
     0
176
     1
 40
1.0
176
     1
 40
1.0
176
     1
  0
VISUALSTYLE
  5
1D9
102
{ACAD_REACTORS
330
173
102
}
330
173
100
AcDbVisualStyle
  2
Shaded
 70
    27
177
     3
291
     0
 70
    58
 90
        2
176
     1
 90
        2
176
     1
 90
        1
176
     1
 90
        2
176
     1
 40
0.6
176
     1
 40
30.0
176
     1
 62
     7
420
 16777215
176
     1
 90
        0
176
     1
 90
        4
176
     1
 62
     7
176
     1
 62
   257
176
     1
 90
        1
176
     1
 90
        1
176
     1
 40
1.0
176
     1
 90
        8
176
     1
 62
   257
176
     1
 40
1.0
176
     1
 90
        1
176
     1
 90
        6
176
     1
 90
        2
176
     1
 62
     8
420
  7895160
176
     1
 90
        3
176
     1
 90
        0
176
     1
 90
        0
176
     1
290
     0
176
     1
 90
        5
176
     1
 40
0.0
176
     1
 90
        0
176
     1
290
     0
176
     1
290
     1
176
     1
290
     1
176
     1
290
     0
176
     1
290
     0
176
     1
290
     0
176
     1
290
     0
176
     1
290
     0
176
     1
290
     0
176
     1
 90
       50
176
     1
 40
0.0
176
     1
 40
1.0
176
     1
 90
        0
176
     1
 62
    18
420
        0
176
     1
 90
       50
176
     1
 90
        3
176
     1
 62
     5
420
      255
176
     1
290
     0
176
     1
 90
       50
176
     1
 90
       50
176
     1
 90
       50
176
     1
290
     0
176
     1
 90
       50
176
     1
 62
   256
176
     0
 40
1.0
176
     0
 90
        2
176
     1
  1
strokes_ogs.tif
176
     1
290
     0
176
     1
 40
1.0
176
     1
 40
1.0
176
     1
  0
VISUALSTYLE
  5
1D8
102
{ACAD_REACTORS
330
173
102
}
330
173
100
AcDbVisualStyle
  2
Shaded with edges
 70
    26
177
     3
291
     0
 70
    58
 90
        2
176
     1
 90
        2
176
     1
 90
        1
176
     1
 90
        2
176
     1
 40
0.6
176
     1
 40
30.0
176
     1
 62
     7
420
 16777215
176
     1
 90
        1
176
     1
 90
       10
176
     1
 62
     7
176
     1
 62
   257
176
     1
 90
        2
176
     1
 90
        1
176
     1
 40
1.0
176
     1
 90
        8
176
     1
 62
   257
176
     1
 40
1.0
176
     1
 90
        1
176
     1
 90
        6
176
     1
 90
        2
176
     1
 62
     7
176
     1
 90
        3
176
     1
 90
        0
176
     1
 90
        0
176
     1
290
     0
176
     1
 90
        5
176
     1
 40
0.0
176
     1
 90
        0
176
     1
290
     0
176
     1
290
     1
176
     1
290
     1
176
     1
290
     0
176
     1
290
     0
176
     1
290
     0
176
     1
290
     0
176
     1
290
     0
176
     1
290
     0
176
     1
 90
       50
176
     1
 40
0.0
176
     1
 40
1.0
176
     1
 90
        0
176
     1
 62
    18
420
        0
176
     1
 90
       50
176
     1
 90
        3
176
     1
 62
     5
420
      255
176
     1
290
     0
176
     1
 90
       50
176
     1
 90
       50
176
     1
 90
       50
176
     1
290
     0
176
     1
 90
       50
176
     1
 62
   256
176
     0
 40
1.0
176
     0
 90
        2
176
     1
  1
strokes_ogs.tif
176
     1
290
     0
176
     1
 40
1.0
176
     1
 40
1.0
176
     1
  0
VISUALSTYLE
  5
1D5
102
{ACAD_REACTORS
330
173
102
}
330
173
100
AcDbVisualStyle
  2
Shades of Gray
 70
    23
177
     3
291
     0
 70
    58
 90
        2
176
     1
 90
        2
176
     1
 90
        3
176
     1
 90
        0
176
     1
 40
0.6
176
     1
 40
30.0
176
     1
 62
     7
420
 16777215
176
     1
 90
        2
176
     1
 90
        2
176
     1
 62
     7
176
     1
 62
     7
176
     1
 90
        1
176
     1
 90
        1
176
     1
 40
40.0
176
     1
 90
        8
176
     1
 62
     7
176
     1
 40
1.0
176
     1
 90
        1
176
     1
 90
        6
176
     1
 90
        2
176
     1
 62
     7
176
     1
 90
        3
176
     1
 90
        0
176
     1
 90
        0
176
     1
290
     0
176
     1
 90
        1
176
     1
 40
0.0
176
     1
 90
        0
176
     1
290
     0
176
     1
290
     1
176
     1
290
     1
176
     1
290
     0
176
     1
290
     0
176
     1
290
     0
176
     1
290
     0
176
     1
290
     0
176
     1
290
     0
176
     1
 90
       50
176
     1
 40
0.0
176
     1
 40
1.0
176
     1
 90
        0
176
     1
 62
    18
420
        0
176
     1
 90
       50
176
     1
 90
        3
176
     1
 62
     5
420
      255
176
     1
290
     0
176
     1
 90
       50
176
     1
 90
       50
176
     1
 90
       50
176
     1
290
     0
176
     1
 90
       50
176
     1
 62
   256
176
     0
 40
1.0
176
     0
 90
        2
176
     1
  1
strokes_ogs.tif
176
     1
290
     0
176
     1
 40
1.0
176
     1
 40
1.0
176
     1
  0
VISUALSTYLE
  5
1D6
102
{ACAD_REACTORS
330
173
102
}
330
173
100
AcDbVisualStyle
  2
Sketchy
 70
    24
177
     3
291
     0
 70
    58
 90
        1
176
     1
 90
        2
176
     1
 90
        2
176
     1
 90
        0
176
     1
 40
0.6
176
     1
 40
30.0
176
     1
 62
     7
420
 16777215
176
     1
 90
        2
176
     1
 90
        2
176
     1
 62
     7
176
     1
 62
     7
176
     1
 90
        1
176
     1
 90
        1
176
     1
 40
40.0
176
     1
 90
       11
176
     1
 62
     7
176
     1
 40
1.0
176
     1
 90
        1
176
     1
 90
        6
176
     1
 90
        2
176
     1
 62
     7
176
     1
 90
        6
176
     1
 90
        0
176
     1
 90
        0
176
     1
290
     0
176
     1
 90
        1
176
     1
 40
0.0
176
     1
 90
        0
176
     1
290
     0
176
     1
290
     1
176
     1
290
     1
176
     1
290
     0
176
     1
290
     0
176
     1
290
     0
176
     1
290
     0
176
     1
290
     0
176
     1
290
     0
176
     1
 90
       50
176
     1
 40
0.0
176
     1
 40
1.0
176
     1
 90
        0
176
     1
 62
    18
420
        0
176
     1
 90
       50
176
     1
 90
        3
176
     1
 62
     5
420
      255
176
     1
290
     0
176
     1
 90
       50
176
     1
 90
       50
176
     1
 90
       50
176
     1
290
     0
176
     1
 90
       50
176
     1
 62
   256
176
     0
 40
1.0
176
     0
 90
        2
176
     1
  1
strokes_ogs.tif
176
     1
290
     0
176
     1
 40
1.0
176
     1
 40
1.0
176
     1
  0
VISUALSTYLE
  5
180
102
{ACAD_REACTORS
330
173
102
}
330
173
100
AcDbVisualStyle
  2
Thicken
 70
    13
177
     3
291
     1
 70
    58
 90
        2
176
     1
 90
        2
176
     1
 90
        0
176
     1
 90
        0
176
     1
 40
-0.6
176
     1
 40
-30.0
176
     1
 62
     7
176
     1
 90
        1
176
     1
 90
        4
176
     1
 62
     7
176
     1
 62
   257
176
     1
 90
        1
176
     1
 90
        1
176
     1
 40
1.0
176
     1
 90
       12
176
     1
 62
     7
176
     1
 40
1.0
176
     1
 90
        1
176
     1
 90
        6
176
     1
 90
        2
176
     1
 62
     7
176
     1
 90
        5
176
     1
 90
        0
176
     1
 90
        0
176
     1
290
     0
176
     1
 90
        1
176
     1
 40
0.0
176
     1
 90
        0
176
     1
290
     0
176
     1
290
     1
176
     1
290
     1
176
     1
290
     0
176
     1
290
     0
176
     1
290
     0
176
     1
290
     0
176
     1
290
     0
176
     1
290
     0
176
     1
 90
       50
176
     1
 40
0.0
176
     1
 40
1.0
176
     1
 90
        0
176
     1
 62
    18
420
        0
176
     1
 90
       50
176
     1
 90
        3
176
     1
 62
     5
420
      255
176
     1
290
     0
176
     1
 90
       50
176
     1
 90
       50
176
     1
 90
       50
176
     1
290
     0
176
     1
 90
       50
176
     1
 62
   256
176
     0
 40
1.0
176
     0
 90
        2
176
     1
  1
strokes_ogs.tif
176
     1
290
     0
176
     1
 40
1.0
176
     1
 40
1.0
176
     1
  0
VISUALSTYLE
  5
1D0
102
{ACAD_REACTORS
330
173
102
}
330
173
100
AcDbVisualStyle
  2
Wireframe
 70
     5
177
     3
291
     0
 70
    58
 90
        0
176
     1
 90
        2
176
     1
 90
        0
176
     1
 90
        0
176
     1
 40
0.6
176
     1
 40
30.0
176
     1
 62
     7
420
 16777215
176
     1
 90
        1
176
     1
 90
        4
176
     1
 62
     7
176
     1
 62
   257
176
     1
 90
        1
176
     1
 90
        1
176
     1
 40
1.0
176
     1
 90
        0
176
     1
 62
   257
176
     1
 40
1.0
176
     1
 90
        1
176
     1
 90
        6
176
     1
 90
        2
176
     1
 62
     7
176
     1
 90
        3
176
     1
 90
        0
176
     1
 90
        0
176
     1
290
     0
176
     1
 90
        1
176
     1
 40
0.0
176
     1
 90
        0
176
     1
290
     0
176
     1
290
     1
176
     1
290
     1
176
     1
290
     0
176
     1
290
     0
176
     1
290
     0
176
     1
290
     0
176
     1
290
     0
176
     1
290
     0
176
     1
 90
       50
176
     1
 40
0.0
176
     1
 40
1.0
176
     1
 90
        0
176
     1
 62
    18
420
        0
176
     1
 90
       50
176
     1
 90
        3
176
     1
 62
     5
420
      255
176
     1
290
     0
176
     1
 90
       50
176
     1
 90
       50
176
     1
 90
       50
176
     1
290
     0
176
     1
 90
       50
176
     1
 62
   256
176
     0
 40
1.0
176
     0
 90
        2
176
     1
  1
strokes_ogs.tif
176
     1
290
     0
176
     1
 40
1.0
176
     1
 40
1.0
176
     1
  0
VISUALSTYLE
  5
1D7
102
{ACAD_REACTORS
330
173
102
}
330
173
100
AcDbVisualStyle
  2
X-Ray
 70
    25
177
     3
291
     0
 70
    58
 90
        2
176
     1
 90
        2
176
     1
 90
        1
176
     1
 90
        1
176
     1
 40
0.5
176
     1
 40
30.0
176
     1
 62
     7
420
 16777215
176
     1
 90
        1
176
     1
 90
        0
176
     1
 62
     7
176
     1
 62
   257
176
     1
 90
        1
176
     1
 90
        1
176
     1
 40
1.0
176
     1
 90
        8
176
     1
 62
     7
176
     1
 40
1.0
176
     1
 90
        1
176
     1
 90
        6
176
     1
 90
        2
176
     1
 62
     7
176
     1
 90
        3
176
     1
 90
        0
176
     1
 90
        0
176
     1
290
     0
176
     1
 90
       13
176
     1
 40
0.0
176
     1
 90
        0
176
     1
290
     0
176
     1
290
     1
176
     1
290
     1
176
     1
290
     0
176
     1
290
     0
176
     1
290
     0
176
     1
290
     0
176
     1
290
     0
176
     1
290
     0
176
     1
 90
       50
176
     1
 40
0.0
176
     1
 40
1.0
176
     1
 90
        0
176
     1
 62
    18
420
        0
176
     1
 90
       50
176
     1
 90
        3
176
     1
 62
     5
420
      255
176
     1
290
     0
176
     1
 90
       50
176
     1
 90
       50
176
     1
 90
       50
176
     1
290
     0
176
     1
 90
       50
176
     1
 62
   256
176
     0
 40
1.0
176
     0
 90
        2
176
     1
  1
strokes_ogs.tif
176
     1
290
     0
176
     1
 40
1.0
176
     1
 40
1.0
176
     1
  0
DICTIONARYVAR
  5
1FE
102
{ACAD_REACTORS
330
18F
102
}
330
18F
100
DictionaryVariables
280
     0
  1
1:1
  0
DICTIONARYVAR
  5
200
102
{ACAD_REACTORS
330
18F
102
}
330
18F
100
DictionaryVariables
280
     0
  1
Standard
  0
DICTIONARYVAR
  5
1FF
102
{ACAD_REACTORS
330
18F
102
}
330
18F
100
DictionaryVariables
280
     0
  1
Standard
  0
DICTIONARYVAR
  5
193
102
{ACAD_REACTORS
330
18F
102
}
330
18F
100
DictionaryVariables
280
     0
  1
2
  0
DICTIONARYVAR
  5
194
102
{ACAD_REACTORS
330
18F
102
}
330
18F
100
DictionaryVariables
280
     0
  1
1
  0
DICTIONARYVAR
  5
192
102
{ACAD_REACTORS
330
18F
102
}
330
18F
100
DictionaryVariables
280
     0
  1
0
  0
DICTIONARY
  5
298
330
1DB
100
AcDbDictionary
280
     1
281
     1
  3
ACAD_ROUNDTRIP_2008_TABLESTYLE_CELLSTYLEMAP
360
299
  0
CELLSTYLEMAP
  5
299
102
{ACAD_REACTORS
330
298
102
}
330
298
100
AcDbCellStyleMap
 90
        3
300
CELLSTYLE
  1
TABLEFORMAT_BEGIN
 90
        5
170
     1
 91
        0
 92
    32768
 62
   257
 93
        1
300
CONTENTFORMAT
  1
CONTENTFORMAT_BEGIN
 90
        0
 91
        0
 92
        4
 93
        0
300

 40
0.0
140
1.0
 94
        5
 62
     0
340
11
144
0.25
309
CONTENTFORMAT_END
171
     1
301
MARGIN
  1
CELLMARGIN_BEGIN
 40
0.06
 40
0.06
 40
0.06
 40
0.06
 40
0.06
 40
0.06
309
CELLMARGIN_END
 94
        6
 95
        1
302
GRIDFORMAT
  1
GRIDFORMAT_BEGIN
 90
        0
 91
        1
 62
     0
 92
       -2
340
14
 93
        0
 40
0.045
309
GRIDFORMAT_END
 95
        2
302
GRIDFORMAT
  1
GRIDFORMAT_BEGIN
 90
        0
 91
        1
 62
     0
 92
       -2
340
14
 93
        0
 40
0.045
309
GRIDFORMAT_END
 95
        4
302
GRIDFORMAT
  1
GRIDFORMAT_BEGIN
 90
        0
 91
        1
 62
     0
 92
       -2
340
14
 93
        0
 40
0.045
309
GRIDFORMAT_END
 95
        8
302
GRIDFORMAT
  1
GRIDFORMAT_BEGIN
 90
        0
 91
        1
 62
     0
 92
       -2
340
14
 93
        0
 40
0.045
309
GRIDFORMAT_END
 95
       16
302
GRIDFORMAT
  1
GRIDFORMAT_BEGIN
 90
        0
 91
        1
 62
     0
 92
       -2
340
14
 93
        0
 40
0.045
309
GRIDFORMAT_END
 95
       32
302
GRIDFORMAT
  1
GRIDFORMAT_BEGIN
 90
        0
 91
        1
 62
     0
 92
       -2
340
14
 93
        0
 40
0.045
309
GRIDFORMAT_END
309
TABLEFORMAT_END
  1
CELLSTYLE_BEGIN
 90
        1
 91
        1
300
_TITLE
309
CELLSTYLE_END
300
CELLSTYLE
  1
TABLEFORMAT_BEGIN
 90
        5
170
     1
 91
        0
 92
        0
 62
   257
 93
        1
300
CONTENTFORMAT
  1
CONTENTFORMAT_BEGIN
 90
        0
 91
        0
 92
        4
 93
        0
300

 40
0.0
140
1.0
 94
        5
 62
     0
340
11
144
0.18
309
CONTENTFORMAT_END
171
     1
301
MARGIN
  1
CELLMARGIN_BEGIN
 40
0.06
 40
0.06
 40
0.06
 40
0.06
 40
0.06
 40
0.06
309
CELLMARGIN_END
 94
        6
 95
        1
302
GRIDFORMAT
  1
GRIDFORMAT_BEGIN
 90
        0
 91
        1
 62
     0
 92
       -2
340
14
 93
        0
 40
0.045
309
GRIDFORMAT_END
 95
        2
302
GRIDFORMAT
  1
GRIDFORMAT_BEGIN
 90
        0
 91
        1
 62
     0
 92
       -2
340
14
 93
        0
 40
0.045
309
GRIDFORMAT_END
 95
        4
302
GRIDFORMAT
  1
GRIDFORMAT_BEGIN
 90
        0
 91
        1
 62
     0
 92
       -2
340
14
 93
        0
 40
0.045
309
GRIDFORMAT_END
 95
        8
302
GRIDFORMAT
  1
GRIDFORMAT_BEGIN
 90
        0
 91
        1
 62
     0
 92
       -2
340
14
 93
        0
 40
0.045
309
GRIDFORMAT_END
 95
       16
302
GRIDFORMAT
  1
GRIDFORMAT_BEGIN
 90
        0
 91
        1
 62
     0
 92
       -2
340
14
 93
        0
 40
0.045
309
GRIDFORMAT_END
 95
       32
302
GRIDFORMAT
  1
GRIDFORMAT_BEGIN
 90
        0
 91
        1
 62
     0
 92
       -2
340
14
 93
        0
 40
0.045
309
GRIDFORMAT_END
309
TABLEFORMAT_END
  1
CELLSTYLE_BEGIN
 90
        2
 91
        1
300
_HEADER
309
CELLSTYLE_END
300
CELLSTYLE
  1
TABLEFORMAT_BEGIN
 90
        5
170
     1
 91
        0
 92
        0
 62
   257
 93
        1
300
CONTENTFORMAT
  1
CONTENTFORMAT_BEGIN
 90
        0
 91
        0
 92
        4
 93
        0
300

 40
0.0
140
1.0
 94
        2
 62
     0
340
11
144
0.18
309
CONTENTFORMAT_END
171
     1
301
MARGIN
  1
CELLMARGIN_BEGIN
 40
0.06
 40
0.06
 40
0.06
 40
0.06
 40
0.06
 40
0.06
309
CELLMARGIN_END
 94
        6
 95
        1
302
GRIDFORMAT
  1
GRIDFORMAT_BEGIN
 90
        0
 91
        1
 62
     0
 92
       -2
340
14
 93
        0
 40
0.045
309
GRIDFORMAT_END
 95
        2
302
GRIDFORMAT
  1
GRIDFORMAT_BEGIN
 90
        0
 91
        1
 62
     0
 92
       -2
340
14
 93
        0
 40
0.045
309
GRIDFORMAT_END
 95
        4
302
GRIDFORMAT
  1
GRIDFORMAT_BEGIN
 90
        0
 91
        1
 62
     0
 92
       -2
340
14
 93
        0
 40
0.045
309
GRIDFORMAT_END
 95
        8
302
GRIDFORMAT
  1
GRIDFORMAT_BEGIN
 90
        0
 91
        1
 62
     0
 92
       -2
340
14
 93
        0
 40
0.045
309
GRIDFORMAT_END
 95
       16
302
GRIDFORMAT
  1
GRIDFORMAT_BEGIN
 90
        0
 91
        1
 62
     0
 92
       -2
340
14
 93
        0
 40
0.045
309
GRIDFORMAT_END
 95
       32
302
GRIDFORMAT
  1
GRIDFORMAT_BEGIN
 90
        0
 91
        1
 62
     0
 92
       -2
340
14
 93
        0
 40
0.045
309
GRIDFORMAT_END
309
TABLEFORMAT_END
  1
CELLSTYLE_BEGIN
 90
        3
 91
        2
300
_DATA
309
CELLSTYLE_END
  0
ENDSEC
  0
EOF
