  0
SECTION
  2
HEADER
  9
$ACADVER
  1
AC1027
  9
$ACADMAINTVER
 70
   105
  9
$DWGCODEPAGE
  3
ANSI_1252
  9
$REQUIREDVERSIONS
160
                 0
  9
$LASTSAVEDBY
  1
matthias.ochs
  9
$INSBASE
 10
0.0
 20
0.0
 30
0.0
  9
$EXTMIN
 10
-127.0374157368025
 20
-61.89254660317056
 30
0.0
  9
$EXTMAX
 10
221.8081743589822
 20
66.74658173183164
 30
0.0
  9
$LIMMIN
 10
-72.5525
 20
-76.268369539
  9
$LIMMAX
 10
162.302499999
 20
73.466371398
  9
$ORTHOMODE
 70
     0
  9
$REGENMODE
 70
     1
  9
$FILLMODE
 70
     1
  9
$QTEXTMODE
 70
     0
  9
$MIRRTEXT
 70
     1
  9
$LTSCALE
 40
1.0
  9
$ATTMODE
 70
     1
  9
$TEXTSIZE
 40
0.2
  9
$TRACEWID
 40
0.05
  9
$TEXTSTYLE
  7
Standard
  9
$CLAYER
  8
SK3
  9
$CELTYPE
  6
ByLayer
  9
$CECOLOR
 62
   256
  9
$CELTSCALE
 40
1.0
  9
$DISPSILH
 70
     0
  9
$DIMSCALE
 40
1.0
  9
$DIMASZ
 40
0.18
  9
$DIMEXO
 40
0.0625
  9
$DIMDLI
 40
0.38
  9
$DIMRND
 40
0.0
  9
$DIMDLE
 40
0.0
  9
$DIMEXE
 40
0.18
  9
$DIMTP
 40
0.0
  9
$DIMTM
 40
0.0
  9
$DIMTXT
 40
0.18
  9
$DIMCEN
 40
0.09
  9
$DIMTSZ
 40
0.0
  9
$DIMTOL
 70
     0
  9
$DIMLIM
 70
     0
  9
$DIMTIH
 70
     1
  9
$DIMTOH
 70
     1
  9
$DIMSE1
 70
     0
  9
$DIMSE2
 70
     0
  9
$DIMTAD
 70
     0
  9
$DIMZIN
 70
     0
  9
$DIMBLK
  1

  9
$DIMASO
 70
     1
  9
$DIMSHO
 70
     1
  9
$DIMPOST
  1

  9
$DIMAPOST
  1

  9
$DIMALT
 70
     0
  9
$DIMALTD
 70
     2
  9
$DIMALTF
 40
25.4
  9
$DIMLFAC
 40
1.0
  9
$DIMTOFL
 70
     0
  9
$DIMTVP
 40
0.0
  9
$DIMTIX
 70
     0
  9
$DIMSOXD
 70
     0
  9
$DIMSAH
 70
     0
  9
$DIMBLK1
  1

  9
$DIMBLK2
  1

  9
$DIMSTYLE
  2
Standard
  9
$DIMCLRD
 70
     0
  9
$DIMCLRE
 70
     0
  9
$DIMCLRT
 70
     0
  9
$DIMTFAC
 40
1.0
  9
$DIMGAP
 40
0.09
  9
$DIMJUST
 70
     0
  9
$DIMSD1
 70
     0
  9
$DIMSD2
 70
     0
  9
$DIMTOLJ
 70
     1
  9
$DIMTZIN
 70
     0
  9
$DIMALTZ
 70
     0
  9
$DIMALTTZ
 70
     0
  9
$DIMUPT
 70
     0
  9
$DIMDEC
 70
     4
  9
$DIMTDEC
 70
     4
  9
$DIMALTU
 70
     2
  9
$DIMALTTD
 70
     2
  9
$DIMTXSTY
  7
Standard
  9
$DIMAUNIT
 70
     0
  9
$DIMADEC
 70
     0
  9
$DIMALTRND
 40
0.0
  9
$DIMAZIN
 70
     0
  9
$DIMDSEP
 70
    46
  9
$DIMATFIT
 70
     3
  9
$DIMFRAC
 70
     0
  9
$DIMLDRBLK
  1

  9
$DIMLUNIT
 70
     2
  9
$DIMLWD
 70
    -2
  9
$DIMLWE
 70
    -2
  9
$DIMTMOVE
 70
     2
  9
$DIMFXL
 40
1.0
  9
$DIMFXLON
 70
     0
  9
$DIMJOGANG
 40
0.7853981633974483
  9
$DIMTFILL
 70
     0
  9
$DIMTFILLCLR
 70
     0
  9
$DIMARCSYM
 70
     0
  9
$DIMLTYPE
  6

  9
$DIMLTEX1
  6

  9
$DIMLTEX2
  6

  9
$DIMTXTDIRECTION
 70
     0
  9
$LUNITS
 70
     2
  9
$LUPREC
 70
     4
  9
$SKETCHINC
 40
0.1
  9
$FILLETRAD
 40
0.5
  9
$AUNITS
 70
     2
  9
$AUPREC
 70
     0
  9
$MENU
  1
.
  9
$ELEVATION
 40
0.0
  9
$PELEVATION
 40
0.0
  9
$THICKNESS
 40
0.0
  9
$LIMCHECK
 70
     0
  9
$CHAMFERA
 40
0.5
  9
$CHAMFERB
 40
0.5
  9
$CHAMFERC
 40
1.0
  9
$CHAMFERD
 40
0.0
  9
$SKPOLY
 70
     0
  9
$TDCREATE
 40
2458327.507725185
  9
$TDUCREATE
 40
2458327.466058519
  9
$TDUPDATE
 40
2458570.662650879
  9
$TDUUPDATE
 40
2458570.620984213
  9
$TDINDWG
 40
0.0083614583
  9
$TDUSRTIMER
 40
0.0077644907
  9
$USRTIMER
 70
     1
  9
$ANGBASE
 50
0.0
  9
$ANGDIR
 70
     0
  9
$PDMODE
 70
     0
  9
$PDSIZE
 40
0.0
  9
$PLINEWID
 40
0.0
  9
$SPLFRAME
 70
     0
  9
$SPLINETYPE
 70
     6
  9
$SPLINESEGS
 70
     8
  9
$HANDSEED
  5
28D
  9
$SURFTAB1
 70
     6
  9
$SURFTAB2
 70
     6
  9
$SURFTYPE
 70
     6
  9
$SURFU
 70
     6
  9
$SURFV
 70
     6
  9
$UCSBASE
  2

  9
$UCSNAME
  2

  9
$UCSORG
 10
0.0
 20
0.0
 30
0.0
  9
$UCSXDIR
 10
1.0
 20
0.0
 30
0.0
  9
$UCSYDIR
 10
0.0
 20
1.0
 30
0.0
  9
$UCSORTHOREF
  2

  9
$UCSORTHOVIEW
 70
     0
  9
$UCSORGTOP
 10
0.0
 20
0.0
 30
0.0
  9
$UCSORGBOTTOM
 10
0.0
 20
0.0
 30
0.0
  9
$UCSORGLEFT
 10
0.0
 20
0.0
 30
0.0
  9
$UCSORGRIGHT
 10
0.0
 20
0.0
 30
0.0
  9
$UCSORGFRONT
 10
0.0
 20
0.0
 30
0.0
  9
$UCSORGBACK
 10
0.0
 20
0.0
 30
0.0
  9
$PUCSBASE
  2

  9
$PUCSNAME
  2

  9
$PUCSORG
 10
0.0
 20
0.0
 30
0.0
  9
$PUCSXDIR
 10
1.0
 20
0.0
 30
0.0
  9
$PUCSYDIR
 10
0.0
 20
1.0
 30
0.0
  9
$PUCSORTHOREF
  2

  9
$PUCSORTHOVIEW
 70
     0
  9
$PUCSORGTOP
 10
0.0
 20
0.0
 30
0.0
  9
$PUCSORGBOTTOM
 10
0.0
 20
0.0
 30
0.0
  9
$PUCSORGLEFT
 10
0.0
 20
0.0
 30
0.0
  9
$PUCSORGRIGHT
 10
0.0
 20
0.0
 30
0.0
  9
$PUCSORGFRONT
 10
0.0
 20
0.0
 30
0.0
  9
$PUCSORGBACK
 10
0.0
 20
0.0
 30
0.0
  9
$USERI1
 70
     0
  9
$USERI2
 70
     0
  9
$USERI3
 70
     0
  9
$USERI4
 70
     0
  9
$USERI5
 70
     0
  9
$USERR1
 40
0.0
  9
$USERR2
 40
0.0
  9
$USERR3
 40
0.0
  9
$USERR4
 40
0.0
  9
$USERR5
 40
0.0
  9
$WORLDVIEW
 70
     1
  9
$SHADEDGE
 70
     3
  9
$SHADEDIF
 70
    70
  9
$TILEMODE
 70
     1
  9
$MAXACTVP
 70
    64
  9
$PINSBASE
 10
0.0
 20
0.0
 30
0.0
  9
$PLIMCHECK
 70
     0
  9
$PEXTMIN
 10
1.000000000000000E+20
 20
1.000000000000000E+20
 30
1.000000000000000E+20
  9
$PEXTMAX
 10
-1.000000000000000E+20
 20
-1.000000000000000E+20
 30
-1.000000000000000E+20
  9
$PLIMMIN
 10
0.0
 20
0.0
  9
$PLIMMAX
 10
0.0
 20
0.0
  9
$UNITMODE
 70
     0
  9
$VISRETAIN
 70
     1
  9
$PLINEGEN
 70
     0
  9
$PSLTSCALE
 70
     1
  9
$TREEDEPTH
 70
  3020
  9
$CMLSTYLE
  2
Standard
  9
$CMLJUST
 70
     0
  9
$CMLSCALE
 40
1.0
  9
$PROXYGRAPHICS
 70
     1
  9
$MEASUREMENT
 70
     0
  9
$CELWEIGHT
370
    -1
  9
$ENDCAPS
280
     0
  9
$JOINSTYLE
280
     0
  9
$LWDISPLAY
290
     0
  9
$INSUNITS
 70
     0
  9
$HYPERLINKBASE
  1

  9
$STYLESHEET
  1

  9
$XEDIT
290
     1
  9
$CEPSNTYPE
380
     0
  9
$PSTYLEMODE
290
     1
  9
$FINGERPRINTGUID
  2
{3C847D40-DB6B-41CA-996A-0797B41683CE}
  9
$VERSIONGUID
  2
{FAEB1C32-E019-11D5-929B-00C0DF256EC4}
  9
$EXTNAMES
290
     1
  9
$PSVPSCALE
 40
0.0
  9
$OLESTARTUP
290
     0
  9
$SORTENTS
280
   127
  9
$INDEXCTL
280
     0
  9
$HIDETEXT
280
     1
  9
$XCLIPFRAME
280
     2
  9
$HALOGAP
280
     0
  9
$OBSCOLOR
 70
   257
  9
$OBSLTYPE
280
     0
  9
$INTERSECTIONDISPLAY
280
     0
  9
$INTERSECTIONCOLOR
 70
   257
  9
$DIMASSOC
280
     2
  9
$PROJECTNAME
  1

  9
$CAMERADISPLAY
290
     0
  9
$LENSLENGTH
 40
50.0
  9
$CAMERAHEIGHT
 40
0.0
  9
$STEPSPERSEC
 40
2.0
  9
$STEPSIZE
 40
6.0
  9
$3DDWFPREC
 40
2.0
  9
$PSOLWIDTH
 40
0.25
  9
$PSOLHEIGHT
 40
4.0
  9
$LOFTANG1
 40
1.570796326794897
  9
$LOFTANG2
 40
1.570796326794897
  9
$LOFTMAG1
 40
0.0
  9
$LOFTMAG2
 40
0.0
  9
$LOFTPARAM
 70
     7
  9
$LOFTNORMALS
280
     1
  9
$LATITUDE
 40
37.795
  9
$LONGITUDE
 40
-122.394
  9
$NORTHDIRECTION
 40
0.0
  9
$TIMEZONE
 70
 -8000
  9
$LIGHTGLYPHDISPLAY
280
     1
  9
$TILEMODELIGHTSYNCH
280
     1
  9
$SOLIDHIST
280
     0
  9
$SHOWHIST
280
     1
  9
$DWFFRAME
280
     2
  9
$DGNFRAME
280
     2
  9
$REALWORLDSCALE
290
     1
  9
$INTERFERECOLOR
 62
   256
  9
$CSHADOW
280
     0
  9
$SHADOWPLANELOCATION
 40
0.0
  0
ENDSEC
  0
SECTION
  2
CLASSES
  0
CLASS
  1
ACDBDICTIONARYWDFLT
  2
AcDbDictionaryWithDefault
  3
ObjectDBX Classes
 90
        0
 91
        5
280
     0
281
     0
  0
CLASS
  1
SCALE
  2
AcDbScale
  3
ObjectDBX Classes
 90
     1153
 91
        5
280
     0
281
     0
  0
CLASS
  1
VISUALSTYLE
  2
AcDbVisualStyle
  3
ObjectDBX Classes
 90
     4095
 91
        5
280
     0
281
     0
  0
CLASS
  1
MATERIAL
  2
AcDbMaterial
  3
ObjectDBX Classes
 90
     1153
 91
        5
280
     0
281
     0
  0
CLASS
  1
DICTIONARYVAR
  2
AcDbDictionaryVar
  3
ObjectDBX Classes
 90
        0
 91
        4
280
     0
281
     0
  0
CLASS
  1
ACDBPLACEHOLDER
  2
AcDbPlaceHolder
  3
ObjectDBX Classes
 90
        0
 91
        1
280
     0
281
     0
  0
CLASS
  1
LAYOUT
  2
AcDbLayout
  3
ObjectDBX Classes
 90
        0
 91
        1
280
     0
281
     0
  0
CLASS
  1
TABLESTYLE
  2
AcDbTableStyle
  3
ObjectDBX Classes
 90
     4095
 91
        5
280
     0
281
     0
  0
CLASS
  1
MLEADERSTYLE
  2
AcDbMLeaderStyle
  3
ACDB_MLEADERSTYLE_CLASS
 90
     4095
 91
        5
280
     0
281
     0
  0
CLASS
  1
SUN
  2
AcDbSun
  3
SCENEOE
 90
     1153
 91
        5
280
     0
281
     0
  0
CLASS
  1
CELLSTYLEMAP
  2
AcDbCellStyleMap
  3
ObjectDBX Classes
 90
     1152
 91
        4
280
     0
281
     0
  0
ENDSEC
  0
SECTION
  2
TABLES
  0
TABLE
  2
VPORT
  5
8
330
0
100
AcDbSymbolTable
 70
     1
  0
VPORT
  5
11F
330
8
100
AcDbSymbolTableRecord
100
AcDbViewportTableRecord
  2
*Active
 70
     0
 10
0.0
 20
0.0
 11
1.0
 21
1.0
 12
147.538575304632
 22
-114.5179587525076
 13
0.0
 23
0.0
 14
0.5
 24
0.5
 15
0.5
 25
0.5
 16
0.0
 26
0.0
 36
1.0
 17
0.0
 27
0.0
 37
0.0
 40
825.1086692919935
 41
1.70021645021645
 42
50.0
 43
0.0
 44
0.0
 50
0.0
 51
0.0
 71
    16
 72
   100
 73
     1
 74
     3
 75
     0
 76
     0
 77
     0
 78
     0
281
     0
 65
     1
110
0.0
120
0.0
130
0.0
111
1.0
121
0.0
131
0.0
112
0.0
122
1.0
132
0.0
 79
     0
146
0.0
348
150
 60
     3
 61
     5
292
     1
282
     1
141
0.0
142
0.0
 63
   256
361
202
  0
ENDTAB
  0
TABLE
  2
LTYPE
  5
5
330
0
100
AcDbSymbolTable
 70
     8
  0
LTYPE
  5
14
330
5
100
AcDbSymbolTableRecord
100
AcDbLinetypeTableRecord
  2
ByBlock
 70
     0
  3

 72
    65
 73
     0
 40
0.0
  0
LTYPE
  5
15
330
5
100
AcDbSymbolTableRecord
100
AcDbLinetypeTableRecord
  2
ByLayer
 70
     0
  3

 72
    65
 73
     0
 40
0.0
  0
LTYPE
  5
16
330
5
100
AcDbSymbolTableRecord
100
AcDbLinetypeTableRecord
  2
Continuous
 70
     0
  3
Solid line
 72
    65
 73
     0
 40
0.0
  0
LTYPE
  5
20
330
5
100
AcDbSymbolTableRecord
100
AcDbLinetypeTableRecord
  2
PUNKT
 70
     0
  3
..............
 72
    65
 73
     2
 40
1.5
 49
0.7
 74
     0
 49
-0.8
 74
     0
  0
LTYPE
  5
21
330
5
100
AcDbSymbolTableRecord
100
AcDbLinetypeTableRecord
  2
GESTRICHELT
 70
     0
  3
-- -- -- -- --
 72
    65
 73
     7
 40
2.8
 49
0.9
 74
     0
 49
0.0
 74
     0
 49
0.9
 74
     0
 49
0.0
 74
     0
 49
0.2
 74
     0
 49
0.0
 74
     0
 49
-0.8
 74
     0
  0
LTYPE
  5
22
330
5
100
AcDbSymbolTableRecord
100
AcDbLinetypeTableRecord
  2
STRICHPUNKT
 70
     0
  3
--.--.--.--.--
 72
    65
 73
     4
 40
8.8
 49
5.5
 74
     0
 49
-1.3
 74
     0
 49
0.7
 74
     0
 49
-1.3
 74
     0
  0
LTYPE
  5
25
330
5
100
AcDbSymbolTableRecord
100
AcDbLinetypeTableRecord
  2
PHANTOM
 70
     0
  3
--..--..--..--
 72
    65
 73
     6
 40
14.2
 49
7.0
 74
     0
 49
-1.8
 74
     0
 49
0.9
 74
     0
 49
-1.8
 74
     0
 49
0.9
 74
     0
 49
-1.8
 74
     0
  0
LTYPE
  5
197
330
5
100
AcDbSymbolTableRecord
100
AcDbLinetypeTableRecord
  2
DASH
 70
     0
  3
DASH _ _ _ _ _
 72
    65
 73
     2
 40
0.75
 49
0.4
 74
     0
 49
-0.35
 74
     0
  0
LTYPE
  5
198
330
5
100
AcDbSymbolTableRecord
100
AcDbLinetypeTableRecord
  2
LONGDASH_DASH
 70
     0
  3
LONGDASH_DASH __ . __ . __
 72
    65
 73
     4
 40
0.85
 49
0.4
 74
     0
 49
-0.2
 74
     0
 49
0.05
 74
     0
 49
-0.2
 74
     0
  0
LTYPE
  5
199
330
5
100
AcDbSymbolTableRecord
100
AcDbLinetypeTableRecord
  2
LONGDASH_DASH_DASH
 70
     0
  3
LONGDASH_DASH_DASH __ . . __ . . __
 72
    65
 73
     6
 40
1.1
 49
0.4
 74
     0
 49
-0.2
 74
     0
 49
0.05
 74
     0
 49
-0.2
 74
     0
 49
0.05
 74
     0
 49
-0.2
 74
     0
  0
ENDTAB
  0
TABLE
  2
LAYER
  5
2
102
{ACAD_XDICTIONARY
360
1B6
102
}
330
0
100
AcDbSymbolTable
 70
    15
  0
LAYER
  5
161
330
2
100
AcDbSymbolTableRecord
100
AcDbLayerTableRecord
  2
200
 70
     0
 62
     2
  6
Continuous
370
    50
390
F
347
15F
348
0
  0
LAYER
  5
19A
330
2
100
AcDbSymbolTableRecord
100
AcDbLayerTableRecord
  2
0
 70
     0
 62
     1
  6
Continuous
370
    -3
390
F
347
15F
348
0
  0
LAYER
  5
19B
330
2
100
AcDbSymbolTableRecord
100
AcDbLayerTableRecord
  2
1
 70
     0
 62
     4
  6
Continuous
370
    50
390
F
347
15F
348
0
  0
LAYER
  5
19C
330
2
100
AcDbSymbolTableRecord
100
AcDbLayerTableRecord
  2
2
 70
     0
 62
     7
  6
Continuous
370
    25
390
F
347
15F
348
0
  0
LAYER
  5
19D
330
2
100
AcDbSymbolTableRecord
100
AcDbLayerTableRecord
  2
3
 70
     0
 62
     1
  6
DASH
370
    35
390
F
347
15F
348
0
  0
LAYER
  5
19E
330
2
100
AcDbSymbolTableRecord
100
AcDbLayerTableRecord
  2
4
 70
     0
 62
     2
  6
LONGDASH_DASH
370
    25
390
F
347
15F
348
0
  0
LAYER
  5
19F
330
2
100
AcDbSymbolTableRecord
100
AcDbLayerTableRecord
  2
6
 70
     0
 62
     5
  6
Continuous
370
    -3
390
F
347
15F
348
0
  0
LAYER
  5
1A0
330
2
100
AcDbSymbolTableRecord
100
AcDbLayerTableRecord
  2
CUT
 70
     0
 62
     1
  6
Continuous
370
    25
390
F
347
15F
348
0
  0
LAYER
  5
1A1
330
2
100
AcDbSymbolTableRecord
100
AcDbLayerTableRecord
  2
NOCUT
 70
     0
 62
     7
  6
Continuous
370
    25
390
F
347
15F
348
0
  0
LAYER
  5
1A2
330
2
100
AcDbSymbolTableRecord
100
AcDbLayerTableRecord
  2
SK1
 70
     0
 62
     4
  6
Continuous
370
    50
390
F
347
15F
348
0
  0
LAYER
  5
1A3
330
2
100
AcDbSymbolTableRecord
100
AcDbLayerTableRecord
  2
SK2
 70
     0
 62
     7
  6
Continuous
370
    25
390
F
347
15F
348
0
  0
LAYER
  5
1A4
330
2
100
AcDbSymbolTableRecord
100
AcDbLayerTableRecord
  2
SK3
 70
     0
 62
     1
  6
DASH
370
    35
390
F
347
15F
348
0
  0
LAYER
  5
1A5
330
2
100
AcDbSymbolTableRecord
100
AcDbLayerTableRecord
  2
SK4
 70
     0
 62
     2
  6
LONGDASH_DASH
370
    25
390
F
347
15F
348
0
  0
LAYER
  5
1A6
330
2
100
AcDbSymbolTableRecord
100
AcDbLayerTableRecord
  2
SK6
 70
     0
 62
     5
  6
Continuous
370
    -3
390
F
347
15F
348
0
  0
LAYER
  5
1A7
330
2
100
AcDbSymbolTableRecord
100
AcDbLayerTableRecord
  2
INFTOTAL
 70
     0
 62
     9
  6
Continuous
370
    18
390
F
347
15F
348
0
  0
ENDTAB
  0
TABLE
  2
STYLE
  5
3
330
0
100
AcDbSymbolTable
 70
     2
  0
STYLE
  5
11
330
3
100
AcDbSymbolTableRecord
100
AcDbTextStyleTableRecord
  2
Standard
 70
     0
 40
0.0
 41
1.0
 50
0.0
 71
     0
 42
0.2
  3
txt
  4

  0
STYLE
  5
160
330
3
100
AcDbSymbolTableRecord
100
AcDbTextStyleTableRecord
  2
BMG_Text
 70
     0
 40
3.5
 41
1.0
 50
0.0
 71
     0
 42
0.2
  3
monos.ttf
  4

1001
ACAD
1000
Monospac821 BT
1071
       49
  0
ENDTAB
  0
TABLE
  2
VIEW
  5
6
330
0
100
AcDbSymbolTable
 70
     0
  0
ENDTAB
  0
TABLE
  2
UCS
  5
7
330
0
100
AcDbSymbolTable
 70
     0
  0
ENDTAB
  0
TABLE
  2
APPID
  5
9
330
0
100
AcDbSymbolTable
 70
     1
  0
APPID
  5
12
330
9
100
AcDbSymbolTableRecord
100
AcDbRegAppTableRecord
  2
ACAD
 70
     0
  0
ENDTAB
  0
TABLE
  2
DIMSTYLE
  5
A
330
0
100
AcDbSymbolTable
 70
     1
100
AcDbDimStyleTable
  0
DIMSTYLE
105
28
330
A
100
AcDbSymbolTableRecord
100
AcDbDimStyleTableRecord
  2
Standard
 70
     0
178
     0
340
11
  0
ENDTAB
  0
TABLE
  2
BLOCK_RECORD
  5
1
330
0
100
AcDbSymbolTable
 70
     0
  0
BLOCK_RECORD
  5
1D
330
1
100
AcDbSymbolTableRecord
100
AcDbBlockTableRecord
  2
*Model_Space
340
1E
 70
     0
280
     1
281
     0
  0
BLOCK_RECORD
  5
1B
330
1
100
AcDbSymbolTableRecord
100
AcDbBlockTableRecord
  2
*Paper_Space
340
1C
 70
     0
280
     1
281
     0
  0
ENDTAB
  0
ENDSEC
  0
SECTION
  2
BLOCKS
  0
BLOCK
  5
149
330
1D
100
AcDbEntity
  8
0
100
AcDbBlockBegin
  2
*Model_Space
 70
     0
 10
0.0
 20
0.0
 30
0.0
  3
*Model_Space
  1

  0
ENDBLK
  5
14A
330
1D
100
AcDbEntity
  8
0
100
AcDbBlockEnd
  0
BLOCK
  5
147
330
1B
100
AcDbEntity
 67
     1
  8
0
100
AcDbBlockBegin
  2
*Paper_Space
 70
     0
 10
0.0
 20
0.0
 30
0.0
  3
*Paper_Space
  1

  0
ENDBLK
  5
148
330
1B
100
AcDbEntity
 67
     1
  8
0
100
AcDbBlockEnd
  0
ENDSEC
  0
SECTION
  2
ENTITIES
  0
LINE
  5
29
330
1D
100
AcDbEntity
  8
SK3
100
AcDbLine
 10
-23.25
 20
-7.0
 30
0.0
 11
-23.068014883
 21
-6.5
 31
0.0
  0
LINE
  5
2A
330
1D
100
AcDbEntity
  8
1
100
AcDbLine
 10
115.94998169
 20
-1.73204041
 30
0.0
 11
115.94998169
 21
1.73204041
 31
0.0
  0
LINE
  5
2B
330
1D
100
AcDbEntity
  8
1
100
AcDbLine
 10
112.94998169
 20
3.46409607
 30
0.0
 11
115.94998169
 21
1.73204041
 31
0.0
  0
LINE
  5
2C
330
1D
100
AcDbEntity
  8
1
100
AcDbLine
 10
109.94998169
 20
1.73204041
 30
0.0
 11
112.94998169
 21
3.46409607
 31
0.0
  0
LINE
  5
2D
330
1D
100
AcDbEntity
  8
1
100
AcDbLine
 10
109.94998169
 20
-1.73204041
 30
0.0
 11
109.94998169
 21
1.73204041
 31
0.0
  0
LINE
  5
2E
330
1D
100
AcDbEntity
  8
SK4
100
AcDbLine
 10
112.94998169
 20
-7.0
 30
0.0
 11
112.94998169
 21
7.0
 31
0.0
  0
CIRCLE
  5
2F
330
1D
100
AcDbEntity
  8
1
100
AcDbCircle
 10
112.94998169
 20
0.0
 30
0.0
 40
6.0
  0
LINE
  5
30
330
1D
100
AcDbEntity
  8
1
100
AcDbLine
 10
127.99998474
 20
31.75001526
 30
0.0
 11
128.99998474
 21
30.75001526
 31
0.0
  0
LINE
  5
31
330
1D
100
AcDbEntity
  8
1
100
AcDbLine
 10
128.99998474
 20
30.75001526
 30
0.0
 11
128.99998474
 21
-30.74998474
 31
0.0
  0
LINE
  5
32
330
1D
100
AcDbEntity
  8
1
100
AcDbLine
 10
42.00001526
 20
31.75001526
 30
0.0
 11
127.99998474
 21
31.75001526
 31
0.0
  0
LINE
  5
33
330
1D
100
AcDbEntity
  8
1
100
AcDbLine
 10
42.00001526
 20
31.75001526
 30
0.0
 11
42.0
 21
-31.75
 31
0.0
  0
LINE
  5
34
330
1D
100
AcDbEntity
  8
1
100
AcDbLine
 10
35.0
 20
25.0
 30
0.0
 11
42.00001526
 21
31.75001526
 31
0.0
  0
LINE
  5
35
330
1D
100
AcDbEntity
  8
1
100
AcDbLine
 10
35.0
 20
25.0
 30
0.0
 11
35.0
 21
-25.0
 31
0.0
  0
LINE
  5
36
330
1D
100
AcDbEntity
  8
1
100
AcDbLine
 10
35.0
 20
25.0
 30
0.0
 11
19.8500061
 21
25.0
 31
0.0
  0
LINE
  5
37
330
1D
100
AcDbEntity
  8
1
100
AcDbLine
 10
19.05000305
 20
31.25
 30
0.0
 11
19.05000305
 21
-31.24999237
 31
0.0
  0
LINE
  5
38
330
1D
100
AcDbEntity
  8
1
100
AcDbLine
 10
13.0249939
 20
21.0
 30
0.0
 11
14.62182617
 21
25.80000305
 31
0.0
  0
LINE
  5
39
330
1D
100
AcDbEntity
  8
1
100
AcDbLine
 10
7.57815552
 20
25.80001831
 30
0.0
 11
9.17498779
 21
21.00001526
 31
0.0
  0
LINE
  5
3A
330
1D
100
AcDbEntity
  8
1
100
AcDbLine
 10
14.62182617
 20
25.80001831
 30
0.0
 11
19.05000305
 21
25.80001831
 31
0.0
  0
LINE
  5
3B
330
1D
100
AcDbEntity
  8
1
100
AcDbLine
 10
14.62182617
 20
25.80001831
 30
0.0
 11
14.62182617
 21
31.75001526
 31
0.0
  0
LINE
  5
3C
330
1D
100
AcDbEntity
  8
1
100
AcDbLine
 10
13.0249939
 20
18.5
 30
0.0
 11
13.0249939
 21
-28.98420715
 31
0.0
  0
LINE
  5
3D
330
1D
100
AcDbEntity
  8
1
100
AcDbLine
 10
9.17498779
 20
18.5
 30
0.0
 11
9.17498779
 21
-28.98420715
 31
0.0
  0
LINE
  5
3E
330
1D
100
AcDbEntity
  8
1
100
AcDbLine
 10
7.57815552
 20
18.5
 30
0.0
 11
7.57815552
 21
-31.75
 31
0.0
  0
LINE
  5
3F
330
1D
100
AcDbEntity
  8
1
100
AcDbLine
 10
3.19999695
 20
18.5
 30
0.0
 11
19.05000305
 21
18.5
 31
0.0
  0
LINE
  5
40
330
1D
100
AcDbEntity
  8
1
100
AcDbLine
 10
3.19999695
 20
25.80001831
 30
0.0
 11
7.57815552
 21
25.80001831
 31
0.0
  0
LINE
  5
41
330
1D
100
AcDbEntity
  8
1
100
AcDbLine
 10
9.17498779
 20
21.0
 30
0.0
 11
13.0249939
 21
21.0
 31
0.0
  0
LINE
  5
42
330
1D
100
AcDbEntity
  8
1
100
AcDbLine
 10
14.62182617
 20
-31.74999237
 30
0.0
 11
14.62182617
 21
18.5
 31
0.0
  0
LINE
  5
43
330
1D
100
AcDbEntity
  8
1
100
AcDbLine
 10
7.57815552
 20
31.75
 30
0.0
 11
7.57815552
 21
25.80000305
 31
0.0
  0
ARC
  5
44
330
1D
100
AcDbEntity
  8
1
100
AcDbCircle
 10
12.5249939
 20
28.5
 30
0.0
 40
0.5
100
AcDbArc
 50
270.0
 51
0.0
  0
ARC
  5
45
330
1D
100
AcDbEntity
  8
1
100
AcDbCircle
 10
9.67498779
 20
28.5
 30
0.0
 40
0.5
100
AcDbArc
 50
180.0
 51
270.0
  0
LINE
  5
46
330
1D
100
AcDbEntity
  8
1
100
AcDbLine
 10
9.67498779
 20
28.0
 30
0.0
 11
12.5249939
 21
28.0
 31
0.0
  0
LINE
  5
47
330
1D
100
AcDbEntity
  8
1
100
AcDbLine
 10
14.62182617
 20
31.75
 30
0.0
 11
18.55000305
 21
31.75
 31
0.0
  0
LINE
  5
48
330
1D
100
AcDbEntity
  8
1
100
AcDbLine
 10
9.17498779
 20
28.98422241
 30
0.0
 11
7.57815552
 21
31.75001526
 31
0.0
  0
LINE
  5
49
330
1D
100
AcDbEntity
  8
1
100
AcDbLine
 10
13.0249939
 20
28.98422241
 30
0.0
 11
14.62182617
 21
31.75001526
 31
0.0
  0
LINE
  5
4A
330
1D
100
AcDbEntity
  8
1
100
AcDbLine
 10
9.17498779
 20
28.98422241
 30
0.0
 11
9.17498779
 21
21.00001526
 31
0.0
  0
LINE
  5
4B
330
1D
100
AcDbEntity
  8
1
100
AcDbLine
 10
13.0249939
 20
28.98422241
 30
0.0
 11
13.0249939
 21
21.00001526
 31
0.0
  0
ARC
  5
4C
330
1D
100
AcDbEntity
  8
1
100
AcDbCircle
 10
2.3999939
 20
23.02502441
 30
0.0
 40
0.80000305
100
AcDbArc
 50
270.0
 51
0.0
  0
LINE
  5
4D
330
1D
100
AcDbEntity
  8
1
100
AcDbLine
 10
0.0
 20
22.2250061
 30
0.0
 11
2.3999939
 21
22.2250061
 31
0.0
  0
LINE
  5
4E
330
1D
100
AcDbEntity
  8
1
100
AcDbLine
 10
18.55000305
 20
31.75
 30
0.0
 11
19.05000305
 21
31.25
 31
0.0
  0
LINE
  5
4F
330
1D
100
AcDbEntity
  8
1
100
AcDbLine
 10
3.19999695
 20
31.25
 30
0.0
 11
3.69999695
 21
31.75
 31
0.0
  0
LINE
  5
50
330
1D
100
AcDbEntity
  8
1
100
AcDbLine
 10
3.69999695
 20
31.75
 30
0.0
 11
7.57815552
 21
31.75
 31
0.0
  0
LINE
  5
51
330
1D
100
AcDbEntity
  8
1
100
AcDbLine
 10
3.19999695
 20
31.25
 30
0.0
 11
3.19999695
 21
-31.25
 31
0.0
  0
LINE
  5
52
330
1D
100
AcDbEntity
  8
1
100
AcDbLine
 10
109.94998169
 20
-1.73204041
 30
0.0
 11
112.94998169
 21
-3.46409607
 31
0.0
  0
LINE
  5
53
330
1D
100
AcDbEntity
  8
1
100
AcDbLine
 10
115.94998169
 20
-1.73204041
 30
0.0
 11
112.94998169
 21
-3.46409607
 31
0.0
  0
LINE
  5
54
330
1D
100
AcDbEntity
  8
1
100
AcDbLine
 10
128.99998474
 20
-30.75
 30
0.0
 11
127.99998474
 21
-31.75
 31
0.0
  0
LINE
  5
55
330
1D
100
AcDbEntity
  8
1
100
AcDbLine
 10
42.0
 20
-31.75
 30
0.0
 11
127.99998474
 21
-31.75
 31
0.0
  0
LINE
  5
56
330
1D
100
AcDbEntity
  8
1
100
AcDbLine
 10
35.0
 20
-25.0
 30
0.0
 11
42.0
 21
-31.75
 31
0.0
  0
LINE
  5
57
330
1D
100
AcDbEntity
  8
1
100
AcDbLine
 10
35.0
 20
-25.0
 30
0.0
 11
19.8500061
 21
-25.0
 31
0.0
  0
LINE
  5
58
330
1D
100
AcDbEntity
  8
1
100
AcDbLine
 10
14.62182617
 20
-31.74999237
 30
0.0
 11
18.55000305
 21
-31.74999237
 31
0.0
  0
LINE
  5
59
330
1D
100
AcDbEntity
  8
1
100
AcDbLine
 10
13.0249939
 20
-28.98419952
 30
0.0
 11
14.62182617
 21
-31.74999237
 31
0.0
  0
ARC
  5
5A
330
1D
100
AcDbEntity
  8
1
100
AcDbCircle
 10
12.5249939
 20
-28.49999237
 30
0.0
 40
0.5
100
AcDbArc
 50
0.0
 51
90.0
  0
LINE
  5
5B
330
1D
100
AcDbEntity
  8
1
100
AcDbLine
 10
9.67498779
 20
-27.99999237
 30
0.0
 11
12.5249939
 21
-27.99999237
 31
0.0
  0
ARC
  5
5C
330
1D
100
AcDbEntity
  8
1
100
AcDbCircle
 10
9.67498779
 20
-28.49999237
 30
0.0
 40
0.5
100
AcDbArc
 50
90.0
 51
180.0
  0
LINE
  5
5D
330
1D
100
AcDbEntity
  8
1
100
AcDbLine
 10
9.17498779
 20
-28.98419952
 30
0.0
 11
7.57815552
 21
-31.74999237
 31
0.0
  0
ARC
  5
5E
330
1D
100
AcDbEntity
  8
1
100
AcDbCircle
 10
2.3999939
 20
-23.0249939
 30
0.0
 40
0.80000305
100
AcDbArc
 50
0.0
 51
90.0
  0
LINE
  5
5F
330
1D
100
AcDbEntity
  8
1
100
AcDbLine
 10
0.0
 20
-22.22499084
 30
0.0
 11
2.3999939
 21
-22.22499084
 31
0.0
  0
LINE
  5
60
330
1D
100
AcDbEntity
  8
1
100
AcDbLine
 10
3.69999695
 20
-31.74999237
 30
0.0
 11
3.19999695
 21
-31.24999237
 31
0.0
  0
LINE
  5
61
330
1D
100
AcDbEntity
  8
1
100
AcDbLine
 10
19.05000305
 20
-31.24999237
 30
0.0
 11
18.55000305
 21
-31.74999237
 31
0.0
  0
LINE
  5
62
330
1D
100
AcDbEntity
  8
1
100
AcDbLine
 10
3.69999695
 20
-31.74999237
 30
0.0
 11
7.57815552
 21
-31.74999237
 31
0.0
  0
LINE
  5
63
330
1D
100
AcDbEntity
  8
SK3
100
AcDbLine
 10
-59.75000381
 20
8.5
 30
0.0
 11
-59.75000381
 21
-8.5
 31
0.0
  0
LINE
  5
64
330
1D
100
AcDbEntity
  8
SK3
100
AcDbLine
 10
-58.88398361
 20
7.0
 30
0.0
 11
-58.88397598
 21
-7.0
 31
0.0
  0
LINE
  5
65
330
1D
100
AcDbEntity
  8
SK3
100
AcDbLine
 10
-34.25
 20
8.0
 30
0.0
 11
-30.51794434
 21
7.0
 31
0.0
  0
LINE
  5
66
330
1D
100
AcDbEntity
  8
SK3
100
AcDbLine
 10
-34.25
 20
8.0
 30
0.0
 11
-34.25
 21
-8.0
 31
0.0
  0
LINE
  5
67
330
1D
100
AcDbEntity
  8
SK3
100
AcDbLine
 10
-59.75000381
 20
8.5
 30
0.0
 11
-58.88397598
 21
7.0
 31
0.0
  0
LINE
  5
68
330
1D
100
AcDbEntity
  8
SK3
100
AcDbLine
 10
-23.25
 20
7.0
 30
0.0
 11
-58.88398743
 21
7.0
 31
0.0
  0
LINE
  5
69
330
1D
100
AcDbEntity
  8
SK3
100
AcDbLine
 10
-34.25
 20
8.0
 30
0.0
 11
-59.46133423
 21
8.0
 31
0.0
  0
LINE
  5
6A
330
1D
100
AcDbEntity
  8
SK3
100
AcDbLine
 10
-59.75000381
 20
8.5
 30
0.0
 11
-68.25
 21
8.5
 31
0.0
  0
ARC
  5
6B
330
1D
100
AcDbEntity
  8
1
100
AcDbCircle
 10
19.8500061
 20
25.80000305
 30
0.0
 40
0.80000305
100
AcDbArc
 50
180.0
 51
270.0
  0
LINE
  5
6C
330
1D
100
AcDbEntity
  8
SK4
100
AcDbLine
 10
130.99998474
 20
0.0
 30
0.0
 11
-5.74094259
 21
0.0
 31
0.0
  0
LINE
  5
6D
330
1D
100
AcDbEntity
  8
SK4
100
AcDbLine
 10
-14.275261461
 20
0.0
 30
0.0
 11
-70.25
 21
0.0
 31
0.0
  0
LINE
  5
6E
330
1D
100
AcDbEntity
  8
SK3
100
AcDbLine
 10
-59.75000381
 20
-8.5
 30
0.0
 11
-68.25
 21
-8.5
 31
0.0
  0
LINE
  5
6F
330
1D
100
AcDbEntity
  8
SK3
100
AcDbLine
 10
-59.75000381
 20
-8.5
 30
0.0
 11
-58.88397598
 21
-7.0
 31
0.0
  0
LINE
  5
70
330
1D
100
AcDbEntity
  8
SK3
100
AcDbLine
 10
-23.25
 20
-7.0
 30
0.0
 11
-58.88398743
 21
-7.0
 31
0.0
  0
LINE
  5
71
330
1D
100
AcDbEntity
  8
SK3
100
AcDbLine
 10
-34.25
 20
-8.0
 30
0.0
 11
-59.4613266
 21
-8.0
 31
0.0
  0
LINE
  5
72
330
1D
100
AcDbEntity
  8
SK3
100
AcDbLine
 10
-34.25
 20
-8.0
 30
0.0
 11
-30.51794434
 21
-7.0
 31
0.0
  0
ARC
  5
73
330
1D
100
AcDbEntity
  8
1
100
AcDbCircle
 10
19.8500061
 20
-25.80000305
 30
0.0
 40
0.80000305
100
AcDbArc
 50
90.0
 51
180.0
  0
ARC
  5
74
330
1D
100
AcDbEntity
  8
SK1
100
AcDbCircle
 10
-67.0
 20
11.19088745
 30
0.0
 40
1.25
100
AcDbArc
 50
98.29736328
 51
180.0
  0
LINE
  5
75
330
1D
100
AcDbEntity
  8
SK1
100
AcDbLine
 10
0.0
 20
22.2250061
 30
0.0
 11
-67.1803894
 21
12.42779541
 31
0.0
  0
LINE
  5
76
330
1D
100
AcDbEntity
  8
SK1
100
AcDbLine
 10
-68.25
 20
11.19088745
 30
0.0
 11
-68.25
 21
-11.19085693
 31
0.0
  0
LINE
  5
77
330
1D
100
AcDbEntity
  8
SK1
100
AcDbLine
 10
0.0
 20
22.2250061
 30
0.0
 11
0.0
 21
-22.22499847
 31
0.0
  0
ARC
  5
78
330
1D
100
AcDbEntity
  8
SK1
100
AcDbCircle
 10
-67.0
 20
-11.19087219
 30
0.0
 40
1.25
100
AcDbArc
 50
180.0
 51
261.7029418900001
  0
LINE
  5
79
330
1D
100
AcDbEntity
  8
SK1
100
AcDbLine
 10
0.0
 20
-22.22499084
 30
0.0
 11
-67.18038177
 21
-12.42779541
 31
0.0
  0
LINE
  5
7A
330
1D
100
AcDbEntity
  8
SK2
100
AcDbLine
 10
-10.0
 20
-22.22499084
 30
0.0
 11
0.0
 21
-22.22499084
 31
0.0
  0
LINE
  5
7B
330
1D
100
AcDbEntity
  8
SK2
100
AcDbLine
 10
-8.0
 20
-22.22499084
 30
0.0
 11
-8.45
 21
-18.72499084
 31
0.0
  0
LINE
  5
7C
330
1D
100
AcDbEntity
  8
SK2
100
AcDbLine
 10
-8.45
 20
-18.72499084
 30
0.0
 11
-7.55
 21
-18.72499084
 31
0.0
  0
LINE
  5
7D
330
1D
100
AcDbEntity
  8
SK2
100
AcDbLine
 10
-7.55
 20
-18.72499084
 30
0.0
 11
-8.0
 21
-22.22499084
 31
0.0
  0
LINE
  5
7E
330
1D
100
AcDbEntity
  8
SK2
100
AcDbLine
 10
-10.0
 20
22.2250061
 30
0.0
 11
0.0
 21
22.2250061
 31
0.0
  0
LINE
  5
7F
330
1D
100
AcDbEntity
  8
SK2
100
AcDbLine
 10
-8.0
 20
22.2250061
 30
0.0
 11
-7.55
 21
18.7250061
 31
0.0
  0
LINE
  5
80
330
1D
100
AcDbEntity
  8
SK2
100
AcDbLine
 10
-7.55
 20
18.7250061
 30
0.0
 11
-8.45
 21
18.7250061
 31
0.0
  0
LINE
  5
81
330
1D
100
AcDbEntity
  8
SK2
100
AcDbLine
 10
-8.45
 20
18.7250061
 30
0.0
 11
-8.0
 21
22.2250061
 31
0.0
  0
LINE
  5
82
330
1D
100
AcDbEntity
  8
SK2
100
AcDbLine
 10
-8.0
 20
-18.72499084
 30
0.0
 11
-8.0
 21
18.7250061
 31
0.0
  0
TEXT
  5
83
330
1D
100
AcDbEntity
  8
SK2
100
AcDbText
 10
-9.5
 20
-2.539680367
 30
0.0
 40
3.5
  1
44.45
 50
90.0
  7
BMG_Text
100
AcDbText
  0
CIRCLE
  5
84
330
1D
100
AcDbEntity
  8
SK2
100
AcDbCircle
 10
-10.75
 20
-4.789680367
 30
0.0
 40
1.25
  0
LINE
  5
85
330
1D
100
AcDbEntity
  8
SK2
100
AcDbLine
 10
-9.5
 20
-6.039680367
 30
0.0
 11
-12.0
 21
-3.539680367
 31
0.0
  0
LINE
  5
86
330
1D
100
AcDbEntity
  8
2
100
AcDbLine
 10
0.0
 20
41.749999996
 30
0.0
 11
0.0
 21
22.2250061
 31
0.0
  0
LINE
  5
87
330
1D
100
AcDbEntity
  8
2
100
AcDbLine
 10
0.0
 20
39.749999996
 30
0.0
 11
3.5
 21
40.199999997
 31
0.0
  0
LINE
  5
88
330
1D
100
AcDbEntity
  8
2
100
AcDbLine
 10
3.5
 20
40.199999997
 30
0.0
 11
3.5
 21
39.299999997
 31
0.0
  0
LINE
  5
89
330
1D
100
AcDbEntity
  8
2
100
AcDbLine
 10
3.5
 20
39.299999997
 30
0.0
 11
0.0
 21
39.749999996
 31
0.0
  0
LINE
  5
8A
330
1D
100
AcDbEntity
  8
2
100
AcDbLine
 10
128.99998474
 20
41.750000001
 30
0.0
 11
128.99998474
 21
30.75001526
 31
0.0
  0
LINE
  5
8B
330
1D
100
AcDbEntity
  8
2
100
AcDbLine
 10
128.99998474
 20
39.750000001
 30
0.0
 11
125.49998474
 21
39.300000001
 31
0.0
  0
LINE
  5
8C
330
1D
100
AcDbEntity
  8
2
100
AcDbLine
 10
125.49998474
 20
39.300000001
 30
0.0
 11
125.49998474
 21
40.200000001
 31
0.0
  0
LINE
  5
8D
330
1D
100
AcDbEntity
  8
2
100
AcDbLine
 10
125.49998474
 20
40.200000001
 30
0.0
 11
128.99998474
 21
39.750000001
 31
0.0
  0
LINE
  5
8E
330
1D
100
AcDbEntity
  8
2
100
AcDbLine
 10
3.5
 20
39.749999997
 30
0.0
 11
125.49998474
 21
39.750000001
 31
0.0
  0
TEXT
  5
8F
330
1D
100
AcDbEntity
  8
2
100
AcDbText
 10
62.151709678
 20
41.249999999
 30
0.0
 40
3.5
  1
129
  7
BMG_Text
100
AcDbText
  0
LINE
  5
90
330
1D
100
AcDbEntity
  8
2
100
AcDbLine
 10
161.999999999
 20
-31.75
 30
0.0
 11
127.99998474
 21
-31.75
 31
0.0
  0
LINE
  5
91
330
1D
100
AcDbEntity
  8
2
100
AcDbLine
 10
159.999999999
 20
-31.75
 30
0.0
 11
159.549999999
 21
-28.25
 31
0.0
  0
LINE
  5
92
330
1D
100
AcDbEntity
  8
2
100
AcDbLine
 10
159.549999999
 20
-28.25
 30
0.0
 11
160.449999999
 21
-28.25
 31
0.0
  0
LINE
  5
93
330
1D
100
AcDbEntity
  8
2
100
AcDbLine
 10
160.449999999
 20
-28.25
 30
0.0
 11
159.999999999
 21
-31.75
 31
0.0
  0
LINE
  5
94
330
1D
100
AcDbEntity
  8
2
100
AcDbLine
 10
161.999999999
 20
31.75001526
 30
0.0
 11
127.99998474
 21
31.75001526
 31
0.0
  0
LINE
  5
95
330
1D
100
AcDbEntity
  8
2
100
AcDbLine
 10
159.999999999
 20
31.75001526
 30
0.0
 11
160.449999999
 21
28.25001526
 31
0.0
  0
LINE
  5
96
330
1D
100
AcDbEntity
  8
2
100
AcDbLine
 10
160.449999999
 20
28.25001526
 30
0.0
 11
159.549999999
 21
28.25001526
 31
0.0
  0
LINE
  5
97
330
1D
100
AcDbEntity
  8
2
100
AcDbLine
 10
159.549999999
 20
28.25001526
 30
0.0
 11
159.999999999
 21
31.75001526
 31
0.0
  0
LINE
  5
98
330
1D
100
AcDbEntity
  8
2
100
AcDbLine
 10
159.999999999
 20
-28.25
 30
0.0
 11
159.999999999
 21
28.25001526
 31
0.0
  0
TEXT
  5
99
330
1D
100
AcDbEntity
  8
2
100
AcDbText
 10
158.499999999
 20
-1.17249308
 30
0.0
 40
3.5
  1
63.5
 50
90.0
  7
BMG_Text
100
AcDbText
  0
CIRCLE
  5
9A
330
1D
100
AcDbEntity
  8
2
100
AcDbCircle
 10
157.249999999
 20
-3.42249308
 30
0.0
 40
1.25
  0
LINE
  5
9B
330
1D
100
AcDbEntity
  8
2
100
AcDbLine
 10
158.499999999
 20
-4.67249308
 30
0.0
 11
155.999999999
 21
-2.17249308
 31
0.0
  0
LINE
  5
9C
330
1D
100
AcDbEntity
  8
2
100
AcDbLine
 10
154.0
 20
-25.0
 30
0.0
 11
35.0
 21
-25.0
 31
0.0
  0
LINE
  5
9D
330
1D
100
AcDbEntity
  8
2
100
AcDbLine
 10
152.0
 20
-25.0
 30
0.0
 11
151.55
 21
-21.5
 31
0.0
  0
LINE
  5
9E
330
1D
100
AcDbEntity
  8
2
100
AcDbLine
 10
151.55
 20
-21.5
 30
0.0
 11
152.45
 21
-21.5
 31
0.0
  0
LINE
  5
9F
330
1D
100
AcDbEntity
  8
2
100
AcDbLine
 10
152.45
 20
-21.5
 30
0.0
 11
152.0
 21
-25.0
 31
0.0
  0
LINE
  5
A0
330
1D
100
AcDbEntity
  8
2
100
AcDbLine
 10
154.0
 20
25.0
 30
0.0
 11
35.0
 21
25.0
 31
0.0
  0
LINE
  5
A1
330
1D
100
AcDbEntity
  8
2
100
AcDbLine
 10
152.0
 20
25.0
 30
0.0
 11
152.45
 21
21.5
 31
0.0
  0
LINE
  5
A2
330
1D
100
AcDbEntity
  8
2
100
AcDbLine
 10
152.45
 20
21.5
 30
0.0
 11
151.55
 21
21.5
 31
0.0
  0
LINE
  5
A3
330
1D
100
AcDbEntity
  8
2
100
AcDbLine
 10
151.55
 20
21.5
 30
0.0
 11
152.0
 21
25.0
 31
0.0
  0
LINE
  5
A4
330
1D
100
AcDbEntity
  8
2
100
AcDbLine
 10
152.0
 20
-21.5
 30
0.0
 11
152.0
 21
21.5
 31
0.0
  0
TEXT
  5
A5
330
1D
100
AcDbEntity
  8
2
100
AcDbText
 10
150.5
 20
0.194686941
 30
0.0
 40
3.5
  1
50
 50
90.0
  7
BMG_Text
100
AcDbText
  0
CIRCLE
  5
A6
330
1D
100
AcDbEntity
  8
2
100
AcDbCircle
 10
149.25
 20
-2.055313059
 30
0.0
 40
1.25
  0
LINE
  5
A7
330
1D
100
AcDbEntity
  8
2
100
AcDbLine
 10
150.5
 20
-3.305313059
 30
0.0
 11
148.0
 21
-0.805313059
 31
0.0
  0
LINE
  5
A8
330
1D
100
AcDbEntity
  8
2
100
AcDbLine
 10
145.999999999
 20
-18.0
 30
0.0
 11
128.99998474
 21
-18.0
 31
0.0
  0
LINE
  5
A9
330
1D
100
AcDbEntity
  8
2
100
AcDbLine
 10
143.999999999
 20
-18.0
 30
0.0
 11
143.549999999
 21
-14.5
 31
0.0
  0
LINE
  5
AA
330
1D
100
AcDbEntity
  8
2
100
AcDbLine
 10
143.549999999
 20
-14.5
 30
0.0
 11
144.449999999
 21
-14.5
 31
0.0
  0
LINE
  5
AB
330
1D
100
AcDbEntity
  8
2
100
AcDbLine
 10
144.449999999
 20
-14.5
 30
0.0
 11
143.999999999
 21
-18.0
 31
0.0
  0
LINE
  5
AC
330
1D
100
AcDbEntity
  8
2
100
AcDbLine
 10
145.999999999
 20
18.0
 30
0.0
 11
128.99998474
 21
18.0
 31
0.0
  0
LINE
  5
AD
330
1D
100
AcDbEntity
  8
2
100
AcDbLine
 10
143.999999999
 20
18.0
 30
0.0
 11
144.449999999
 21
14.5
 31
0.0
  0
LINE
  5
AE
330
1D
100
AcDbEntity
  8
2
100
AcDbLine
 10
144.449999999
 20
14.5
 30
0.0
 11
143.549999999
 21
14.5
 31
0.0
  0
LINE
  5
AF
330
1D
100
AcDbEntity
  8
2
100
AcDbLine
 10
143.549999999
 20
14.5
 30
0.0
 11
143.999999999
 21
18.0
 31
0.0
  0
LINE
  5
B0
330
1D
100
AcDbEntity
  8
2
100
AcDbLine
 10
143.999999999
 20
-14.5
 30
0.0
 11
143.999999999
 21
14.5
 31
0.0
  0
TEXT
  5
B1
330
1D
100
AcDbEntity
  8
2
100
AcDbText
 10
142.499999999
 20
0.331405848
 30
0.0
 40
3.5
  1
36
 50
90.0
  7
BMG_Text
100
AcDbText
  0
CIRCLE
  5
B2
330
1D
100
AcDbEntity
  8
2
100
AcDbCircle
 10
141.249999999
 20
-1.918594152
 30
0.0
 40
1.25
  0
LINE
  5
B3
330
1D
100
AcDbEntity
  8
2
100
AcDbLine
 10
142.499999999
 20
-3.168594152
 30
0.0
 11
139.999999999
 21
-0.668594152
 31
0.0
  0
LINE
  5
B4
330
1D
100
AcDbEntity
  8
2
100
AcDbLine
 10
0.0
 20
-45.999999995
 30
0.0
 11
0.0
 21
-22.22499084
 31
0.0
  0
LINE
  5
B5
330
1D
100
AcDbEntity
  8
2
100
AcDbLine
 10
0.0
 20
-43.999999995
 30
0.0
 11
3.5
 21
-43.549999996
 31
0.0
  0
LINE
  5
B6
330
1D
100
AcDbEntity
  8
2
100
AcDbLine
 10
3.5
 20
-43.549999996
 30
0.0
 11
3.5
 21
-44.449999996
 31
0.0
  0
LINE
  5
B7
330
1D
100
AcDbEntity
  8
2
100
AcDbLine
 10
3.5
 20
-44.449999996
 30
0.0
 11
0.0
 21
-43.999999995
 31
0.0
  0
LINE
  5
B8
330
1D
100
AcDbEntity
  8
2
100
AcDbLine
 10
40.0
 20
-45.999999999
 30
0.0
 11
40.0
 21
-31.74999237
 31
0.0
  0
LINE
  5
B9
330
1D
100
AcDbEntity
  8
2
100
AcDbLine
 10
40.0
 20
-43.999999999
 30
0.0
 11
36.5
 21
-44.449999999
 31
0.0
  0
LINE
  5
BA
330
1D
100
AcDbEntity
  8
2
100
AcDbLine
 10
36.5
 20
-44.449999999
 30
0.0
 11
36.5
 21
-43.549999999
 31
0.0
  0
LINE
  5
BB
330
1D
100
AcDbEntity
  8
2
100
AcDbLine
 10
36.5
 20
-43.549999999
 30
0.0
 11
40.0
 21
-43.999999999
 31
0.0
  0
LINE
  5
BC
330
1D
100
AcDbEntity
  8
2
100
AcDbLine
 10
3.5
 20
-43.999999996
 30
0.0
 11
36.5
 21
-43.999999999
 31
0.0
  0
TEXT
  5
BD
330
1D
100
AcDbEntity
  8
2
100
AcDbText
 10
18.335312053
 20
-42.499999997
 30
0.0
 40
3.5
  1
40
 50
359.9999999940001
  7
BMG_Text
100
AcDbText
  0
LINE
  5
BE
330
1D
100
AcDbEntity
  8
2
100
AcDbLine
 10
40.0
 20
-45.999999999
 30
0.0
 11
40.0
 21
-31.74999237
 31
0.0
  0
LINE
  5
BF
330
1D
100
AcDbEntity
  8
2
100
AcDbLine
 10
40.0
 20
-43.999999999
 30
0.0
 11
43.5
 21
-43.549999999
 31
0.0
  0
LINE
  5
C0
330
1D
100
AcDbEntity
  8
2
100
AcDbLine
 10
43.5
 20
-43.549999999
 30
0.0
 11
43.5
 21
-44.449999999
 31
0.0
  0
LINE
  5
C1
330
1D
100
AcDbEntity
  8
2
100
AcDbLine
 10
43.5
 20
-44.449999999
 30
0.0
 11
40.0
 21
-43.999999999
 31
0.0
  0
LINE
  5
C2
330
1D
100
AcDbEntity
  8
2
100
AcDbLine
 10
43.5
 20
-43.999999999
 30
0.0
 11
137.899983214
 21
-43.999999999
 31
0.0
  0
TEXT
  5
C3
330
1D
100
AcDbEntity
  8
2
100
AcDbText
 10
114.5111456631962
 20
-42.499999999
 30
0.0
 40
3.5
  1
160
  7
BMG_Text
100
AcDbText
  0
TEXT
  5
C4
330
1D
100
AcDbEntity
  8
2
100
AcDbText
 10
73.741709263
 20
-42.499999999
 30
0.0
 40
3.5
  1
Ausdrehtiefe
  7
BMG_Text
100
AcDbText
  0
TEXT
  5
C5
330
1D
100
AcDbEntity
  8
SK6
100
AcDbText
 10
197.7901878234957
 20
-58.71832262016686
 30
0.0
 40
3.5
  1
326.064
  7
BMG_Text
100
AcDbText
  0
LINE
  5
C6
330
1D
100
AcDbEntity
  8
SK3
100
AcDbLine
 10
-23.25
 20
7.0
 30
0.0
 11
-23.25
 21
-7.0
 31
0.0
  0
LINE
  5
C7
330
1D
100
AcDbEntity
  8
SK3
100
AcDbLine
 10
-23.25
 20
7.0
 30
0.0
 11
-23.068014883
 21
6.5
 31
0.0
  0
LINE
  5
C8
330
1D
100
AcDbEntity
  8
SK3
100
AcDbLine
 10
-23.068014883
 20
6.5
 30
0.0
 11
-23.068014883
 21
-6.5
 31
0.0
  0
LINE
  5
C9
330
1D
100
AcDbEntity
  8
SK6
100
AcDbLine
 10
-34.28646851
 20
-31.80198288
 30
0.0
 11
-34.28646851
 21
-33.87197495
 31
0.0
  0
ARC
  5
CA
330
1D
100
AcDbEntity
  8
SK6
100
AcDbCircle
 10
-37.16645432
 20
-34.95198441
 30
0.0
 40
1.08000004
100
AcDbArc
 50
90.00000763
 51
206.54360962
  0
LINE
  5
CB
330
1D
100
AcDbEntity
  8
SK6
100
AcDbLine
 10
-37.16645432
 20
-33.87200546
 30
0.0
 11
-34.28645706
 21
-33.87200546
 31
0.0
  0
ARC
  5
CC
330
1D
100
AcDbEntity
  8
SK6
100
AcDbCircle
 10
-38.33646393
 20
-34.50197983
 30
0.0
 40
2.70000005
100
AcDbArc
 50
90.00000763
 51
206.5436554
  0
ARC
  5
CD
330
1D
100
AcDbEntity
  8
SK6
100
AcDbCircle
 10
-37.61644745
 20
-44.40198898
 30
0.0
 40
1.08000004
100
AcDbArc
 50
270.0
 51
26.54360962
  0
LINE
  5
CE
330
1D
100
AcDbEntity
  8
SK6
100
AcDbLine
 10
-37.61644745
 20
-45.48199081
 30
0.0
 11
-41.03644562
 21
-45.48199081
 31
0.0
  0
LINE
  5
CF
330
1D
100
AcDbEntity
  8
SK6
100
AcDbLine
 10
-40.75186539
 20
-35.70855331
 30
0.0
 11
-36.65029907
 21
-43.91934586
 31
0.0
  0
ARC
  5
D0
330
1D
100
AcDbEntity
  8
SK6
100
AcDbCircle
 10
-36.44646072
 20
-44.85199356
 30
0.0
 40
2.70000005
100
AcDbArc
 50
270.0
 51
26.54364014
  0
LINE
  5
D1
330
1D
100
AcDbEntity
  8
SK6
100
AcDbLine
 10
-38.13262177
 20
-35.43461227
 30
0.0
 11
-34.03105164
 21
-43.64541245
 31
0.0
  0
LINE
  5
D2
330
1D
100
AcDbEntity
  8
SK6
100
AcDbLine
 10
-41.03646851
 20
-45.48199081
 30
0.0
 11
-41.03646851
 21
-47.55199814
 31
0.0
  0
LINE
  5
D3
330
1D
100
AcDbEntity
  8
SK6
100
AcDbLine
 10
-41.03646851
 20
-47.55199814
 30
0.0
 11
-36.44646454
 21
-47.55199814
 31
0.0
  0
LINE
  5
D4
330
1D
100
AcDbEntity
  8
SK6
100
AcDbLine
 10
-31.58646393
 20
-47.55199814
 30
0.0
 11
-31.58646393
 21
-31.80199814
 31
0.0
  0
LINE
  5
D5
330
1D
100
AcDbEntity
  8
SK6
100
AcDbLine
 10
-23.30645752
 20
-47.55199814
 30
0.0
 11
-23.30645752
 21
-31.80199814
 31
0.0
  0
LINE
  5
D6
330
1D
100
AcDbEntity
  8
SK6
100
AcDbLine
 10
-23.30645752
 20
-47.55199814
 30
0.0
 11
-20.60646439
 21
-47.55199814
 31
0.0
  0
LINE
  5
D7
330
1D
100
AcDbEntity
  8
SK6
100
AcDbLine
 10
-20.60646439
 20
-47.55199814
 30
0.0
 11
-20.60646439
 21
-40.7120018
 31
0.0
  0
ARC
  5
D8
330
1D
100
AcDbEntity
  8
SK6
100
AcDbCircle
 10
-19.25645065
 20
-41.79198837
 30
0.0
 40
1.08000004
100
AcDbArc
 50
0.0
 51
90.00000763
  0
LINE
  5
D9
330
1D
100
AcDbEntity
  8
SK6
100
AcDbLine
 10
-19.25645065
 20
-40.71198654
 30
0.0
 11
-20.60645294
 21
-40.71198654
 31
0.0
  0
LINE
  5
DA
330
1D
100
AcDbEntity
  8
SK6
100
AcDbLine
 10
-18.17647171
 20
-45.03199387
 30
0.0
 11
-18.17647171
 21
-46.0219841
 31
0.0
  0
ARC
  5
DB
330
1D
100
AcDbEntity
  8
SK6
100
AcDbCircle
 10
-13.04647446
 20
-46.02199173
 30
0.0
 40
2.51999998
100
AcDbArc
 50
180.0
 51
217.38319397
  0
ARC
  5
DC
330
1D
100
AcDbEntity
  8
SK6
100
AcDbCircle
 10
-15.6564827
 20
-46.02199173
 30
0.0
 40
2.51999998
100
AcDbArc
 50
180.0
 51
217.38319397
  0
LINE
  5
DD
330
1D
100
AcDbEntity
  8
SK6
100
AcDbLine
 10
-15.13886642
 20
-47.55199814
 30
0.0
 11
-17.65886688
 21
-47.55199814
 31
0.0
  0
LINE
  5
DE
330
1D
100
AcDbEntity
  8
SK6
100
AcDbLine
 10
-18.17647171
 20
-41.79200363
 30
0.0
 11
-18.17647171
 21
-46.02199173
 31
0.0
  0
ARC
  5
DF
330
1D
100
AcDbEntity
  8
SK6
100
AcDbCircle
 10
-18.08645248
 20
-41.97199631
 30
0.0
 40
2.51999998
100
AcDbArc
 50
358.70883179
 51
93.06652832
  0
ARC
  5
E0
330
1D
100
AcDbEntity
  8
SK6
100
AcDbCircle
 10
-18.35646439
 20
-36.93199539
 30
0.0
 40
2.51999998
100
AcDbArc
 50
273.06652832
 51
0.0
  0
ARC
  5
E1
330
1D
100
AcDbEntity
  8
SK6
100
AcDbCircle
 10
-18.35646439
 20
-34.32200241
 30
0.0
 40
2.51999998
100
AcDbArc
 50
0.0
 51
90.00000763
  0
LINE
  5
E2
330
1D
100
AcDbEntity
  8
SK6
100
AcDbLine
 10
-15.83645248
 20
-34.32200241
 30
0.0
 11
-15.83645248
 21
-36.93200302
 31
0.0
  0
ARC
  5
E3
330
1D
100
AcDbEntity
  8
SK6
100
AcDbCircle
 10
-18.98646164
 20
-34.77199936
 30
0.0
 40
0.90000004
100
AcDbArc
 50
0.0
 51
90.00000763
  0
LINE
  5
E4
330
1D
100
AcDbEntity
  8
SK6
100
AcDbLine
 10
-18.98646164
 20
-33.87200546
 30
0.0
 11
-20.60646439
 21
-33.87200546
 31
0.0
  0
ARC
  5
E5
330
1D
100
AcDbEntity
  8
SK6
100
AcDbCircle
 10
-18.98646164
 20
-37.65198898
 30
0.0
 40
0.90000004
100
AcDbArc
 50
270.0
 51
0.0
  0
LINE
  5
E6
330
1D
100
AcDbEntity
  8
SK6
100
AcDbLine
 10
-18.08645248
 20
-34.77199936
 30
0.0
 11
-18.08645248
 21
-37.65199661
 31
0.0
  0
LINE
  5
E7
330
1D
100
AcDbEntity
  8
SK6
100
AcDbLine
 10
-20.60646439
 20
-33.87200546
 30
0.0
 11
-20.60646439
 21
-38.55199814
 31
0.0
  0
LINE
  5
E8
330
1D
100
AcDbEntity
  8
SK6
100
AcDbLine
 10
-18.98646164
 20
-38.55199814
 30
0.0
 11
-20.60646439
 21
-38.55199814
 31
0.0
  0
LINE
  5
E9
330
1D
100
AcDbEntity
  8
SK6
100
AcDbLine
 10
-15.56710434
 20
-42.02878189
 30
0.0
 11
-15.56647491
 21
-46.02239609
 31
0.0
  0
LINE
  5
EA
330
1D
100
AcDbEntity
  8
SK6
100
AcDbLine
 10
-15.13886642
 20
-47.55199814
 30
0.0
 11
-15.04887009
 21
-47.55199814
 31
0.0
  0
LINE
  5
EB
330
1D
100
AcDbEntity
  8
SK6
100
AcDbLine
 10
-38.33646393
 20
-31.80198288
 30
0.0
 11
-34.28646088
 21
-31.80198288
 31
0.0
  0
LINE
  5
EC
330
1D
100
AcDbEntity
  8
SK6
100
AcDbLine
 10
-18.35646439
 20
-31.80198288
 30
0.0
 11
-23.30646896
 21
-31.80198288
 31
0.0
  0
LINE
  5
ED
330
1D
100
AcDbEntity
  8
SK6
100
AcDbLine
 10
-65.33646393
 20
-47.55199814
 30
0.0
 11
-68.12646484
 21
-47.55199814
 31
0.0
  0
LINE
  5
EE
330
1D
100
AcDbEntity
  8
SK6
100
AcDbLine
 10
-65.33646393
 20
-44.13199997
 30
0.0
 11
-65.33646393
 21
-47.55199814
 31
0.0
  0
LINE
  5
EF
330
1D
100
AcDbEntity
  8
SK6
100
AcDbLine
 10
-64.2564621
 20
-42.06199265
 30
0.0
 11
-65.33646393
 21
-44.13199997
 31
0.0
  0
LINE
  5
F0
330
1D
100
AcDbEntity
  8
SK6
100
AcDbLine
 10
-61.82646942
 20
-47.55199814
 30
0.0
 11
-64.2564621
 21
-42.06199265
 31
0.0
  0
LINE
  5
F1
330
1D
100
AcDbEntity
  8
SK6
100
AcDbLine
 10
-59.03646851
 20
-47.55199814
 30
0.0
 11
-61.82646179
 21
-47.55199814
 31
0.0
  0
LINE
  5
F2
330
1D
100
AcDbEntity
  8
SK6
100
AcDbLine
 10
-62.63647461
 20
-38.55199814
 30
0.0
 11
-59.03646851
 21
-47.55199814
 31
0.0
  0
LINE
  5
F3
330
1D
100
AcDbEntity
  8
SK6
100
AcDbLine
 10
-59.57646942
 20
-31.80199814
 30
0.0
 11
-62.63645935
 21
-38.55199814
 31
0.0
  0
LINE
  5
F4
330
1D
100
AcDbEntity
  8
SK6
100
AcDbLine
 10
-65.33646393
 20
-38.91200638
 30
0.0
 11
-62.36647034
 21
-31.8020134
 31
0.0
  0
LINE
  5
F5
330
1D
100
AcDbEntity
  8
SK6
100
AcDbLine
 10
-65.33646393
 20
-31.80199814
 30
0.0
 11
-65.33646393
 21
-38.91200638
 31
0.0
  0
LINE
  5
F6
330
1D
100
AcDbEntity
  8
SK6
100
AcDbLine
 10
-68.12646484
 20
-47.55199814
 30
0.0
 11
-68.12646484
 21
-31.80199814
 31
0.0
  0
LINE
  5
F7
330
1D
100
AcDbEntity
  8
SK6
100
AcDbLine
 10
-62.36647034
 20
-31.80199814
 30
0.0
 11
-59.57646942
 21
-31.80199814
 31
0.0
  0
LINE
  5
F8
330
1D
100
AcDbEntity
  8
SK6
100
AcDbLine
 10
-68.12646484
 20
-31.80199814
 30
0.0
 11
-65.33646393
 21
-31.80199814
 31
0.0
  0
LINE
  5
F9
330
1D
100
AcDbEntity
  8
SK6
100
AcDbLine
 10
-46.07645798
 20
-31.80199814
 30
0.0
 11
-46.07645798
 21
-47.55199814
 31
0.0
  0
LINE
  5
FA
330
1D
100
AcDbEntity
  8
SK6
100
AcDbLine
 10
-43.19646072
 20
-47.55199814
 30
0.0
 11
-43.19646072
 21
-31.80199814
 31
0.0
  0
LINE
  5
FB
330
1D
100
AcDbEntity
  8
SK6
100
AcDbLine
 10
-46.07645798
 20
-47.55199814
 30
0.0
 11
-43.19646072
 21
-47.55199814
 31
0.0
  0
LINE
  5
FC
330
1D
100
AcDbEntity
  8
SK6
100
AcDbLine
 10
-43.19646072
 20
-31.80199814
 30
0.0
 11
-46.07646942
 21
-31.80199814
 31
0.0
  0
LINE
  5
FD
330
1D
100
AcDbEntity
  8
SK6
100
AcDbLine
 10
-25.73646164
 20
-47.55199814
 30
0.0
 11
-25.73646164
 21
-45.48199081
 31
0.0
  0
LINE
  5
FE
330
1D
100
AcDbEntity
  8
SK6
100
AcDbLine
 10
-31.58646393
 20
-47.55199814
 30
0.0
 11
-25.73646164
 21
-47.55199814
 31
0.0
  0
LINE
  5
FF
330
1D
100
AcDbEntity
  8
SK6
100
AcDbLine
 10
-25.73647308
 20
-33.8719902
 30
0.0
 11
-25.73647308
 21
-31.80199814
 31
0.0
  0
LINE
  5
100
330
1D
100
AcDbEntity
  8
SK6
100
AcDbLine
 10
-28.70648956
 20
-33.8719902
 30
0.0
 11
-25.73648453
 21
-33.8719902
 31
0.0
  0
LINE
  5
101
330
1D
100
AcDbEntity
  8
SK6
100
AcDbLine
 10
-28.70648956
 20
-38.55199814
 30
0.0
 11
-28.70648956
 21
-33.87200546
 31
0.0
  0
LINE
  5
102
330
1D
100
AcDbEntity
  8
SK6
100
AcDbLine
 10
-25.73647308
 20
-38.55199814
 30
0.0
 11
-28.70647812
 21
-38.55199814
 31
0.0
  0
LINE
  5
103
330
1D
100
AcDbEntity
  8
SK6
100
AcDbLine
 10
-25.73647308
 20
-40.71197891
 30
0.0
 11
-25.73647308
 21
-38.55197525
 31
0.0
  0
LINE
  5
104
330
1D
100
AcDbEntity
  8
SK6
100
AcDbLine
 10
-28.70648956
 20
-40.71197891
 30
0.0
 11
-25.73648453
 21
-40.71197891
 31
0.0
  0
LINE
  5
105
330
1D
100
AcDbEntity
  8
SK6
100
AcDbLine
 10
-28.70648956
 20
-45.48199081
 30
0.0
 11
-28.70648956
 21
-40.71197891
 31
0.0
  0
LINE
  5
106
330
1D
100
AcDbEntity
  8
SK6
100
AcDbLine
 10
-25.73647308
 20
-45.48199081
 30
0.0
 11
-28.70647812
 21
-45.48199081
 31
0.0
  0
LINE
  5
107
330
1D
100
AcDbEntity
  8
SK6
100
AcDbLine
 10
-25.73647308
 20
-31.80199814
 30
0.0
 11
-31.58647537
 21
-31.80199814
 31
0.0
  0
LINE
  5
108
330
1D
100
AcDbEntity
  8
SK6
100
AcDbLine
 10
-51.65646362
 20
-47.55199814
 30
0.0
 11
-57.95646667
 21
-47.55199814
 31
0.0
  0
LINE
  5
109
330
1D
100
AcDbEntity
  8
SK6
100
AcDbLine
 10
-52.10645294
 20
-45.03198624
 30
0.0
 11
-51.65646362
 21
-47.55198288
 31
0.0
  0
LINE
  5
10A
330
1D
100
AcDbEntity
  8
SK6
100
AcDbLine
 10
-54.98647308
 20
-45.03198624
 30
0.0
 11
-52.10647583
 21
-45.03198624
 31
0.0
  0
LINE
  5
10B
330
1D
100
AcDbEntity
  8
SK6
100
AcDbLine
 10
-53.45646667
 20
-35.67200089
 30
0.0
 11
-54.98646545
 21
-45.03200912
 31
0.0
  0
LINE
  5
10C
330
1D
100
AcDbEntity
  8
SK6
100
AcDbLine
 10
-50.39646912
 20
-47.55199814
 30
0.0
 11
-53.45646667
 21
-35.67200089
 31
0.0
  0
LINE
  5
10D
330
1D
100
AcDbEntity
  8
SK6
100
AcDbLine
 10
-47.42646027
 20
-47.55199814
 30
0.0
 11
-50.39645386
 21
-47.55199814
 31
0.0
  0
LINE
  5
10E
330
1D
100
AcDbEntity
  8
SK6
100
AcDbLine
 10
-51.83646393
 20
-31.35199356
 30
0.0
 11
-47.42647171
 21
-47.55199814
 31
0.0
  0
LINE
  5
10F
330
1D
100
AcDbEntity
  8
SK6
100
AcDbLine
 10
-54.89646912
 20
-31.35199356
 30
0.0
 11
-51.83647156
 21
-31.35199356
 31
0.0
  0
LINE
  5
110
330
1D
100
AcDbEntity
  8
SK6
100
AcDbLine
 10
-57.95646667
 20
-47.55199814
 30
0.0
 11
-54.89646912
 21
-31.35199356
 31
0.0
  0
LINE
  5
111
330
1D
100
AcDbEntity
  8
SK3
100
AcDbLine
 10
-23.068014883
 20
-6.5
 30
0.0
 11
0.0
 21
-6.5
 31
0.0
  0
LINE
  5
112
330
1D
100
AcDbEntity
  8
SK3
100
AcDbLine
 10
0.0
 20
6.500000000000002
 30
0.0
 11
-23.068014883
 21
6.5
 31
0.0
  0
LINE
  5
113
330
1D
100
AcDbEntity
  8
3
100
AcDbLine
 10
80.216112638
 20
6.5
 30
0.0
 11
80.216112638
 21
-6.5
 31
0.0
  0
LINE
  5
114
330
1D
100
AcDbEntity
  8
3
100
AcDbLine
 10
128.99998474
 20
18.00325
 30
0.0
 11
90.69435551
 21
18.00325
 31
0.0
  0
LINE
  5
115
330
1D
100
AcDbEntity
  8
3
100
AcDbLine
 10
90.69435551
 20
18.00325
 30
0.0
 11
90.266967009
 21
18.25
 31
0.0
  0
LINE
  5
116
330
1D
100
AcDbEntity
  8
3
100
AcDbLine
 10
90.266967009
 20
18.25
 30
0.0
 11
86.99998474
 21
18.25
 31
0.0
  0
LINE
  5
117
330
1D
100
AcDbEntity
  8
3
100
AcDbLine
 10
86.99998474
 20
18.25
 30
0.0
 11
80.216112638
 21
6.5
 31
0.0
  0
LINE
  5
118
330
1D
100
AcDbEntity
  8
3
100
AcDbLine
 10
80.216112638
 20
-6.5
 30
0.0
 11
86.99998474
 21
-18.25
 31
0.0
  0
LINE
  5
119
330
1D
100
AcDbEntity
  8
3
100
AcDbLine
 10
86.99998474
 20
-18.25
 30
0.0
 11
90.266978453
 21
-18.25
 31
0.0
  0
LINE
  5
11A
330
1D
100
AcDbEntity
  8
3
100
AcDbLine
 10
90.266978453
 20
-18.25
 30
0.0
 11
90.694355658
 21
-18.00325
 31
0.0
  0
LINE
  5
11B
330
1D
100
AcDbEntity
  8
3
100
AcDbLine
 10
90.694355658
 20
-18.00325
 30
0.0
 11
128.99998474
 21
-18.00325
 31
0.0
  0
LINE
  5
11C
330
1D
100
AcDbEntity
  8
3
100
AcDbLine
 10
86.99998474
 20
-18.25
 30
0.0
 11
86.99998474
 21
18.25
 31
0.0
  0
LINE
  5
11D
330
1D
100
AcDbEntity
  8
3
100
AcDbLine
 10
90.266967009
 20
18.25
 30
0.0
 11
90.266967009
 21
-18.25
 31
0.0
  0
LINE
  5
11E
330
1D
100
AcDbEntity
  8
3
100
AcDbLine
 10
90.69435551
 20
18.00325
 30
0.0
 11
90.69435551
 21
-18.00325
 31
0.0
  0
LINE
  5
1BF
330
1D
100
AcDbEntity
  8
NOCUT
100
AcDbLine
 10
19.8500061
 20
25.0
 30
0.0
 11
35.0
 21
25.0
 31
0.0
  0
LINE
  5
1C0
330
1D
100
AcDbEntity
  8
NOCUT
100
AcDbLine
 10
35.0
 20
25.0
 30
0.0
 11
42.00001526
 21
31.75001526
 31
0.0
  0
LINE
  5
1C1
330
1D
100
AcDbEntity
  8
NOCUT
100
AcDbLine
 10
42.00001526
 20
31.75001526
 30
0.0
 11
127.99998474
 21
31.75001526
 31
0.0
  0
LINE
  5
1C2
330
1D
100
AcDbEntity
  8
NOCUT
100
AcDbLine
 10
127.99998474
 20
31.75001526
 30
0.0
 11
128.99998474
 21
30.75001526
 31
0.0
  0
LINE
  5
1C3
330
1D
100
AcDbEntity
  8
NOCUT
100
AcDbLine
 10
128.99998474
 20
30.75001526
 30
0.0
 11
128.99998474
 21
0.0000000000000036
 31
0.0
  0
LINE
  5
1C4
330
1D
100
AcDbEntity
  8
NOCUT
100
AcDbLine
 10
128.99998474
 20
0.0000000000000036
 30
0.0
 11
0.0
 21
0.0
 31
0.0
  0
LINE
  5
1C5
330
1D
100
AcDbEntity
  8
NOCUT
100
AcDbLine
 10
0.0
 20
0.0
 30
0.0
 11
0.0
 21
22.2250061
 31
0.0
  0
LINE
  5
1C6
330
1D
100
AcDbEntity
  8
NOCUT
100
AcDbLine
 10
0.0
 20
22.2250061
 30
0.0
 11
2.406385354506702
 21
22.22504689199178
 31
0.0
  0
LINE
  5
1C7
330
1D
100
AcDbEntity
  8
NOCUT
100
AcDbLine
 10
3.19999695
 20
23.02502441
 30
0.0
 11
3.19999695
 21
31.25
 31
0.0
  0
LINE
  5
1C8
330
1D
100
AcDbEntity
  8
NOCUT
100
AcDbLine
 10
3.19999695
 20
31.25
 30
0.0
 11
3.69999695
 21
31.75
 31
0.0
  0
LINE
  5
1C9
330
1D
100
AcDbEntity
  8
NOCUT
100
AcDbLine
 10
3.69999695
 20
31.75
 30
0.0
 11
7.57815552
 21
31.75
 31
0.0
  0
LINE
  5
1CA
330
1D
100
AcDbEntity
  8
NOCUT
100
AcDbLine
 10
7.57815552
 20
31.75
 30
0.0
 11
9.17498779
 21
28.98422241
 31
0.0
  0
LINE
  5
1CB
330
1D
100
AcDbEntity
  8
NOCUT
100
AcDbLine
 10
9.17498779
 20
28.98422241
 30
0.0
 11
9.17498779
 21
28.5
 31
0.0
  0
LINE
  5
1CC
330
1D
100
AcDbEntity
  8
NOCUT
100
AcDbLine
 10
9.67498779
 20
28.0
 30
0.0
 11
12.5249939
 21
28.0
 31
0.0
  0
LINE
  5
1CD
330
1D
100
AcDbEntity
  8
NOCUT
100
AcDbLine
 10
13.0249939
 20
28.5
 30
0.0
 11
13.0249939
 21
28.98422241
 31
0.0
  0
LINE
  5
1CE
330
1D
100
AcDbEntity
  8
NOCUT
100
AcDbLine
 10
13.0249939
 20
28.98422241
 30
0.0
 11
14.62182617
 21
31.75001526
 31
0.0
  0
LINE
  5
1CF
330
1D
100
AcDbEntity
  8
NOCUT
100
AcDbLine
 10
14.62182617
 20
31.75001526
 30
0.0
 11
18.5532029268563
 21
31.75001526
 31
0.0
  0
LINE
  5
1D0
330
1D
100
AcDbEntity
  8
NOCUT
100
AcDbLine
 10
18.5532029268563
 20
31.75001526
 30
0.0
 11
19.05000305
 21
31.25
 31
0.0
  0
LINE
  5
1D1
330
1D
100
AcDbEntity
  8
NOCUT
100
AcDbLine
 10
19.05000305
 20
31.25
 30
0.0
 11
19.05000305
 21
25.80000305
 31
0.0
  0
ARC
  5
1D2
330
1D
100
AcDbEntity
  8
NOCUT
100
AcDbCircle
 10
19.85000610010291
 20
25.80000305024845
 30
0.0
 40
0.8000030502484482
100
AcDbArc
 50
179.9989071049667
 51
269.9999999926296
  0
ARC
  5
1D3
330
1D
100
AcDbEntity
  8
NOCUT
100
AcDbCircle
 10
12.5249939
 20
28.5
 30
0.0
 40
0.5000000000000024
100
AcDbArc
 50
270.0000000000002
 51
359.9999999999996
  0
ARC
  5
1D4
330
1D
100
AcDbEntity
  8
NOCUT
100
AcDbCircle
 10
9.674987790000001
 20
28.5
 30
0.0
 40
0.5000000000000024
100
AcDbArc
 50
180.0000000000004
 51
269.9999999999998
  0
ARC
  5
1D5
330
1D
100
AcDbEntity
  8
NOCUT
100
AcDbCircle
 10
2.399993899999999
 20
23.02502441
 30
0.0
 40
0.800003050000001
100
AcDbArc
 50
270.0000000000001
 51
0.0
  0
LWPOLYLINE
  5
1D7
330
1D
100
AcDbEntity
  8
INFTOTAL
100
AcDbPolyline
 90
        4
 70
     1
 43
0.0
 10
-127.0374157368025
 20
-61.89254660317056
 10
-127.0374157368025
 20
66.74658173183164
 10
221.8081743589822
 20
66.74658173183164
 10
221.8081743589822
 20
-61.89254660317056
  0
LINE
  5
20A
330
1D
100
AcDbEntity
  8
1
100
AcDbLine
 10
0.0
 20
22.2250061
 30
0.0
 11
0.0
 21
-22.22499084
 31
0.0
  0
LINE
  5
21B
330
1D
100
AcDbEntity
  8
3
100
AcDbLine
 10
80.216112638
 20
6.5
 30
0.0
 11
0.0
 21
6.500000000000002
 31
0.0
  0
LINE
  5
21C
330
1D
100
AcDbEntity
  8
3
100
AcDbLine
 10
0.0
 20
-6.5
 30
0.0
 11
80.216112638
 21
-6.5
 31
0.0
  0
LINE
  5
230
330
1D
100
AcDbEntity
  8
4
100
AcDbLine
 10
112.94998169
 20
7.0
 30
0.0
 11
112.94998169
 21
-7.0
 31
0.0
  0
LINE
  5
232
330
1D
100
AcDbEntity
  8
4
100
AcDbLine
 10
130.99998474
 20
0.0
 30
0.0
 11
0.0
 21
0.0
 31
0.0
  0
ENDSEC
  0
SECTION
  2
OBJECTS
  0
DICTIONARY
  5
C
330
0
100
AcDbDictionary
281
     1
  3
ACAD_DETAILVIEWSTYLE
350
200
  3
ACAD_GROUP
350
D
  3
ACAD_LAYOUT
350
1A
  3
ACAD_MATERIAL
350
15C
  3
ACAD_MLEADERSTYLE
350
169
  3
ACAD_MLINESTYLE
350
17
  3
ACAD_PLOTSETTINGS
350
19
  3
ACAD_PLOTSTYLENAME
350
E
  3
ACAD_SCALELIST
350
125
  3
ACAD_SECTIONVIEWSTYLE
350
201
  3
ACAD_TABLESTYLE
350
1B2
  3
ACAD_VISUALSTYLE
350
14B
  3
ACDB_RECOMPOSE_DATA
350
28C
  3
AcDbVariableDictionary
350
167
  3
APPDATA
350
1B5
  0
SUN
  5
202
330
11F
100
AcDbSun
 90
        1
290
     0
 63
     7
421
 16777215
 40
1.0
291
     1
 91
  2455826
 92
 54000000
292
     0
 70
     2
 71
   256
280
     1
  0
DICTIONARY
  5
1B6
330
2
100
AcDbDictionary
280
     1
281
     1
  3
ACAD_LAYERSTATES
360
1B7
  0
DICTIONARY
  5
200
102
{ACAD_REACTORS
330
C
102
}
330
C
100
AcDbDictionary
281
     1
  0
DICTIONARY
  5
D
102
{ACAD_REACTORS
330
C
102
}
330
C
100
AcDbDictionary
281
     1
  0
DICTIONARY
  5
1A
102
{ACAD_REACTORS
330
C
102
}
330
C
100
AcDbDictionary
281
     1
  3
Layout1
350
1C
  3
Model
350
1E
  0
DICTIONARY
  5
15C
102
{ACAD_REACTORS
330
C
102
}
330
C
100
AcDbDictionary
281
     1
  3
ByBlock
350
15E
  3
ByLayer
350
15D
  3
Global
350
15F
  0
DICTIONARY
  5
169
102
{ACAD_REACTORS
330
C
102
}
330
C
100
AcDbDictionary
281
     1
  3
Standard
350
1B4
  0
DICTIONARY
  5
17
102
{ACAD_REACTORS
330
C
102
}
330
C
100
AcDbDictionary
281
     1
  3
Standard
350
18
  0
DICTIONARY
  5
19
102
{ACAD_REACTORS
330
C
102
}
330
C
100
AcDbDictionary
281
     1
  0
ACDBDICTIONARYWDFLT
  5
E
102
{ACAD_REACTORS
330
C
102
}
330
C
100
AcDbDictionary
281
     1
  3
Normal
350
F
100
AcDbDictionaryWithDefault
340
F
  0
DICTIONARY
  5
125
102
{ACAD_REACTORS
330
C
102
}
330
C
100
AcDbDictionary
281
     1
  3
A0
350
126
  3
A1
350
127
  3
A2
350
128
  3
A3
350
129
  3
A4
350
12A
  3
A5
350
12B
  3
A6
350
12C
  3
A7
350
12D
  3
A8
350
12E
  3
A9
350
12F
  3
B0
350
130
  3
B1
350
131
  3
B2
350
132
  3
B3
350
133
  3
B4
350
134
  3
B5
350
135
  3
B6
350
136
  3
B7
350
137
  3
B8
350
138
  3
B9
350
139
  3
C0
350
13A
  3
C1
350
13B
  3
C2
350
13C
  3
C3
350
13D
  3
C4
350
13E
  3
C5
350
13F
  3
C6
350
140
  3
C7
350
141
  3
C8
350
142
  3
C9
350
143
  3
D0
350
144
  3
D1
350
145
  3
D2
350
146
  0
DICTIONARY
  5
201
102
{ACAD_REACTORS
330
C
102
}
330
C
100
AcDbDictionary
281
     1
  0
DICTIONARY
  5
1B2
102
{ACAD_REACTORS
330
C
102
}
330
C
100
AcDbDictionary
281
     1
  3
Standard
350
1B3
  0
DICTIONARY
  5
14B
102
{ACAD_REACTORS
330
C
102
}
330
C
100
AcDbDictionary
281
     1
  3
2dWireframe
350
150
  3
3D Hidden
350
152
  3
3dWireframe
350
151
  3
Basic
350
153
  3
Brighten
350
157
  3
ColorChange
350
15B
  3
Conceptual
350
155
  3
Dim
350
156
  3
EdgeColorOff
350
1AC
  3
Facepattern
350
15A
  3
Flat
350
14C
  3
FlatWithEdges
350
14D
  3
Gouraud
350
14E
  3
GouraudWithEdges
350
14F
  3
Hidden
350
1A9
  3
JitterOff
350
1AA
  3
Linepattern
350
159
  3
OverhangOff
350
1AB
  3
Realistic
350
154
  3
Shaded
350
1B1
  3
Shaded with edges
350
1B0
  3
Shades of Gray
350
1AD
  3
Sketchy
350
1AE
  3
Thicken
350
158
  3
Wireframe
350
1A8
  3
X-Ray
350
1AF
  0
XRECORD
  5
28C
102
{ACAD_REACTORS
330
C
102
}
330
C
100
AcDbXrecord
280
     1
 90
        1
330
1B3
  0
DICTIONARY
  5
167
102
{ACAD_REACTORS
330
C
102
}
330
C
100
AcDbDictionary
281
     1
  3
CANNOSCALE
350
1FD
  3
CMLEADERSTYLE
350
1FF
  3
CTABLESTYLE
350
1FE
  3
DIMASSOC
350
16B
  3
HIDETEXT
350
16C
  3
MSLTSCALE
350
16A
  0
DICTIONARY
  5
1B5
102
{ACAD_REACTORS
330
C
102
}
330
C
100
AcDbDictionary
281
     1
  0
DICTIONARY
  5
1B7
102
{ACAD_REACTORS
330
1B6
102
}
330
1B6
100
AcDbDictionary
281
     1
  0
LAYOUT
  5
1C
102
{ACAD_REACTORS
330
1A
102
}
330
1A
100
AcDbPlotSettings
  1

  2
none_device
  4

  6

 40
0.0
 41
0.0
 42
0.0
 43
0.0
 44
0.0
 45
0.0
 46
0.0
 47
0.0
 48
0.0
 49
0.0
140
0.0
141
0.0
142
1.0
143
1.0
 70
   688
 72
     0
 73
     0
 74
     5
  7

 75
    16
 76
     0
 77
     2
 78
   300
147
1.0
148
0.0
149
0.0
100
AcDbLayout
  1
Layout1
 70
     1
 71
     1
 10
0.0
 20
0.0
 11
12.0
 21
9.0
 12
0.0
 22
0.0
 32
0.0
 14
1.000000000000000E+20
 24
1.000000000000000E+20
 34
1.000000000000000E+20
 15
-1.000000000000000E+20
 25
-1.000000000000000E+20
 35
-1.000000000000000E+20
146
0.0
 13
0.0
 23
0.0
 33
0.0
 16
1.0
 26
0.0
 36
0.0
 17
0.0
 27
1.0
 37
0.0
 76
     0
330
1B
  0
LAYOUT
  5
1E
102
{ACAD_REACTORS
330
1A
102
}
330
1A
100
AcDbPlotSettings
  1

  2
none_device
  4

  6

 40
0.0
 41
0.0
 42
0.0
 43
0.0
 44
0.0
 45
0.0
 46
0.0
 47
0.0
 48
0.0
 49
0.0
140
0.0
141
0.0
142
1.0
143
1.0
 70
  1712
 72
     0
 73
     0
 74
     0
  7

 75
     0
 76
     0
 77
     2
 78
   300
147
1.0
148
0.0
149
0.0
100
AcDbLayout
  1
Model
 70
     1
 71
     0
 10
0.0
 20
0.0
 11
12.0
 21
9.0
 12
0.0
 22
0.0
 32
0.0
 14
-127.0374157368025
 24
-61.89254660317056
 34
0.0
 15
221.8081743589822
 25
66.74658173183164
 35
0.0
146
0.0
 13
0.0
 23
0.0
 33
0.0
 16
1.0
 26
0.0
 36
0.0
 17
0.0
 27
1.0
 37
0.0
 76
     0
330
1D
331
11F
  0
MATERIAL
  5
15E
102
{ACAD_REACTORS
330
15C
102
}
330
15C
100
AcDbMaterial
  1
ByBlock
 72
     1
 94
      127
  0
MATERIAL
  5
15D
102
{ACAD_REACTORS
330
15C
102
}
330
15C
100
AcDbMaterial
  1
ByLayer
 72
     1
 94
      127
  0
MATERIAL
  5
15F
102
{ACAD_REACTORS
330
15C
102
}
330
15C
100
AcDbMaterial
  1
Global
 72
     1
 94
      127
  0
MLEADERSTYLE
  5
1B4
102
{ACAD_REACTORS
330
169
102
}
330
169
100
AcDbMLeaderStyle
179
     2
170
     2
171
     1
172
     0
 90
        2
 40
0.0
 41
0.0
173
     1
 91
-1056964608
340
14
 92
       -2
290
     1
 42
0.09
291
     1
 43
0.36
  3
Standard
341
0
 44
0.18
300

342
11
174
     1
178
     1
175
     1
176
     0
 93
-1056964608
 45
0.18
292
     0
297
     0
 46
0.18
343
0
 94
-1056964608
 47
1.0
 49
1.0
140
1.0
293
     1
141
0.0
294
     1
177
     0
142
1.0
295
     0
296
     0
143
0.125
271
     0
272
     9
273
     9
298
     0
  0
MLINESTYLE
  5
18
102
{ACAD_REACTORS
330
17
102
}
330
17
100
AcDbMlineStyle
  2
Standard
 70
     0
  3

 62
   256
 51
90.0
 52
90.0
 71
     2
 49
0.5
 62
   256
  6
BYLAYER
 49
-0.5
 62
   256
  6
BYLAYER
  0
ACDBPLACEHOLDER
  5
F
102
{ACAD_REACTORS
330
E
102
}
330
E
  0
SCALE
  5
126
102
{ACAD_REACTORS
330
125
102
}
330
125
100
AcDbScale
 70
     0
300
1:1
140
1.0
141
1.0
290
     1
  0
SCALE
  5
127
102
{ACAD_REACTORS
330
125
102
}
330
125
100
AcDbScale
 70
     0
300
1:2
140
1.0
141
2.0
290
     0
  0
SCALE
  5
128
102
{ACAD_REACTORS
330
125
102
}
330
125
100
AcDbScale
 70
     0
300
1:4
140
1.0
141
4.0
290
     0
  0
SCALE
  5
129
102
{ACAD_REACTORS
330
125
102
}
330
125
100
AcDbScale
 70
     0
300
1:5
140
1.0
141
5.0
290
     0
  0
SCALE
  5
12A
102
{ACAD_REACTORS
330
125
102
}
330
125
100
AcDbScale
 70
     0
300
1:8
140
1.0
141
8.0
290
     0
  0
SCALE
  5
12B
102
{ACAD_REACTORS
330
125
102
}
330
125
100
AcDbScale
 70
     0
300
1:10
140
1.0
141
10.0
290
     0
  0
SCALE
  5
12C
102
{ACAD_REACTORS
330
125
102
}
330
125
100
AcDbScale
 70
     0
300
1:16
140
1.0
141
16.0
290
     0
  0
SCALE
  5
12D
102
{ACAD_REACTORS
330
125
102
}
330
125
100
AcDbScale
 70
     0
300
1:20
140
1.0
141
20.0
290
     0
  0
SCALE
  5
12E
102
{ACAD_REACTORS
330
125
102
}
330
125
100
AcDbScale
 70
     0
300
1:30
140
1.0
141
30.0
290
     0
  0
SCALE
  5
12F
102
{ACAD_REACTORS
330
125
102
}
330
125
100
AcDbScale
 70
     0
300
1:40
140
1.0
141
40.0
290
     0
  0
SCALE
  5
130
102
{ACAD_REACTORS
330
125
102
}
330
125
100
AcDbScale
 70
     0
300
1:50
140
1.0
141
50.0
290
     0
  0
SCALE
  5
131
102
{ACAD_REACTORS
330
125
102
}
330
125
100
AcDbScale
 70
     0
300
1:100
140
1.0
141
100.0
290
     0
  0
SCALE
  5
132
102
{ACAD_REACTORS
330
125
102
}
330
125
100
AcDbScale
 70
     0
300
2:1
140
2.0
141
1.0
290
     0
  0
SCALE
  5
133
102
{ACAD_REACTORS
330
125
102
}
330
125
100
AcDbScale
 70
     0
300
4:1
140
4.0
141
1.0
290
     0
  0
SCALE
  5
134
102
{ACAD_REACTORS
330
125
102
}
330
125
100
AcDbScale
 70
     0
300
8:1
140
8.0
141
1.0
290
     0
  0
SCALE
  5
135
102
{ACAD_REACTORS
330
125
102
}
330
125
100
AcDbScale
 70
     0
300
10:1
140
10.0
141
1.0
290
     0
  0
SCALE
  5
136
102
{ACAD_REACTORS
330
125
102
}
330
125
100
AcDbScale
 70
     0
300
100:1
140
100.0
141
1.0
290
     0
  0
SCALE
  5
137
102
{ACAD_REACTORS
330
125
102
}
330
125
100
AcDbScale
 70
     0
300
1/128" = 1'-0"
140
0.0078125
141
12.0
290
     0
  0
SCALE
  5
138
102
{ACAD_REACTORS
330
125
102
}
330
125
100
AcDbScale
 70
     0
300
1/64" = 1'-0"
140
0.015625
141
12.0
290
     0
  0
SCALE
  5
139
102
{ACAD_REACTORS
330
125
102
}
330
125
100
AcDbScale
 70
     0
300
1/32" = 1'-0"
140
0.03125
141
12.0
290
     0
  0
SCALE
  5
13A
102
{ACAD_REACTORS
330
125
102
}
330
125
100
AcDbScale
 70
     0
300
1/16" = 1'-0"
140
0.0625
141
12.0
290
     0
  0
SCALE
  5
13B
102
{ACAD_REACTORS
330
125
102
}
330
125
100
AcDbScale
 70
     0
300
3/32" = 1'-0"
140
0.09375
141
12.0
290
     0
  0
SCALE
  5
13C
102
{ACAD_REACTORS
330
125
102
}
330
125
100
AcDbScale
 70
     0
300
1/8" = 1'-0"
140
0.125
141
12.0
290
     0
  0
SCALE
  5
13D
102
{ACAD_REACTORS
330
125
102
}
330
125
100
AcDbScale
 70
     0
300
3/16" = 1'-0"
140
0.1875
141
12.0
290
     0
  0
SCALE
  5
13E
102
{ACAD_REACTORS
330
125
102
}
330
125
100
AcDbScale
 70
     0
300
1/4" = 1'-0"
140
0.25
141
12.0
290
     0
  0
SCALE
  5
13F
102
{ACAD_REACTORS
330
125
102
}
330
125
100
AcDbScale
 70
     0
300
3/8" = 1'-0"
140
0.375
141
12.0
290
     0
  0
SCALE
  5
140
102
{ACAD_REACTORS
330
125
102
}
330
125
100
AcDbScale
 70
     0
300
1/2" = 1'-0"
140
0.5
141
12.0
290
     0
  0
SCALE
  5
141
102
{ACAD_REACTORS
330
125
102
}
330
125
100
AcDbScale
 70
     0
300
3/4" = 1'-0"
140
0.75
141
12.0
290
     0
  0
SCALE
  5
142
102
{ACAD_REACTORS
330
125
102
}
330
125
100
AcDbScale
 70
     0
300
1" = 1'-0"
140
1.0
141
12.0
290
     0
  0
SCALE
  5
143
102
{ACAD_REACTORS
330
125
102
}
330
125
100
AcDbScale
 70
     0
300
1-1/2" = 1'-0"
140
1.5
141
12.0
290
     0
  0
SCALE
  5
144
102
{ACAD_REACTORS
330
125
102
}
330
125
100
AcDbScale
 70
     0
300
3" = 1'-0"
140
3.0
141
12.0
290
     0
  0
SCALE
  5
145
102
{ACAD_REACTORS
330
125
102
}
330
125
100
AcDbScale
 70
     0
300
6" = 1'-0"
140
6.0
141
12.0
290
     0
  0
SCALE
  5
146
102
{ACAD_REACTORS
330
125
102
}
330
125
100
AcDbScale
 70
     0
300
1'-0" = 1'-0"
140
12.0
141
12.0
290
     0
  0
TABLESTYLE
  5
1B3
102
{ACAD_REACTORS
330
1B2
102
}
102
{ACAD_XDICTIONARY
360
28A
102
}
330
1B2
100
AcDbTableStyle
  3
Standard
 70
     0
 71
     0
 40
0.06
 41
0.06
280
     0
281
     0
  7
Standard
140
0.18
170
     2
 62
     0
 63
   257
283
     0
 90
        4
 91
        0
  1

274
    -2
284
     1
 64
     0
275
    -2
285
     1
 65
     0
276
    -2
286
     1
 66
     0
277
    -2
287
     1
 67
     0
278
    -2
288
     1
 68
     0
279
    -2
289
     1
 69
     0
  7
Standard
140
0.25
170
     5
 62
     0
 63
   257
283
     0
 90
        4
 91
        0
  1

274
    -2
284
     1
 64
     0
275
    -2
285
     1
 65
     0
276
    -2
286
     1
 66
     0
277
    -2
287
     1
 67
     0
278
    -2
288
     1
 68
     0
279
    -2
289
     1
 69
     0
  7
Standard
140
0.18
170
     5
 62
     0
 63
   257
283
     0
 90
        4
 91
        0
  1

274
    -2
284
     1
 64
     0
275
    -2
285
     1
 65
     0
276
    -2
286
     1
 66
     0
277
    -2
287
     1
 67
     0
278
    -2
288
     1
 68
     0
279
    -2
289
     1
 69
     0
  0
VISUALSTYLE
  5
150
102
{ACAD_REACTORS
330
14B
102
}
330
14B
100
AcDbVisualStyle
  2
2dWireframe
 70
     4
177
     3
291
     0
 70
    58
 90
        0
176
     1
 90
        2
176
     1
 90
        0
176
     1
 90
        0
176
     1
 40
-0.6
176
     1
 40
-30.0
176
     1
 62
     7
176
     1
 90
        1
176
     1
 90
        4
176
     1
 62
     7
176
     1
 62
   257
176
     1
 90
        1
176
     1
 90
        1
176
     1
 40
1.0
176
     1
 90
        0
176
     1
 62
   257
176
     1
 40
1.0
176
     1
 90
        1
176
     1
 90
        6
176
     1
 90
        2
176
     1
 62
     7
176
     1
 90
        5
176
     1
 90
        0
176
     1
 90
        0
176
     1
290
     0
176
     1
 90
        1
176
     1
 40
0.0
176
     1
 90
        0
176
     1
290
     1
176
     1
290
     1
176
     1
290
     0
176
     1
290
     0
176
     1
290
     0
176
     1
290
     0
176
     1
290
     0
176
     1
290
     0
176
     1
290
     0
176
     1
 90
       50
176
     1
 40
0.0
176
     1
 40
1.0
176
     1
 90
        0
176
     1
 62
    18
420
        0
176
     1
 90
       50
176
     1
 90
        3
176
     1
 62
     5
420
      255
176
     1
290
     0
176
     1
 90
       50
176
     1
 90
       50
176
     1
 90
       50
176
     1
290
     0
176
     1
 90
       50
176
     1
 62
   256
176
     0
 40
1.0
176
     0
 90
        2
176
     1
  1
strokes_ogs.tif
176
     1
290
     0
176
     1
 40
1.0
176
     1
 40
1.0
176
     1
  0
VISUALSTYLE
  5
152
102
{ACAD_REACTORS
330
14B
102
}
330
14B
100
AcDbVisualStyle
  2
3D Hidden
 70
     6
177
     3
291
     0
 70
    58
 90
        1
176
     1
 90
        2
176
     1
 90
        2
176
     1
 90
        0
176
     1
 40
-0.6
176
     1
 40
-30.0
176
     1
 62
     7
176
     1
 90
        2
176
     1
 90
        2
176
     1
 62
     7
176
     1
 62
   257
176
     1
 90
        2
176
     1
 90
        1
176
     1
 40
40.0
176
     1
 90
        0
176
     1
 62
   257
176
     1
 40
1.0
176
     1
 90
        1
176
     1
 90
        6
176
     1
 90
        2
176
     1
 62
     7
176
     1
 90
        3
176
     1
 90
        0
176
     1
 90
        0
176
     1
290
     0
176
     1
 90
        1
176
     1
 40
0.0
176
     1
 90
        0
176
     1
290
     0
176
     1
290
     1
176
     1
290
     1
176
     1
290
     0
176
     1
290
     0
176
     1
290
     0
176
     1
290
     0
176
     1
290
     0
176
     1
290
     0
176
     1
 90
       50
176
     1
 40
0.0
176
     1
 40
1.0
176
     1
 90
        0
176
     1
 62
    18
420
        0
176
     1
 90
       50
176
     1
 90
        3
176
     1
 62
     5
420
      255
176
     1
290
     0
176
     1
 90
       50
176
     1
 90
       50
176
     1
 90
       50
176
     1
290
     0
176
     1
 90
       50
176
     1
 62
   256
176
     0
 40
1.0
176
     0
 90
        2
176
     1
  1
strokes_ogs.tif
176
     1
290
     0
176
     1
 40
1.0
176
     1
 40
1.0
176
     1
  0
VISUALSTYLE
  5
151
102
{ACAD_REACTORS
330
14B
102
}
330
14B
100
AcDbVisualStyle
  2
3dWireframe
 70
     5
177
     3
291
     0
 70
    58
 90
        0
176
     1
 90
        2
176
     1
 90
        0
176
     1
 90
        0
176
     1
 40
-0.6
176
     1
 40
-30.0
176
     1
 62
     7
176
     1
 90
        1
176
     1
 90
        4
176
     1
 62
     7
176
     1
 62
   257
176
     1
 90
        1
176
     1
 90
        1
176
     1
 40
1.0
176
     1
 90
        0
176
     1
 62
   257
176
     1
 40
1.0
176
     1
 90
        1
176
     1
 90
        6
176
     1
 90
        2
176
     1
 62
     7
176
     1
 90
        5
176
     1
 90
        0
176
     1
 90
        0
176
     1
290
     0
176
     1
 90
        1
176
     1
 40
0.0
176
     1
 90
        0
176
     1
290
     0
176
     1
290
     1
176
     1
290
     1
176
     1
290
     0
176
     1
290
     0
176
     1
290
     0
176
     1
290
     0
176
     1
290
     0
176
     1
290
     0
176
     1
 90
       50
176
     1
 40
0.0
176
     1
 40
1.0
176
     1
 90
        0
176
     1
 62
    18
420
        0
176
     1
 90
       50
176
     1
 90
        3
176
     1
 62
     5
420
      255
176
     1
290
     0
176
     1
 90
       50
176
     1
 90
       50
176
     1
 90
       50
176
     1
290
     0
176
     1
 90
       50
176
     1
 62
   256
176
     0
 40
1.0
176
     0
 90
        2
176
     1
  1
strokes_ogs.tif
176
     1
290
     0
176
     1
 40
1.0
176
     1
 40
1.0
176
     1
  0
VISUALSTYLE
  5
153
102
{ACAD_REACTORS
330
14B
102
}
330
14B
100
AcDbVisualStyle
  2
Basic
 70
     7
177
     3
291
     1
 70
    58
 90
        1
176
     1
 90
        0
176
     1
 90
        1
176
     1
 90
        0
176
     1
 40
-0.6
176
     1
 40
-30.0
176
     1
 62
     7
176
     1
 90
        0
176
     1
 90
        4
176
     1
 62
     7
176
     1
 62
   257
176
     1
 90
        1
176
     1
 90
        1
176
     1
 40
1.0
176
     1
 90
        8
176
     1
 62
     7
176
     1
 40
1.0
176
     1
 90
        1
176
     1
 90
        6
176
     1
 90
        2
176
     1
 62
     7
176
     1
 90
        5
176
     1
 90
        0
176
     1
 90
        0
176
     1
290
     0
176
     1
 90
        1
176
     1
 40
0.0
176
     1
 90
        0
176
     1
290
     0
176
     1
290
     1
176
     1
290
     1
176
     1
290
     0
176
     1
290
     0
176
     1
290
     0
176
     1
290
     0
176
     1
290
     0
176
     1
290
     0
176
     1
 90
       50
176
     1
 40
0.0
176
     1
 40
1.0
176
     1
 90
        0
176
     1
 62
    18
420
        0
176
     1
 90
       50
176
     1
 90
        3
176
     1
 62
     5
420
      255
176
     1
290
     0
176
     1
 90
       50
176
     1
 90
       50
176
     1
 90
       50
176
     1
290
     0
176
     1
 90
       50
176
     1
 62
   256
176
     0
 40
1.0
176
     0
 90
        2
176
     1
  1
strokes_ogs.tif
176
     1
290
     0
176
     1
 40
1.0
176
     1
 40
1.0
176
     1
  0
VISUALSTYLE
  5
157
102
{ACAD_REACTORS
330
14B
102
}
330
14B
100
AcDbVisualStyle
  2
Brighten
 70
    12
177
     3
291
     1
 70
    58
 90
        2
176
     1
 90
        2
176
     1
 90
        0
176
     1
 90
        0
176
     1
 40
-0.6
176
     1
 40
-30.0
176
     1
 62
     7
176
     1
 90
        1
176
     1
 90
        4
176
     1
 62
     7
176
     1
 62
   257
176
     1
 90
        1
176
     1
 90
        1
176
     1
 40
1.0
176
     1
 90
        8
176
     1
 62
     7
176
     1
 40
1.0
176
     1
 90
        1
176
     1
 90
        6
176
     1
 90
        2
176
     1
 62
     7
176
     1
 90
        5
176
     1
 90
        0
176
     1
 90
        0
176
     1
290
     0
176
     1
 90
        1
176
     1
 40
50.0
176
     1
 90
        0
176
     1
290
     0
176
     1
290
     1
176
     1
290
     1
176
     1
290
     0
176
     1
290
     0
176
     1
290
     0
176
     1
290
     0
176
     1
290
     0
176
     1
290
     0
176
     1
 90
       50
176
     1
 40
0.0
176
     1
 40
1.0
176
     1
 90
        0
176
     1
 62
    18
420
        0
176
     1
 90
       50
176
     1
 90
        3
176
     1
 62
     5
420
      255
176
     1
290
     0
176
     1
 90
       50
176
     1
 90
       50
176
     1
 90
       50
176
     1
290
     0
176
     1
 90
       50
176
     1
 62
   256
176
     0
 40
1.0
176
     0
 90
        2
176
     1
  1
strokes_ogs.tif
176
     1
290
     0
176
     1
 40
1.0
176
     1
 40
1.0
176
     1
  0
VISUALSTYLE
  5
15B
102
{ACAD_REACTORS
330
14B
102
}
330
14B
100
AcDbVisualStyle
  2
ColorChange
 70
    16
177
     3
291
     1
 70
    58
 90
        2
176
     1
 90
        2
176
     1
 90
        3
176
     1
 90
        0
176
     1
 40
-0.6
176
     1
 40
-30.0
176
     1
 62
     8
176
     1
 90
        1
176
     1
 90
        4
176
     1
 62
     7
176
     1
 62
   257
176
     1
 90
        1
176
     1
 90
        1
176
     1
 40
1.0
176
     1
 90
        8
176
     1
 62
     8
176
     1
 40
1.0
176
     1
 90
        1
176
     1
 90
        6
176
     1
 90
        2
176
     1
 62
     7
176
     1
 90
        5
176
     1
 90
        0
176
     1
 90
        0
176
     1
290
     0
176
     1
 90
        1
176
     1
 40
0.0
176
     1
 90
        0
176
     1
290
     0
176
     1
290
     1
176
     1
290
     1
176
     1
290
     0
176
     1
290
     0
176
     1
290
     0
176
     1
290
     0
176
     1
290
     0
176
     1
290
     0
176
     1
 90
       50
176
     1
 40
0.0
176
     1
 40
1.0
176
     1
 90
        0
176
     1
 62
    18
420
        0
176
     1
 90
       50
176
     1
 90
        3
176
     1
 62
     5
420
      255
176
     1
290
     0
176
     1
 90
       50
176
     1
 90
       50
176
     1
 90
       50
176
     1
290
     0
176
     1
 90
       50
176
     1
 62
   256
176
     0
 40
1.0
176
     0
 90
        2
176
     1
  1
strokes_ogs.tif
176
     1
290
     0
176
     1
 40
1.0
176
     1
 40
1.0
176
     1
  0
VISUALSTYLE
  5
155
102
{ACAD_REACTORS
330
14B
102
}
330
14B
100
AcDbVisualStyle
  2
Conceptual
 70
     9
177
     3
291
     0
 70
    58
 90
        3
176
     1
 90
        2
176
     1
 90
        0
176
     1
 90
        0
176
     1
 40
-0.6
176
     1
 40
-30.0
176
     1
 62
     7
176
     1
 90
        2
176
     1
 90
        2
176
     1
 62
     7
176
     1
 62
   257
176
     1
 90
        1
176
     1
 90
        1
176
     1
 40
40.0
176
     1
 90
        8
176
     1
 62
     7
176
     1
 40
1.0
176
     1
 90
        1
176
     1
 90
        6
176
     1
 90
        2
176
     1
 62
     7
176
     1
 90
        3
176
     1
 90
        0
176
     1
 90
        0
176
     1
290
     0
176
     1
 90
        1
176
     1
 40
0.0
176
     1
 90
        0
176
     1
290
     0
176
     1
290
     1
176
     1
290
     1
176
     1
290
     0
176
     1
290
     0
176
     1
290
     0
176
     1
290
     0
176
     1
290
     0
176
     1
290
     0
176
     1
 90
       50
176
     1
 40
0.0
176
     1
 40
1.0
176
     1
 90
        0
176
     1
 62
    18
420
        0
176
     1
 90
       50
176
     1
 90
        3
176
     1
 62
     5
420
      255
176
     1
290
     0
176
     1
 90
       50
176
     1
 90
       50
176
     1
 90
       50
176
     1
290
     0
176
     1
 90
       50
176
     1
 62
   256
176
     0
 40
1.0
176
     0
 90
        2
176
     1
  1
strokes_ogs.tif
176
     1
290
     0
176
     1
 40
1.0
176
     1
 40
1.0
176
     1
  0
VISUALSTYLE
  5
156
102
{ACAD_REACTORS
330
14B
102
}
330
14B
100
AcDbVisualStyle
  2
Dim
 70
    11
177
     3
291
     1
 70
    58
 90
        2
176
     1
 90
        2
176
     1
 90
        0
176
     1
 90
        0
176
     1
 40
-0.6
176
     1
 40
-30.0
176
     1
 62
     7
176
     1
 90
        1
176
     1
 90
        4
176
     1
 62
     7
176
     1
 62
   257
176
     1
 90
        1
176
     1
 90
        1
176
     1
 40
1.0
176
     1
 90
        8
176
     1
 62
     7
176
     1
 40
1.0
176
     1
 90
        1
176
     1
 90
        6
176
     1
 90
        2
176
     1
 62
     7
176
     1
 90
        5
176
     1
 90
        0
176
     1
 90
        0
176
     1
290
     0
176
     1
 90
        1
176
     1
 40
-50.0
176
     1
 90
        0
176
     1
290
     0
176
     1
290
     1
176
     1
290
     1
176
     1
290
     0
176
     1
290
     0
176
     1
290
     0
176
     1
290
     0
176
     1
290
     0
176
     1
290
     0
176
     1
 90
       50
176
     1
 40
0.0
176
     1
 40
1.0
176
     1
 90
        0
176
     1
 62
    18
420
        0
176
     1
 90
       50
176
     1
 90
        3
176
     1
 62
     5
420
      255
176
     1
290
     0
176
     1
 90
       50
176
     1
 90
       50
176
     1
 90
       50
176
     1
290
     0
176
     1
 90
       50
176
     1
 62
   256
176
     0
 40
1.0
176
     0
 90
        2
176
     1
  1
strokes_ogs.tif
176
     1
290
     0
176
     1
 40
1.0
176
     1
 40
1.0
176
     1
  0
VISUALSTYLE
  5
1AC
102
{ACAD_REACTORS
330
14B
102
}
330
14B
100
AcDbVisualStyle
  2
EdgeColorOff
 70
    22
177
     3
291
     1
 70
    58
 90
        2
176
     0
 90
        2
176
     0
 90
        0
176
     0
 90
        0
176
     0
 40
0.6
176
     0
 40
30.0
176
     0
 62
     7
420
 16777215
176
     0
 90
        1
176
     0
 90
        4
176
     0
 62
     7
176
     0
 62
   257
176
     0
 90
        1
176
     0
 90
        1
176
     0
 40
1.0
176
     0
 90
        8
176
     2
 62
     7
176
     0
 40
1.0
176
     0
 90
        1
176
     0
 90
        6
176
     0
 90
        2
176
     0
 62
     7
176
     0
 90
        5
176
     0
 90
        0
176
     0
 90
        0
176
     0
290
     0
176
     0
 90
        1
176
     0
 40
0.0
176
     0
 90
        0
176
     0
290
     0
176
     0
290
     1
176
     0
290
     1
176
     0
290
     0
176
     0
290
     0
176
     0
290
     0
176
     0
290
     0
176
     0
290
     0
176
     0
290
     0
176
     0
 90
       50
176
     0
 40
0.0
176
     0
 40
1.0
176
     0
 90
        0
176
     0
 62
    18
420
        0
176
     0
 90
       50
176
     0
 90
        3
176
     0
 62
     5
420
      255
176
     0
290
     0
176
     0
 90
       50
176
     0
 90
       50
176
     0
 90
       50
176
     0
290
     0
176
     0
 90
       50
176
     0
 62
   256
176
     0
 40
1.0
176
     0
 90
        2
176
     0
  1
strokes_ogs.tif
176
     0
290
     0
176
     0
 40
1.0
176
     0
 40
1.0
176
     0
  0
VISUALSTYLE
  5
15A
102
{ACAD_REACTORS
330
14B
102
}
330
14B
100
AcDbVisualStyle
  2
Facepattern
 70
    15
177
     3
291
     1
 70
    58
 90
        2
176
     1
 90
        2
176
     1
 90
        0
176
     1
 90
        0
176
     1
 40
-0.6
176
     1
 40
-30.0
176
     1
 62
     7
176
     1
 90
        1
176
     1
 90
        4
176
     1
 62
     7
176
     1
 62
   257
176
     1
 90
        1
176
     1
 90
        1
176
     1
 40
1.0
176
     1
 90
        8
176
     1
 62
     7
176
     1
 40
1.0
176
     1
 90
        1
176
     1
 90
        6
176
     1
 90
        2
176
     1
 62
     7
176
     1
 90
        5
176
     1
 90
        0
176
     1
 90
        0
176
     1
290
     0
176
     1
 90
        1
176
     1
 40
0.0
176
     1
 90
        0
176
     1
290
     0
176
     1
290
     1
176
     1
290
     1
176
     1
290
     0
176
     1
290
     0
176
     1
290
     0
176
     1
290
     0
176
     1
290
     0
176
     1
290
     0
176
     1
 90
       50
176
     1
 40
0.0
176
     1
 40
1.0
176
     1
 90
        0
176
     1
 62
    18
420
        0
176
     1
 90
       50
176
     1
 90
        3
176
     1
 62
     5
420
      255
176
     1
290
     0
176
     1
 90
       50
176
     1
 90
       50
176
     1
 90
       50
176
     1
290
     0
176
     1
 90
       50
176
     1
 62
   256
176
     0
 40
1.0
176
     0
 90
        2
176
     1
  1
strokes_ogs.tif
176
     1
290
     0
176
     1
 40
1.0
176
     1
 40
1.0
176
     1
  0
VISUALSTYLE
  5
14C
102
{ACAD_REACTORS
330
14B
102
}
330
14B
100
AcDbVisualStyle
  2
Flat
 70
     0
177
     3
291
     1
 70
    58
 90
        2
176
     1
 90
        1
176
     1
 90
        1
176
     1
 90
        2
176
     1
 40
-0.6
176
     1
 40
30.0
176
     1
 62
     7
176
     1
 90
        0
176
     1
 90
        4
176
     1
 62
     7
176
     1
 62
   257
176
     1
 90
        1
176
     1
 90
        1
176
     1
 40
1.0
176
     1
 90
        8
176
     1
 62
     7
176
     1
 40
1.0
176
     1
 90
        1
176
     1
 90
        6
176
     1
 90
        2
176
     1
 62
     7
176
     1
 90
        5
176
     1
 90
        0
176
     1
 90
        0
176
     1
290
     0
176
     1
 90
       13
176
     1
 40
0.0
176
     1
 90
        0
176
     1
290
     0
176
     1
290
     1
176
     1
290
     1
176
     1
290
     0
176
     1
290
     0
176
     1
290
     0
176
     1
290
     0
176
     1
290
     0
176
     1
290
     0
176
     1
 90
       50
176
     1
 40
0.0
176
     1
 40
1.0
176
     1
 90
        0
176
     1
 62
    18
420
        0
176
     1
 90
       50
176
     1
 90
        3
176
     1
 62
     5
420
      255
176
     1
290
     0
176
     1
 90
       50
176
     1
 90
       50
176
     1
 90
       50
176
     1
290
     0
176
     1
 90
       50
176
     1
 62
   256
176
     0
 40
1.0
176
     0
 90
        2
176
     1
  1
strokes_ogs.tif
176
     1
290
     0
176
     1
 40
1.0
176
     1
 40
1.0
176
     1
  0
VISUALSTYLE
  5
14D
102
{ACAD_REACTORS
330
14B
102
}
330
14B
100
AcDbVisualStyle
  2
FlatWithEdges
 70
     1
177
     3
291
     1
 70
    58
 90
        2
176
     1
 90
        1
176
     1
 90
        1
176
     1
 90
        2
176
     1
 40
-0.6
176
     1
 40
30.0
176
     1
 62
     7
176
     1
 90
        1
176
     1
 90
        4
176
     1
 62
     7
176
     1
 62
   257
176
     1
 90
        1
176
     1
 90
        1
176
     1
 40
1.0
176
     1
 90
        0
176
     1
 62
   257
176
     1
 40
1.0
176
     1
 90
        1
176
     1
 90
        6
176
     1
 90
        2
176
     1
 62
     7
176
     1
 90
        5
176
     1
 90
        0
176
     1
 90
        0
176
     1
290
     0
176
     1
 90
       13
176
     1
 40
0.0
176
     1
 90
        0
176
     1
290
     0
176
     1
290
     1
176
     1
290
     1
176
     1
290
     0
176
     1
290
     0
176
     1
290
     0
176
     1
290
     0
176
     1
290
     0
176
     1
290
     0
176
     1
 90
       50
176
     1
 40
0.0
176
     1
 40
1.0
176
     1
 90
        0
176
     1
 62
    18
420
        0
176
     1
 90
       50
176
     1
 90
        3
176
     1
 62
     5
420
      255
176
     1
290
     0
176
     1
 90
       50
176
     1
 90
       50
176
     1
 90
       50
176
     1
290
     0
176
     1
 90
       50
176
     1
 62
   256
176
     0
 40
1.0
176
     0
 90
        2
176
     1
  1
strokes_ogs.tif
176
     1
290
     0
176
     1
 40
1.0
176
     1
 40
1.0
176
     1
  0
VISUALSTYLE
  5
14E
102
{ACAD_REACTORS
330
14B
102
}
330
14B
100
AcDbVisualStyle
  2
Gouraud
 70
     2
177
     3
291
     1
 70
    58
 90
        2
176
     1
 90
        2
176
     1
 90
        1
176
     1
 90
        2
176
     1
 40
-0.6
176
     1
 40
30.0
176
     1
 62
     7
176
     1
 90
        0
176
     1
 90
        4
176
     1
 62
     7
176
     1
 62
   257
176
     1
 90
        1
176
     1
 90
        1
176
     1
 40
1.0
176
     1
 90
        0
176
     1
 62
     7
176
     1
 40
1.0
176
     1
 90
        1
176
     1
 90
        6
176
     1
 90
        2
176
     1
 62
     7
176
     1
 90
        5
176
     1
 90
        0
176
     1
 90
        0
176
     1
290
     0
176
     1
 90
       13
176
     1
 40
0.0
176
     1
 90
        0
176
     1
290
     0
176
     1
290
     1
176
     1
290
     1
176
     1
290
     0
176
     1
290
     0
176
     1
290
     0
176
     1
290
     0
176
     1
290
     0
176
     1
290
     0
176
     1
 90
       50
176
     1
 40
0.0
176
     1
 40
1.0
176
     1
 90
        0
176
     1
 62
    18
420
        0
176
     1
 90
       50
176
     1
 90
        3
176
     1
 62
     5
420
      255
176
     1
290
     0
176
     1
 90
       50
176
     1
 90
       50
176
     1
 90
       50
176
     1
290
     0
176
     1
 90
       50
176
     1
 62
   256
176
     0
 40
1.0
176
     0
 90
        2
176
     1
  1
strokes_ogs.tif
176
     1
290
     0
176
     1
 40
1.0
176
     1
 40
1.0
176
     1
  0
VISUALSTYLE
  5
14F
102
{ACAD_REACTORS
330
14B
102
}
330
14B
100
AcDbVisualStyle
  2
GouraudWithEdges
 70
     3
177
     3
291
     1
 70
    58
 90
        2
176
     1
 90
        2
176
     1
 90
        1
176
     1
 90
        2
176
     1
 40
-0.6
176
     1
 40
30.0
176
     1
 62
     7
176
     1
 90
        1
176
     1
 90
        4
176
     1
 62
     7
176
     1
 62
   257
176
     1
 90
        1
176
     1
 90
        1
176
     1
 40
1.0
176
     1
 90
        0
176
     1
 62
   257
176
     1
 40
1.0
176
     1
 90
        1
176
     1
 90
        6
176
     1
 90
        2
176
     1
 62
     7
176
     1
 90
        5
176
     1
 90
        0
176
     1
 90
        0
176
     1
290
     0
176
     1
 90
       13
176
     1
 40
0.0
176
     1
 90
        0
176
     1
290
     0
176
     1
290
     1
176
     1
290
     1
176
     1
290
     0
176
     1
290
     0
176
     1
290
     0
176
     1
290
     0
176
     1
290
     0
176
     1
290
     0
176
     1
 90
       50
176
     1
 40
0.0
176
     1
 40
1.0
176
     1
 90
        0
176
     1
 62
    18
420
        0
176
     1
 90
       50
176
     1
 90
        3
176
     1
 62
     5
420
      255
176
     1
290
     0
176
     1
 90
       50
176
     1
 90
       50
176
     1
 90
       50
176
     1
290
     0
176
     1
 90
       50
176
     1
 62
   256
176
     0
 40
1.0
176
     0
 90
        2
176
     1
  1
strokes_ogs.tif
176
     1
290
     0
176
     1
 40
1.0
176
     1
 40
1.0
176
     1
  0
VISUALSTYLE
  5
1A9
102
{ACAD_REACTORS
330
14B
102
}
330
14B
100
AcDbVisualStyle
  2
Hidden
 70
     6
177
     3
291
     0
 70
    58
 90
        1
176
     1
 90
        2
176
     1
 90
        2
176
     1
 90
        0
176
     1
 40
0.6
176
     1
 40
30.0
176
     1
 62
     7
420
 16777215
176
     1
 90
        2
176
     1
 90
        2
176
     1
 62
     7
176
     1
 62
   257
176
     1
 90
        2
176
     1
 90
        1
176
     1
 40
40.0
176
     1
 90
        0
176
     1
 62
   257
176
     1
 40
1.0
176
     1
 90
        1
176
     1
 90
        6
176
     1
 90
        2
176
     1
 62
     7
176
     1
 90
        3
176
     1
 90
        0
176
     1
 90
        0
176
     1
290
     0
176
     1
 90
        1
176
     1
 40
0.0
176
     1
 90
        0
176
     1
290
     0
176
     1
290
     1
176
     1
290
     1
176
     1
290
     0
176
     1
290
     0
176
     1
290
     0
176
     1
290
     0
176
     1
290
     0
176
     1
290
     0
176
     1
 90
       50
176
     1
 40
0.0
176
     1
 40
1.0
176
     1
 90
        0
176
     1
 62
    18
420
        0
176
     1
 90
       50
176
     1
 90
        3
176
     1
 62
     5
420
      255
176
     1
290
     0
176
     1
 90
       50
176
     1
 90
       50
176
     1
 90
       50
176
     1
290
     0
176
     1
 90
       50
176
     1
 62
   256
176
     0
 40
1.0
176
     0
 90
        2
176
     1
  1
strokes_ogs.tif
176
     1
290
     0
176
     1
 40
1.0
176
     1
 40
1.0
176
     1
  0
VISUALSTYLE
  5
1AA
102
{ACAD_REACTORS
330
14B
102
}
330
14B
100
AcDbVisualStyle
  2
JitterOff
 70
    20
177
     3
291
     1
 70
    58
 90
        2
176
     0
 90
        2
176
     0
 90
        0
176
     0
 90
        0
176
     0
 40
0.6
176
     0
 40
30.0
176
     0
 62
     7
420
 16777215
176
     0
 90
        1
176
     0
 90
        4
176
     0
 62
     7
176
     0
 62
   257
176
     0
 90
        1
176
     0
 90
        1
176
     0
 40
1.0
176
     0
 90
       10
176
     2
 62
     7
176
     0
 40
1.0
176
     0
 90
        1
176
     0
 90
        6
176
     0
 90
        2
176
     0
 62
     7
176
     0
 90
        5
176
     0
 90
        0
176
     0
 90
        0
176
     0
290
     0
176
     0
 90
        1
176
     0
 40
0.0
176
     0
 90
        0
176
     0
290
     0
176
     0
290
     1
176
     0
290
     1
176
     0
290
     0
176
     0
290
     0
176
     0
290
     0
176
     0
290
     0
176
     0
290
     0
176
     0
290
     0
176
     0
 90
       50
176
     0
 40
0.0
176
     0
 40
1.0
176
     0
 90
        0
176
     0
 62
    18
420
        0
176
     0
 90
       50
176
     0
 90
        3
176
     0
 62
     5
420
      255
176
     0
290
     0
176
     0
 90
       50
176
     0
 90
       50
176
     0
 90
       50
176
     0
290
     0
176
     0
 90
       50
176
     0
 62
   256
176
     0
 40
1.0
176
     0
 90
        2
176
     0
  1
strokes_ogs.tif
176
     0
290
     0
176
     0
 40
1.0
176
     0
 40
1.0
176
     0
  0
VISUALSTYLE
  5
159
102
{ACAD_REACTORS
330
14B
102
}
330
14B
100
AcDbVisualStyle
  2
Linepattern
 70
    14
177
     3
291
     1
 70
    58
 90
        2
176
     1
 90
        2
176
     1
 90
        0
176
     1
 90
        0
176
     1
 40
-0.6
176
     1
 40
-30.0
176
     1
 62
     7
176
     1
 90
        1
176
     1
 90
        4
176
     1
 62
     7
176
     1
 62
   257
176
     1
 90
        7
176
     1
 90
        7
176
     1
 40
1.0
176
     1
 90
        8
176
     1
 62
     7
176
     1
 40
1.0
176
     1
 90
        1
176
     1
 90
        6
176
     1
 90
        2
176
     1
 62
     7
176
     1
 90
        5
176
     1
 90
        0
176
     1
 90
        0
176
     1
290
     0
176
     1
 90
        1
176
     1
 40
0.0
176
     1
 90
        0
176
     1
290
     0
176
     1
290
     1
176
     1
290
     1
176
     1
290
     0
176
     1
290
     0
176
     1
290
     0
176
     1
290
     0
176
     1
290
     0
176
     1
290
     0
176
     1
 90
       50
176
     1
 40
0.0
176
     1
 40
1.0
176
     1
 90
        0
176
     1
 62
    18
420
        0
176
     1
 90
       50
176
     1
 90
        3
176
     1
 62
     5
420
      255
176
     1
290
     0
176
     1
 90
       50
176
     1
 90
       50
176
     1
 90
       50
176
     1
290
     0
176
     1
 90
       50
176
     1
 62
   256
176
     0
 40
1.0
176
     0
 90
        2
176
     1
  1
strokes_ogs.tif
176
     1
290
     0
176
     1
 40
1.0
176
     1
 40
1.0
176
     1
  0
VISUALSTYLE
  5
1AB
102
{ACAD_REACTORS
330
14B
102
}
330
14B
100
AcDbVisualStyle
  2
OverhangOff
 70
    21
177
     3
291
     1
 70
    58
 90
        2
176
     0
 90
        2
176
     0
 90
        0
176
     0
 90
        0
176
     0
 40
0.6
176
     0
 40
30.0
176
     0
 62
     7
420
 16777215
176
     0
 90
        1
176
     0
 90
        4
176
     0
 62
     7
176
     0
 62
   257
176
     0
 90
        1
176
     0
 90
        1
176
     0
 40
1.0
176
     0
 90
        9
176
     2
 62
     7
176
     0
 40
1.0
176
     0
 90
        1
176
     0
 90
        6
176
     0
 90
        2
176
     0
 62
     7
176
     0
 90
        5
176
     0
 90
        0
176
     0
 90
        0
176
     0
290
     0
176
     0
 90
        1
176
     0
 40
0.0
176
     0
 90
        0
176
     0
290
     0
176
     0
290
     1
176
     0
290
     1
176
     0
290
     0
176
     0
290
     0
176
     0
290
     0
176
     0
290
     0
176
     0
290
     0
176
     0
290
     0
176
     0
 90
       50
176
     0
 40
0.0
176
     0
 40
1.0
176
     0
 90
        0
176
     0
 62
    18
420
        0
176
     0
 90
       50
176
     0
 90
        3
176
     0
 62
     5
420
      255
176
     0
290
     0
176
     0
 90
       50
176
     0
 90
       50
176
     0
 90
       50
176
     0
290
     0
176
     0
 90
       50
176
     0
 62
   256
176
     0
 40
1.0
176
     0
 90
        2
176
     0
  1
strokes_ogs.tif
176
     0
290
     0
176
     0
 40
1.0
176
     0
 40
1.0
176
     0
  0
VISUALSTYLE
  5
154
102
{ACAD_REACTORS
330
14B
102
}
330
14B
100
AcDbVisualStyle
  2
Realistic
 70
     8
177
     3
291
     0
 70
    58
 90
        2
176
     1
 90
        2
176
     1
 90
        0
176
     1
 90
        0
176
     1
 40
-0.6
176
     1
 40
-30.0
176
     1
 62
     7
176
     1
 90
        1
176
     1
 90
        0
176
     1
 62
     7
176
     1
 62
   257
176
     1
 90
        1
176
     1
 90
        1
176
     1
 40
1.0
176
     1
 90
        8
176
     1
 62
     8
176
     1
 40
1.0
176
     1
 90
        1
176
     1
 90
        6
176
     1
 90
        2
176
     1
 62
     7
176
     1
 90
        5
176
     1
 90
        0
176
     1
 90
        0
176
     1
290
     0
176
     1
 90
       13
176
     1
 40
0.0
176
     1
 90
        0
176
     1
290
     0
176
     1
290
     1
176
     1
290
     1
176
     1
290
     0
176
     1
290
     0
176
     1
290
     0
176
     1
290
     0
176
     1
290
     0
176
     1
290
     0
176
     1
 90
       50
176
     1
 40
0.0
176
     1
 40
1.0
176
     1
 90
        0
176
     1
 62
    18
420
        0
176
     1
 90
       50
176
     1
 90
        3
176
     1
 62
     5
420
      255
176
     1
290
     0
176
     1
 90
       50
176
     1
 90
       50
176
     1
 90
       50
176
     1
290
     0
176
     1
 90
       50
176
     1
 62
   256
176
     0
 40
1.0
176
     0
 90
        2
176
     1
  1
strokes_ogs.tif
176
     1
290
     0
176
     1
 40
1.0
176
     1
 40
1.0
176
     1
  0
VISUALSTYLE
  5
1B1
102
{ACAD_REACTORS
330
14B
102
}
330
14B
100
AcDbVisualStyle
  2
Shaded
 70
    27
177
     3
291
     0
 70
    58
 90
        2
176
     1
 90
        2
176
     1
 90
        1
176
     1
 90
        2
176
     1
 40
0.6
176
     1
 40
30.0
176
     1
 62
     7
420
 16777215
176
     1
 90
        0
176
     1
 90
        4
176
     1
 62
     7
176
     1
 62
   257
176
     1
 90
        1
176
     1
 90
        1
176
     1
 40
1.0
176
     1
 90
        8
176
     1
 62
   257
176
     1
 40
1.0
176
     1
 90
        1
176
     1
 90
        6
176
     1
 90
        2
176
     1
 62
     8
420
  7895160
176
     1
 90
        3
176
     1
 90
        0
176
     1
 90
        0
176
     1
290
     0
176
     1
 90
        5
176
     1
 40
0.0
176
     1
 90
        0
176
     1
290
     0
176
     1
290
     1
176
     1
290
     1
176
     1
290
     0
176
     1
290
     0
176
     1
290
     0
176
     1
290
     0
176
     1
290
     0
176
     1
290
     0
176
     1
 90
       50
176
     1
 40
0.0
176
     1
 40
1.0
176
     1
 90
        0
176
     1
 62
    18
420
        0
176
     1
 90
       50
176
     1
 90
        3
176
     1
 62
     5
420
      255
176
     1
290
     0
176
     1
 90
       50
176
     1
 90
       50
176
     1
 90
       50
176
     1
290
     0
176
     1
 90
       50
176
     1
 62
   256
176
     0
 40
1.0
176
     0
 90
        2
176
     1
  1
strokes_ogs.tif
176
     1
290
     0
176
     1
 40
1.0
176
     1
 40
1.0
176
     1
  0
VISUALSTYLE
  5
1B0
102
{ACAD_REACTORS
330
14B
102
}
330
14B
100
AcDbVisualStyle
  2
Shaded with edges
 70
    26
177
     3
291
     0
 70
    58
 90
        2
176
     1
 90
        2
176
     1
 90
        1
176
     1
 90
        2
176
     1
 40
0.6
176
     1
 40
30.0
176
     1
 62
     7
420
 16777215
176
     1
 90
        1
176
     1
 90
       10
176
     1
 62
     7
176
     1
 62
   257
176
     1
 90
        2
176
     1
 90
        1
176
     1
 40
1.0
176
     1
 90
        8
176
     1
 62
   257
176
     1
 40
1.0
176
     1
 90
        1
176
     1
 90
        6
176
     1
 90
        2
176
     1
 62
     7
176
     1
 90
        3
176
     1
 90
        0
176
     1
 90
        0
176
     1
290
     0
176
     1
 90
        5
176
     1
 40
0.0
176
     1
 90
        0
176
     1
290
     0
176
     1
290
     1
176
     1
290
     1
176
     1
290
     0
176
     1
290
     0
176
     1
290
     0
176
     1
290
     0
176
     1
290
     0
176
     1
290
     0
176
     1
 90
       50
176
     1
 40
0.0
176
     1
 40
1.0
176
     1
 90
        0
176
     1
 62
    18
420
        0
176
     1
 90
       50
176
     1
 90
        3
176
     1
 62
     5
420
      255
176
     1
290
     0
176
     1
 90
       50
176
     1
 90
       50
176
     1
 90
       50
176
     1
290
     0
176
     1
 90
       50
176
     1
 62
   256
176
     0
 40
1.0
176
     0
 90
        2
176
     1
  1
strokes_ogs.tif
176
     1
290
     0
176
     1
 40
1.0
176
     1
 40
1.0
176
     1
  0
VISUALSTYLE
  5
1AD
102
{ACAD_REACTORS
330
14B
102
}
330
14B
100
AcDbVisualStyle
  2
Shades of Gray
 70
    23
177
     3
291
     0
 70
    58
 90
        2
176
     1
 90
        2
176
     1
 90
        3
176
     1
 90
        0
176
     1
 40
0.6
176
     1
 40
30.0
176
     1
 62
     7
420
 16777215
176
     1
 90
        2
176
     1
 90
        2
176
     1
 62
     7
176
     1
 62
     7
176
     1
 90
        1
176
     1
 90
        1
176
     1
 40
40.0
176
     1
 90
        8
176
     1
 62
     7
176
     1
 40
1.0
176
     1
 90
        1
176
     1
 90
        6
176
     1
 90
        2
176
     1
 62
     7
176
     1
 90
        3
176
     1
 90
        0
176
     1
 90
        0
176
     1
290
     0
176
     1
 90
        1
176
     1
 40
0.0
176
     1
 90
        0
176
     1
290
     0
176
     1
290
     1
176
     1
290
     1
176
     1
290
     0
176
     1
290
     0
176
     1
290
     0
176
     1
290
     0
176
     1
290
     0
176
     1
290
     0
176
     1
 90
       50
176
     1
 40
0.0
176
     1
 40
1.0
176
     1
 90
        0
176
     1
 62
    18
420
        0
176
     1
 90
       50
176
     1
 90
        3
176
     1
 62
     5
420
      255
176
     1
290
     0
176
     1
 90
       50
176
     1
 90
       50
176
     1
 90
       50
176
     1
290
     0
176
     1
 90
       50
176
     1
 62
   256
176
     0
 40
1.0
176
     0
 90
        2
176
     1
  1
strokes_ogs.tif
176
     1
290
     0
176
     1
 40
1.0
176
     1
 40
1.0
176
     1
  0
VISUALSTYLE
  5
1AE
102
{ACAD_REACTORS
330
14B
102
}
330
14B
100
AcDbVisualStyle
  2
Sketchy
 70
    24
177
     3
291
     0
 70
    58
 90
        1
176
     1
 90
        2
176
     1
 90
        2
176
     1
 90
        0
176
     1
 40
0.6
176
     1
 40
30.0
176
     1
 62
     7
420
 16777215
176
     1
 90
        2
176
     1
 90
        2
176
     1
 62
     7
176
     1
 62
     7
176
     1
 90
        1
176
     1
 90
        1
176
     1
 40
40.0
176
     1
 90
       11
176
     1
 62
     7
176
     1
 40
1.0
176
     1
 90
        1
176
     1
 90
        6
176
     1
 90
        2
176
     1
 62
     7
176
     1
 90
        6
176
     1
 90
        0
176
     1
 90
        0
176
     1
290
     0
176
     1
 90
        1
176
     1
 40
0.0
176
     1
 90
        0
176
     1
290
     0
176
     1
290
     1
176
     1
290
     1
176
     1
290
     0
176
     1
290
     0
176
     1
290
     0
176
     1
290
     0
176
     1
290
     0
176
     1
290
     0
176
     1
 90
       50
176
     1
 40
0.0
176
     1
 40
1.0
176
     1
 90
        0
176
     1
 62
    18
420
        0
176
     1
 90
       50
176
     1
 90
        3
176
     1
 62
     5
420
      255
176
     1
290
     0
176
     1
 90
       50
176
     1
 90
       50
176
     1
 90
       50
176
     1
290
     0
176
     1
 90
       50
176
     1
 62
   256
176
     0
 40
1.0
176
     0
 90
        2
176
     1
  1
strokes_ogs.tif
176
     1
290
     0
176
     1
 40
1.0
176
     1
 40
1.0
176
     1
  0
VISUALSTYLE
  5
158
102
{ACAD_REACTORS
330
14B
102
}
330
14B
100
AcDbVisualStyle
  2
Thicken
 70
    13
177
     3
291
     1
 70
    58
 90
        2
176
     1
 90
        2
176
     1
 90
        0
176
     1
 90
        0
176
     1
 40
-0.6
176
     1
 40
-30.0
176
     1
 62
     7
176
     1
 90
        1
176
     1
 90
        4
176
     1
 62
     7
176
     1
 62
   257
176
     1
 90
        1
176
     1
 90
        1
176
     1
 40
1.0
176
     1
 90
       12
176
     1
 62
     7
176
     1
 40
1.0
176
     1
 90
        1
176
     1
 90
        6
176
     1
 90
        2
176
     1
 62
     7
176
     1
 90
        5
176
     1
 90
        0
176
     1
 90
        0
176
     1
290
     0
176
     1
 90
        1
176
     1
 40
0.0
176
     1
 90
        0
176
     1
290
     0
176
     1
290
     1
176
     1
290
     1
176
     1
290
     0
176
     1
290
     0
176
     1
290
     0
176
     1
290
     0
176
     1
290
     0
176
     1
290
     0
176
     1
 90
       50
176
     1
 40
0.0
176
     1
 40
1.0
176
     1
 90
        0
176
     1
 62
    18
420
        0
176
     1
 90
       50
176
     1
 90
        3
176
     1
 62
     5
420
      255
176
     1
290
     0
176
     1
 90
       50
176
     1
 90
       50
176
     1
 90
       50
176
     1
290
     0
176
     1
 90
       50
176
     1
 62
   256
176
     0
 40
1.0
176
     0
 90
        2
176
     1
  1
strokes_ogs.tif
176
     1
290
     0
176
     1
 40
1.0
176
     1
 40
1.0
176
     1
  0
VISUALSTYLE
  5
1A8
102
{ACAD_REACTORS
330
14B
102
}
330
14B
100
AcDbVisualStyle
  2
Wireframe
 70
     5
177
     3
291
     0
 70
    58
 90
        0
176
     1
 90
        2
176
     1
 90
        0
176
     1
 90
        0
176
     1
 40
0.6
176
     1
 40
30.0
176
     1
 62
     7
420
 16777215
176
     1
 90
        1
176
     1
 90
        4
176
     1
 62
     7
176
     1
 62
   257
176
     1
 90
        1
176
     1
 90
        1
176
     1
 40
1.0
176
     1
 90
        0
176
     1
 62
   257
176
     1
 40
1.0
176
     1
 90
        1
176
     1
 90
        6
176
     1
 90
        2
176
     1
 62
     7
176
     1
 90
        3
176
     1
 90
        0
176
     1
 90
        0
176
     1
290
     0
176
     1
 90
        1
176
     1
 40
0.0
176
     1
 90
        0
176
     1
290
     0
176
     1
290
     1
176
     1
290
     1
176
     1
290
     0
176
     1
290
     0
176
     1
290
     0
176
     1
290
     0
176
     1
290
     0
176
     1
290
     0
176
     1
 90
       50
176
     1
 40
0.0
176
     1
 40
1.0
176
     1
 90
        0
176
     1
 62
    18
420
        0
176
     1
 90
       50
176
     1
 90
        3
176
     1
 62
     5
420
      255
176
     1
290
     0
176
     1
 90
       50
176
     1
 90
       50
176
     1
 90
       50
176
     1
290
     0
176
     1
 90
       50
176
     1
 62
   256
176
     0
 40
1.0
176
     0
 90
        2
176
     1
  1
strokes_ogs.tif
176
     1
290
     0
176
     1
 40
1.0
176
     1
 40
1.0
176
     1
  0
VISUALSTYLE
  5
1AF
102
{ACAD_REACTORS
330
14B
102
}
330
14B
100
AcDbVisualStyle
  2
X-Ray
 70
    25
177
     3
291
     0
 70
    58
 90
        2
176
     1
 90
        2
176
     1
 90
        1
176
     1
 90
        1
176
     1
 40
0.5
176
     1
 40
30.0
176
     1
 62
     7
420
 16777215
176
     1
 90
        1
176
     1
 90
        0
176
     1
 62
     7
176
     1
 62
   257
176
     1
 90
        1
176
     1
 90
        1
176
     1
 40
1.0
176
     1
 90
        8
176
     1
 62
     7
176
     1
 40
1.0
176
     1
 90
        1
176
     1
 90
        6
176
     1
 90
        2
176
     1
 62
     7
176
     1
 90
        3
176
     1
 90
        0
176
     1
 90
        0
176
     1
290
     0
176
     1
 90
       13
176
     1
 40
0.0
176
     1
 90
        0
176
     1
290
     0
176
     1
290
     1
176
     1
290
     1
176
     1
290
     0
176
     1
290
     0
176
     1
290
     0
176
     1
290
     0
176
     1
290
     0
176
     1
290
     0
176
     1
 90
       50
176
     1
 40
0.0
176
     1
 40
1.0
176
     1
 90
        0
176
     1
 62
    18
420
        0
176
     1
 90
       50
176
     1
 90
        3
176
     1
 62
     5
420
      255
176
     1
290
     0
176
     1
 90
       50
176
     1
 90
       50
176
     1
 90
       50
176
     1
290
     0
176
     1
 90
       50
176
     1
 62
   256
176
     0
 40
1.0
176
     0
 90
        2
176
     1
  1
strokes_ogs.tif
176
     1
290
     0
176
     1
 40
1.0
176
     1
 40
1.0
176
     1
  0
DICTIONARYVAR
  5
1FD
102
{ACAD_REACTORS
330
167
102
}
330
167
100
DictionaryVariables
280
     0
  1
1:1
  0
DICTIONARYVAR
  5
1FF
102
{ACAD_REACTORS
330
167
102
}
330
167
100
DictionaryVariables
280
     0
  1
Standard
  0
DICTIONARYVAR
  5
1FE
102
{ACAD_REACTORS
330
167
102
}
330
167
100
DictionaryVariables
280
     0
  1
Standard
  0
DICTIONARYVAR
  5
16B
102
{ACAD_REACTORS
330
167
102
}
330
167
100
DictionaryVariables
280
     0
  1
2
  0
DICTIONARYVAR
  5
16C
102
{ACAD_REACTORS
330
167
102
}
330
167
100
DictionaryVariables
280
     0
  1
1
  0
DICTIONARYVAR
  5
16A
102
{ACAD_REACTORS
330
167
102
}
330
167
100
DictionaryVariables
280
     0
  1
0
  0
DICTIONARY
  5
28A
330
1B3
100
AcDbDictionary
280
     1
281
     1
  3
ACAD_ROUNDTRIP_2008_TABLESTYLE_CELLSTYLEMAP
360
28B
  0
CELLSTYLEMAP
  5
28B
102
{ACAD_REACTORS
330
28A
102
}
330
28A
100
AcDbCellStyleMap
 90
        3
300
CELLSTYLE
  1
TABLEFORMAT_BEGIN
 90
        5
170
     1
 91
        0
 92
    32768
 62
   257
 93
        1
300
CONTENTFORMAT
  1
CONTENTFORMAT_BEGIN
 90
        0
 91
        0
 92
        4
 93
        0
300

 40
0.0
140
1.0
 94
        5
 62
     0
340
11
144
0.25
309
CONTENTFORMAT_END
171
     1
301
MARGIN
  1
CELLMARGIN_BEGIN
 40
0.06
 40
0.06
 40
0.06
 40
0.06
 40
0.06
 40
0.06
309
CELLMARGIN_END
 94
        6
 95
        1
302
GRIDFORMAT
  1
GRIDFORMAT_BEGIN
 90
        0
 91
        1
 62
     0
 92
       -2
340
14
 93
        0
 40
0.045
309
GRIDFORMAT_END
 95
        2
302
GRIDFORMAT
  1
GRIDFORMAT_BEGIN
 90
        0
 91
        1
 62
     0
 92
       -2
340
14
 93
        0
 40
0.045
309
GRIDFORMAT_END
 95
        4
302
GRIDFORMAT
  1
GRIDFORMAT_BEGIN
 90
        0
 91
        1
 62
     0
 92
       -2
340
14
 93
        0
 40
0.045
309
GRIDFORMAT_END
 95
        8
302
GRIDFORMAT
  1
GRIDFORMAT_BEGIN
 90
        0
 91
        1
 62
     0
 92
       -2
340
14
 93
        0
 40
0.045
309
GRIDFORMAT_END
 95
       16
302
GRIDFORMAT
  1
GRIDFORMAT_BEGIN
 90
        0
 91
        1
 62
     0
 92
       -2
340
14
 93
        0
 40
0.045
309
GRIDFORMAT_END
 95
       32
302
GRIDFORMAT
  1
GRIDFORMAT_BEGIN
 90
        0
 91
        1
 62
     0
 92
       -2
340
14
 93
        0
 40
0.045
309
GRIDFORMAT_END
309
TABLEFORMAT_END
  1
CELLSTYLE_BEGIN
 90
        1
 91
        1
300
_TITLE
309
CELLSTYLE_END
300
CELLSTYLE
  1
TABLEFORMAT_BEGIN
 90
        5
170
     1
 91
        0
 92
        0
 62
   257
 93
        1
300
CONTENTFORMAT
  1
CONTENTFORMAT_BEGIN
 90
        0
 91
        0
 92
        4
 93
        0
300

 40
0.0
140
1.0
 94
        5
 62
     0
340
11
144
0.18
309
CONTENTFORMAT_END
171
     1
301
MARGIN
  1
CELLMARGIN_BEGIN
 40
0.06
 40
0.06
 40
0.06
 40
0.06
 40
0.06
 40
0.06
309
CELLMARGIN_END
 94
        6
 95
        1
302
GRIDFORMAT
  1
GRIDFORMAT_BEGIN
 90
        0
 91
        1
 62
     0
 92
       -2
340
14
 93
        0
 40
0.045
309
GRIDFORMAT_END
 95
        2
302
GRIDFORMAT
  1
GRIDFORMAT_BEGIN
 90
        0
 91
        1
 62
     0
 92
       -2
340
14
 93
        0
 40
0.045
309
GRIDFORMAT_END
 95
        4
302
GRIDFORMAT
  1
GRIDFORMAT_BEGIN
 90
        0
 91
        1
 62
     0
 92
       -2
340
14
 93
        0
 40
0.045
309
GRIDFORMAT_END
 95
        8
302
GRIDFORMAT
  1
GRIDFORMAT_BEGIN
 90
        0
 91
        1
 62
     0
 92
       -2
340
14
 93
        0
 40
0.045
309
GRIDFORMAT_END
 95
       16
302
GRIDFORMAT
  1
GRIDFORMAT_BEGIN
 90
        0
 91
        1
 62
     0
 92
       -2
340
14
 93
        0
 40
0.045
309
GRIDFORMAT_END
 95
       32
302
GRIDFORMAT
  1
GRIDFORMAT_BEGIN
 90
        0
 91
        1
 62
     0
 92
       -2
340
14
 93
        0
 40
0.045
309
GRIDFORMAT_END
309
TABLEFORMAT_END
  1
CELLSTYLE_BEGIN
 90
        2
 91
        1
300
_HEADER
309
CELLSTYLE_END
300
CELLSTYLE
  1
TABLEFORMAT_BEGIN
 90
        5
170
     1
 91
        0
 92
        0
 62
   257
 93
        1
300
CONTENTFORMAT
  1
CONTENTFORMAT_BEGIN
 90
        0
 91
        0
 92
        4
 93
        0
300

 40
0.0
140
1.0
 94
        2
 62
     0
340
11
144
0.18
309
CONTENTFORMAT_END
171
     1
301
MARGIN
  1
CELLMARGIN_BEGIN
 40
0.06
 40
0.06
 40
0.06
 40
0.06
 40
0.06
 40
0.06
309
CELLMARGIN_END
 94
        6
 95
        1
302
GRIDFORMAT
  1
GRIDFORMAT_BEGIN
 90
        0
 91
        1
 62
     0
 92
       -2
340
14
 93
        0
 40
0.045
309
GRIDFORMAT_END
 95
        2
302
GRIDFORMAT
  1
GRIDFORMAT_BEGIN
 90
        0
 91
        1
 62
     0
 92
       -2
340
14
 93
        0
 40
0.045
309
GRIDFORMAT_END
 95
        4
302
GRIDFORMAT
  1
GRIDFORMAT_BEGIN
 90
        0
 91
        1
 62
     0
 92
       -2
340
14
 93
        0
 40
0.045
309
GRIDFORMAT_END
 95
        8
302
GRIDFORMAT
  1
GRIDFORMAT_BEGIN
 90
        0
 91
        1
 62
     0
 92
       -2
340
14
 93
        0
 40
0.045
309
GRIDFORMAT_END
 95
       16
302
GRIDFORMAT
  1
GRIDFORMAT_BEGIN
 90
        0
 91
        1
 62
     0
 92
       -2
340
14
 93
        0
 40
0.045
309
GRIDFORMAT_END
 95
       32
302
GRIDFORMAT
  1
GRIDFORMAT_BEGIN
 90
        0
 91
        1
 62
     0
 92
       -2
340
14
 93
        0
 40
0.045
309
GRIDFORMAT_END
309
TABLEFORMAT_END
  1
CELLSTYLE_BEGIN
 90
        3
 91
        2
300
_DATA
309
CELLSTYLE_END
  0
ENDSEC
  0
EOF
