  0
SECTION
  2
HEADER
  9
$ACADVER
  1
AC1015
  9
$ACADMAINTVER
 70
     6
  9
$DWGCODEPAGE
  3
ANSI_1252
  9
$INSBASE
 10
0.0
 20
0.0
 30
0.0
  9
$EXTMIN
 10
0.0
 20
0.0
 30
0.0
  9
$EXTMAX
 10
210.0
 20
297.0
 30
0.0
  9
$LIMMIN
 10
0.0
 20
0.0
  9
$LIMMAX
 10
0.0
 20
0.0
  9
$ORTHOMODE
 70
     0
  9
$REGENMODE
 70
     1
  9
$FILLMODE
 70
     1
  9
$QTEXTMODE
 70
     0
  9
$MIRRTEXT
 70
     1
  9
$LTSCALE
 40
1.0
  9
$ATTMODE
 70
     1
  9
$TEXTSIZE
 40
0.0
  9
$TRACEWID
 40
0.05
  9
$TEXTSTYLE
  7
STANDARD
  9
$CLAYER
  8
0
  9
$CELTYPE
  6
CONTINUOUS
  9
$CECOLOR
 62
   256
  9
$CELTSCALE
 40
1.0
  9
$DISPSILH
 70
     0
  9
$DIMSCALE
 40
1.0
  9
$DIMASZ
 40
0.0
  9
$DIMEXO
 40
0.0
  9
$DIMDLI
 40
0.38
  9
$DIMRND
 40
0.0
  9
$DIMDLE
 40
0.0
  9
$DIMEXE
 40
0.18
  9
$DIMTP
 40
0.0
  9
$DIMTM
 40
0.0
  9
$DIMTXT
 40
3.5
  9
$DIMCEN
 40
0.09
  9
$DIMTSZ
 40
0.0
  9
$DIMTOL
 70
     0
  9
$DIMLIM
 70
     0
  9
$DIMTIH
 70
     1
  9
$DIMTOH
 70
     1
  9
$DIMSE1
 70
     0
  9
$DIMSE2
 70
     0
  9
$DIMTAD
 70
     1
  9
$DIMZIN
 70
     0
  9
$DIMBLK
  1

  9
$DIMASO
 70
     1
  9
$DIMSHO
 70
     1
  9
$DIMPOST
  1

  9
$DIMAPOST
  1

  9
$DIMALT
 70
     0
  9
$DIMALTD
 70
     2
  9
$DIMALTF
 40
0.0394
  9
$DIMLFAC
 40
1.0
  9
$DIMTOFL
 70
     0
  9
$DIMTVP
 40
0.0
  9
$DIMTIX
 70
     0
  9
$DIMSOXD
 70
     0
  9
$DIMSAH
 70
     0
  9
$DIMBLK1
  1

  9
$DIMBLK2
  1

  9
$DIMSTYLE
  2
STANDARD
  9
$DIMCLRD
 70
     0
  9
$DIMCLRE
 70
     0
  9
$DIMCLRT
 70
     0
  9
$DIMTFAC
 40
1.0
  9
$DIMGAP
 40
0.0
  9
$DIMJUST
 70
     0
  9
$DIMSD1
 70
     0
  9
$DIMSD2
 70
     0
  9
$DIMTOLJ
 70
     1
  9
$DIMTZIN
 70
     0
  9
$DIMALTZ
 70
     0
  9
$DIMALTTZ
 70
     0
  9
$DIMUPT
 70
     0
  9
$DIMDEC
 70
     4
  9
$DIMTDEC
 70
     4
  9
$DIMALTU
 70
     2
  9
$DIMALTTD
 70
     2
  9
$DIMTXSTY
  7
STANDARD
  9
$DIMAUNIT
 70
     0
  9
$DIMADEC
 70
     0
  9
$DIMALTRND
 40
0.0
  9
$DIMAZIN
 70
     0
  9
$DIMDSEP
 70
    46
  9
$DIMATFIT
 70
     3
  9
$DIMFRAC
 70
     0
  9
$DIMLDRBLK
  1

  9
$DIMLUNIT
 70
     2
  9
$DIMLWD
 70
    -2
  9
$DIMLWE
 70
    -2
  9
$DIMTMOVE
 70
     2
  9
$LUNITS
 70
     2
  9
$LUPREC
 70
     2
  9
$SKETCHINC
 40
0.1
  9
$FILLETRAD
 40
0.0
  9
$AUNITS
 70
     0
  9
$AUPREC
 70
     2
  9
$MENU
  1
acad
  9
$ELEVATION
 40
0.0
  9
$PELEVATION
 40
0.0
  9
$THICKNESS
 40
0.0
  9
$LIMCHECK
 70
     0
  9
$CHAMFERA
 40
0.0
  9
$CHAMFERB
 40
0.0
  9
$CHAMFERC
 40
0.0
  9
$CHAMFERD
 40
0.0
  9
$SKPOLY
 70
     0
  9
$TDCREATE
 40
2447893.0
  9
$TDUCREATE
 40
2447892.916666667
  9
$TDUPDATE
 40
2458327.548767917
  9
$TDUUPDATE
 40
2458327.465434583
  9
$TDINDWG
 40
0.0
  9
$TDUSRTIMER
 40
0.0
  9
$USRTIMER
 70
     1
  9
$ANGBASE
 50
0.0
  9
$ANGDIR
 70
     0
  9
$PDMODE
 70
     0
  9
$PDSIZE
 40
-1.0
  9
$PLINEWID
 40
0.0
  9
$SPLFRAME
 70
     0
  9
$SPLINETYPE
 70
     6
  9
$SPLINESEGS
 70
     8
  9
$HANDSEED
  5
3C6
  9
$SURFTAB1
 70
     6
  9
$SURFTAB2
 70
     6
  9
$SURFTYPE
 70
     6
  9
$SURFU
 70
     6
  9
$SURFV
 70
     6
  9
$UCSBASE
  2

  9
$UCSNAME
  2

  9
$UCSORG
 10
0.0
 20
0.0
 30
0.0
  9
$UCSXDIR
 10
1.0
 20
0.0
 30
0.0
  9
$UCSYDIR
 10
0.0
 20
1.0
 30
0.0
  9
$UCSORTHOREF
  2

  9
$UCSORTHOVIEW
 70
     0
  9
$UCSORGTOP
 10
0.0
 20
0.0
 30
0.0
  9
$UCSORGBOTTOM
 10
0.0
 20
0.0
 30
0.0
  9
$UCSORGLEFT
 10
0.0
 20
0.0
 30
0.0
  9
$UCSORGRIGHT
 10
0.0
 20
0.0
 30
0.0
  9
$UCSORGFRONT
 10
0.0
 20
0.0
 30
0.0
  9
$UCSORGBACK
 10
0.0
 20
0.0
 30
0.0
  9
$PUCSBASE
  2

  9
$PUCSNAME
  2

  9
$PUCSORG
 10
0.0
 20
0.0
 30
0.0
  9
$PUCSXDIR
 10
1.0
 20
0.0
 30
0.0
  9
$PUCSYDIR
 10
0.0
 20
1.0
 30
0.0
  9
$PUCSORTHOREF
  2

  9
$PUCSORTHOVIEW
 70
     0
  9
$PUCSORGTOP
 10
0.0
 20
0.0
 30
0.0
  9
$PUCSORGBOTTOM
 10
0.0
 20
0.0
 30
0.0
  9
$PUCSORGLEFT
 10
0.0
 20
0.0
 30
0.0
  9
$PUCSORGRIGHT
 10
0.0
 20
0.0
 30
0.0
  9
$PUCSORGFRONT
 10
0.0
 20
0.0
 30
0.0
  9
$PUCSORGBACK
 10
0.0
 20
0.0
 30
0.0
  9
$USERI1
 70
     0
  9
$USERI2
 70
     0
  9
$USERI3
 70
     0
  9
$USERI4
 70
     0
  9
$USERI5
 70
     0
  9
$USERR1
 40
0.0
  9
$USERR2
 40
0.0
  9
$USERR3
 40
0.0
  9
$USERR4
 40
0.0
  9
$USERR5
 40
0.0
  9
$WORLDVIEW
 70
     1
  9
$SHADEDGE
 70
     3
  9
$SHADEDIF
 70
    70
  9
$TILEMODE
 70
     1
  9
$MAXACTVP
 70
    16
  9
$PINSBASE
 10
0.0
 20
0.0
 30
0.0
  9
$PLIMCHECK
 70
     0
  9
$PEXTMIN
 10
1.000000000000000E+20
 20
1.000000000000000E+20
 30
1.000000000000000E+20
  9
$PEXTMAX
 10
-1.000000000000000E+20
 20
-1.000000000000000E+20
 30
-1.000000000000000E+20
  9
$PLIMMIN
 10
0.0
 20
0.0
  9
$PLIMMAX
 10
12.0
 20
9.0
  9
$UNITMODE
 70
     0
  9
$VISRETAIN
 70
     0
  9
$PLINEGEN
 70
     1
  9
$PSLTSCALE
 70
     1
  9
$TREEDEPTH
 70
  3020
  9
$CMLSTYLE
  2
STANDARD
  9
$CMLJUST
 70
     0
  9
$CMLSCALE
 40
1.0
  9
$PROXYGRAPHICS
 70
     1
  9
$MEASUREMENT
 70
     0
  9
$CELWEIGHT
370
    -1
  9
$ENDCAPS
280
     0
  9
$JOINSTYLE
280
     0
  9
$LWDISPLAY
290
     0
  9
$INSUNITS
 70
     0
  9
$HYPERLINKBASE
  1

  9
$STYLESHEET
  1

  9
$XEDIT
290
     1
  9
$CEPSNTYPE
380
     0
  9
$PSTYLEMODE
290
     1
  9
$FINGERPRINTGUID
  2
{0B008B14-695B-4639-BCC0-13CE0E511843}
  9
$VERSIONGUID
  2
{FAEB1C32-E019-11D5-929B-00C0DF256EC4}
  9
$EXTNAMES
290
     1
  9
$PSVPSCALE
 40
0.0
  9
$OLESTARTUP
290
     0
  0
ENDSEC
  0
SECTION
  2
CLASSES
  0
CLASS
  1
LWPOLYLINE
  2
AcDbPolyline
  3
ObjectDBX Classes
 90
        0
280
     0
281
     1
  0
CLASS
  1
IMAGE
  2
AcDbRasterImage
  3
ISM
 90
      127
280
     0
281
     1
  0
CLASS
  1
OLE2FRAME
  2
AcDbOle2Frame
  3
ObjectDBX Classes
 90
        0
280
     0
281
     1
  0
CLASS
  1
HATCH
  2
AcDbHatch
  3
ObjectDBX Classes
 90
        0
280
     0
281
     1
  0
CLASS
  1
DICTIONARYVAR
  2
AcDbDictionaryVar
  3
ObjectDBX Classes
 90
        0
280
     0
281
     0
  0
CLASS
  1
RASTERVARIABLES
  2
AcDbRasterVariables
  3
ISM
 90
        0
280
     0
281
     0
  0
CLASS
  1
IMAGEDEF
  2
AcDbRasterImageDef
  3
ISM
 90
        0
280
     0
281
     0
  0
CLASS
  1
IMAGEDEF_REACTOR
  2
AcDbRasterImageDefReactor
  3
ISM
 90
        1
280
     0
281
     0
  0
CLASS
  1
IDBUFFER
  2
AcDbIdBuffer
  3
ObjectDBX Classes
 90
        0
280
     0
281
     0
  0
CLASS
  1
SPATIAL_FILTER
  2
AcDbSpatialFilter
  3
ObjectDBX Classes
 90
        0
280
     0
281
     0
  0
CLASS
  1
XRECORD
  2
AcDbXrecord
  3
ObjectDBX Classes
 90
        0
280
     0
281
     0
  0
CLASS
  1
SORTENTSTABLE
  2
AcDbSortentsTable
  3
ObjectDBX Classes
 90
        0
280
     0
281
     0
  0
CLASS
  1
LAYER_INDEX
  2
AcDbLayerIndex
  3
ObjectDBX Classes
 90
        0
280
     0
281
     0
  0
CLASS
  1
SPATIAL_INDEX
  2
AcDbSpatialIndex
  3
AutoCAD 2000
 90
        0
280
     0
281
     0
  0
CLASS
  1
OBJECT_PTR
  2
CAseDLPNTableRecord
  3
ASE-LPNTableRecord
 90
        1
280
     0
281
     0
  0
CLASS
  1
LAYOUT
  2
AcDbLayout
  3
ObjectDBX Classes
 90
        0
280
     0
281
     0
  0
CLASS
  1
PLOTSETTINGS
  2
AcDbPlotSettings
  3
ObjectDBX Classes
 90
        0
280
     0
281
     0
  0
CLASS
  1
ACDBDICTIONARYWDFLT
  2
AcDbDictionaryWithDefault
  3
ObjectDBX Classes
 90
        0
280
     0
281
     0
  0
CLASS
  1
ACDBPLACEHOLDER
  2
AcDbPlaceHolder
  3
ObjectDBX Classes
 90
        0
280
     0
281
     0
  0
CLASS
  1
VBA_PROJECT
  2
AcDbVbaProject
  3
ObjectDBX Classes
 90
        0
280
     0
281
     0
  0
CLASS
  1
WIPEOUT
  2
AcDbWipeout
  3
WipeOut|AutoCAD Express Tool|expresstools@autodesk.com
 90
      127
280
     0
281
     1
  0
CLASS
  1
WIPEOUTVARIABLES
  2
AcDbWipeoutVariables
  3
WipeOut|AutoCAD Express Tool|expresstools@autodesk.com
 90
        0
280
     0
281
     0
  0
CLASS
  1
RTEXT
  2
RText
  3
RText|AutoCAD Express Tool|expresstools@autodesk.com
 90
        0
280
     0
281
     1
  0
CLASS
  1
ARCALIGNEDTEXT
  2
AcDbArcAlignedText
  3
ATEXT|AutoCAD Express Tool|expresstools@autodesk.com
 90
        0
280
     0
281
     1
  0
CLASS
  1
SCALE
  2
AcDbScale
  3
ObjectDBX Classes
 90
     1153
280
     0
281
     0
  0
CLASS
  1
VISUALSTYLE
  2
AcDbVisualStyle
  3
ObjectDBX Classes
 90
     4095
280
     0
281
     0
  0
CLASS
  1
MATERIAL
  2
AcDbMaterial
  3
ObjectDBX Classes
 90
     1153
280
     0
281
     0
  0
ENDSEC
  0
SECTION
  2
TABLES
  0
TABLE
  2
VPORT
  5
7
102
{ACAD_XDICTIONARY
360
38B
102
}
330
0
100
AcDbSymbolTable
 70
     1
  0
VPORT
  5
15
330
7
100
AcDbSymbolTableRecord
100
AcDbViewportTableRecord
  2
*ACTIVE
 70
     0
 10
0.0
 20
0.0
 11
1.0
 21
1.0
 12
105.0
 22
148.5
 13
0.0
 23
0.0
 14
1.0
 24
1.0
 15
0.0
 25
0.0
 16
0.0
 26
0.0
 36
1.0
 17
0.0
 27
0.0
 37
0.0
 40
297.0
 41
1.4142857143
 42
50.0
 43
0.0
 44
0.0
 50
0.0
 51
0.0
 71
     0
 72
  2000
 73
     1
 74
     1
 75
     0
 76
     0
 77
     0
 78
     0
281
     0
 65
     1
110
0.0
120
0.0
130
0.0
111
1.0
121
0.0
131
0.0
112
0.0
122
1.0
132
0.0
 79
     0
146
0.0
  0
ENDTAB
  0
TABLE
  2
LTYPE
  5
4
330
0
100
AcDbSymbolTable
 70
     6
  0
LTYPE
  5
11
330
4
100
AcDbSymbolTableRecord
100
AcDbLinetypeTableRecord
  2
BYBLOCK
 70
     0
  3

 72
    65
 73
     0
 40
0.0
  0
LTYPE
  5
12
330
4
100
AcDbSymbolTableRecord
100
AcDbLinetypeTableRecord
  2
BYLAYER
 70
     0
  3

 72
    65
 73
     0
 40
0.0
  0
LTYPE
  5
13
330
4
100
AcDbSymbolTableRecord
100
AcDbLinetypeTableRecord
  2
CONTINUOUS
 70
     0
  3
Solid line
 72
    65
 73
     0
 40
0.0
  0
LTYPE
  5
1D
330
4
100
AcDbSymbolTableRecord
100
AcDbLinetypeTableRecord
  2
HIDDEN
 70
     0
  3
Hidden __ __ __ __ __ __ __ __ __ __ __ __ __ __
 72
    65
 73
     2
 40
1.905
 49
1.27
 74
     0
 49
-0.635
 74
     0
  0
LTYPE
  5
1E
330
4
100
AcDbSymbolTableRecord
100
AcDbLinetypeTableRecord
  2
PHANTOM
 70
     0
  3
Phantom ______  __  __  ______  __  __  ______
 72
    65
 73
     6
 40
12.7
 49
6.35
 74
     0
 49
-1.27
 74
     0
 49
1.27
 74
     0
 49
-1.27
 74
     0
 49
1.27
 74
     0
 49
-1.27
 74
     0
  0
LTYPE
  5
1F
330
4
100
AcDbSymbolTableRecord
100
AcDbLinetypeTableRecord
  2
CENTER
 70
     0
  3
Center ____ _ ____ _ ____ _ ____ _ ____ _ ____
 72
    65
 73
     4
 40
10.16
 49
6.35
 74
     0
 49
-1.27
 74
     0
 49
1.27
 74
     0
 49
-1.27
 74
     0
  0
LTYPE
  5
20
330
4
100
AcDbSymbolTableRecord
100
AcDbLinetypeTableRecord
  2
CENTERX2
 70
     0
  3
Center (2x) ________  __  ________  __  _____
 72
    65
 73
     4
 40
20.32
 49
12.7
 74
     0
 49
-2.54
 74
     0
 49
2.54
 74
     0
 49
-2.54
 74
     0
  0
LTYPE
  5
21
330
4
100
AcDbSymbolTableRecord
100
AcDbLinetypeTableRecord
  2
DOT2
 70
     0
  3
Dot (.5x) ........................................
 72
    65
 73
     2
 40
0.635
 49
0.0
 74
     0
 49
-0.635
 74
     0
  0
LTYPE
  5
3B5
330
5
100
AcDbSymbolTableRecord
100
AcDbLinetypeTableRecord
  2
DASH
 70
     0
  3
DASH _ _ _ _ _
 72
    65
 73
     2
 40
0.75
 49
0.40
 74
     0
 49
-0.35
 74
     0
  0
LTYPE
  5
3B6
330
5
100
AcDbSymbolTableRecord
100
AcDbLinetypeTableRecord
  2
LONGDASH_DASH
 70
     0
  3
LONGDASH_DASH __ . __ . __
 72
    65
 73
     4
 40
0.85
 49
0.40
 74
     0
 49
-0.20
 74
     0
 49
0.05
 74
     0
 49
-0.20
 74
     0
  0
LTYPE
  5
3B7
330
5
100
AcDbSymbolTableRecord
100
AcDbLinetypeTableRecord
  2
LONGDASH_DASH_DASH
 70
     0
  3
LONGDASH_DASH_DASH __ . . __ . . __
 72
    65
 73
     6
 40
1.10
 49
0.40
 74
     0
 49
-0.20
 74
     0
 49
0.05
 74
     0
 49
-0.20
 74
     0
 49
0.05
 74
     0
 49
-0.20
 74
     0
  0
ENDTAB
  0
TABLE
  2
LAYER
  5
2
330
0
100
AcDbSymbolTable
 70
     8
  0
LAYER
  5
23
330
2
100
AcDbSymbolTableRecord
100
AcDbLayerTableRecord
  2
DEFPOINTS
 70
     0
 62
     7
  6
CONTINUOUS
290
     0
370
    -3
390
0
  0
LAYER
  5
3B8
330
2
100
AcDbSymbolTableRecord
100
AcDbLayerTableRecord
  2
0
 70
     0
 62
     -1
  6
CONTINUOUS
370
    -3
390
F
  0
LAYER
  5
3B9
330
2
100
AcDbSymbolTableRecord
100
AcDbLayerTableRecord
  2
1
 70
     0
 62
     4
  6
CONTINUOUS
370
    50
390
F
  0
LAYER
  5
3BA
330
2
100
AcDbSymbolTableRecord
100
AcDbLayerTableRecord
  2
2
 70
     0
 62
     7
  6
CONTINUOUS
370
    25
390
F
  0
LAYER
  5
3BB
330
2
100
AcDbSymbolTableRecord
100
AcDbLayerTableRecord
  2
3
 70
     0
 62
     1
  6
DASH
370
    35
390
F
  0
LAYER
  5
3BC
330
2
100
AcDbSymbolTableRecord
100
AcDbLayerTableRecord
  2
4
 70
     0
 62
     2
  6
LONGDASH_DASH
370
    25
390
F
  0
LAYER
  5
3BD
330
2
100
AcDbSymbolTableRecord
100
AcDbLayerTableRecord
  2
6
 70
     0
 62
     5
  6
CONTINUOUS
370
    -3
390
F
  0
LAYER
  5
3BE
330
2
100
AcDbSymbolTableRecord
100
AcDbLayerTableRecord
  2
CUT
 70
     0
 62
     1
  6
CONTINUOUS
370
    25
390
F
  0
LAYER
  5
3BF
330
2
100
AcDbSymbolTableRecord
100
AcDbLayerTableRecord
  2
NOCUT
 70
     0
 62
     7
  6
CONTINUOUS
370
    25
390
F
  0
LAYER
  5
3C0
330
2
100
AcDbSymbolTableRecord
100
AcDbLayerTableRecord
  2
SK1
 70
     0
 62
     4
  6
CONTINUOUS
370
    50
390
F
  0
LAYER
  5
3C1
330
2
100
AcDbSymbolTableRecord
100
AcDbLayerTableRecord
  2
SK2
 70
     0
 62
     7
  6
CONTINUOUS
370
    25
390
F
  0
LAYER
  5
3C2
330
2
100
AcDbSymbolTableRecord
100
AcDbLayerTableRecord
  2
SK3
 70
     0
 62
     1
  6
DASH
370
    35
390
F
  0
LAYER
  5
3C3
330
2
100
AcDbSymbolTableRecord
100
AcDbLayerTableRecord
  2
SK4
 70
     0
 62
     2
  6
LONGDASH_DASH
370
    25
390
F
  0
LAYER
  5
3C4
330
2
100
AcDbSymbolTableRecord
100
AcDbLayerTableRecord
  2
SK6
 70
     0
 62
     5
  6
CONTINUOUS
370
    -3
390
F
  0
LAYER
  5
3C5
330
2
100
AcDbSymbolTableRecord
100
AcDbLayerTableRecord
  2
INFTOTAL
 70
     0
 62
     9
  6
CONTINUOUS
370
    18
390
F
  0
ENDTAB
  0
TABLE
  2
STYLE
  5
3
330
0
100
AcDbSymbolTable
 70
     2
  0
STYLE
  5
17
330
3
100
AcDbSymbolTableRecord
100
AcDbTextStyleTableRecord
  2
STANDARD
 70
     0
 40
0.0
 41
1.0
 50
0.0
 71
     0
 42
0.2
  3
txt
  4

  0
STYLE
  5
383
330
3
100
AcDbSymbolTableRecord
100
AcDbTextStyleTableRecord
  2
BMG_Text
 70
     0
 40
3.5
 41
1.0
 50
0.0
 71
     0
 42
0.0
  3
monos.ttf
  4

1001
ACAD
1000
Monospac821 BT
1071
       49
  0
ENDTAB
  0
TABLE
  2
VIEW
  5
5
330
0
100
AcDbSymbolTable
 70
     0
  0
ENDTAB
  0
TABLE
  2
UCS
  5
6
330
0
100
AcDbSymbolTable
 70
     0
  0
ENDTAB
  0
TABLE
  2
APPID
  5
8
330
0
100
AcDbSymbolTable
 70
     1
  0
APPID
  5
16
330
8
100
AcDbSymbolTableRecord
100
AcDbRegAppTableRecord
  2
ACAD
 70
     0
  0
ENDTAB
  0
TABLE
  2
DIMSTYLE
  5
9
330
0
100
AcDbSymbolTable
 70
     1
100
AcDbDimStyleTable
  0
DIMSTYLE
105
18
330
9
100
AcDbSymbolTableRecord
100
AcDbDimStyleTableRecord
  2
STANDARD
 70
     0
178
     0
340
17
  0
ENDTAB
  0
TABLE
  2
BLOCK_RECORD
  5
1
330
0
100
AcDbSymbolTable
 70
     0
  0
BLOCK_RECORD
  5
A
330
1
100
AcDbSymbolTableRecord
100
AcDbBlockTableRecord
  2
*MODEL_SPACE
340
36C
  0
BLOCK_RECORD
  5
B
330
1
100
AcDbSymbolTableRecord
100
AcDbBlockTableRecord
  2
*PAPER_SPACE
340
36D
  0
ENDTAB
  0
ENDSEC
  0
SECTION
  2
BLOCKS
  0
BLOCK
  5
D
330
A
100
AcDbEntity
  8
0
100
AcDbBlockBegin
  2
*MODEL_SPACE
 70
     0
 10
0.0
 20
0.0
 30
0.0
  3
*MODEL_SPACE
  1

  0
ENDBLK
  5
E
330
A
100
AcDbEntity
  8
0
100
AcDbBlockEnd
  0
BLOCK
  5
F
330
B
100
AcDbEntity
 67
     1
  8
0
100
AcDbBlockBegin
  2
*PAPER_SPACE
 70
     0
 10
0.0
 20
0.0
 30
0.0
  3
*PAPER_SPACE
  1

  0
ENDBLK
  5
10
330
B
100
AcDbEntity
 67
     1
  8
0
100
AcDbBlockEnd
  0
ENDSEC
  0
SECTION
  2
ENTITIES
  0
ARC
  5
29
330
A
100
AcDbEntity
  8
1
  6
CONTINUOUS
370
    50
100
AcDbCircle
 10
129.6338517502
 20
132.769743349
 30
0.0
 40
0.5
100
AcDbArc
 50
66.4218215218
 51
90.0
  0
ARC
  5
2A
330
A
100
AcDbEntity
  8
1
  6
CONTINUOUS
370
    50
100
AcDbCircle
 10
129.6338517502
 20
203.019743349
 30
0.0
 40
0.5
100
AcDbArc
 50
270.0
 51
293.5781784782001
  0
LINE
  5
2B
330
A
100
AcDbEntity
  8
1
  6
CONTINUOUS
370
    50
100
AcDbLine
 10
128.3338517502
 20
202.8197579325
 30
0.0
 11
28.6591582389
 21
188.2837278783
 31
0.0
  0
LINE
  5
2C
330
A
100
AcDbEntity
  8
1
  6
CONTINUOUS
370
    50
100
AcDbLine
 10
28.6591582389
 20
147.5057588197
 30
0.0
 11
128.3338517502
 21
132.9697287656
 31
0.0
  0
LINE
  5
2D
330
A
100
AcDbEntity
  8
1
  6
CONTINUOUS
370
    50
100
AcDbLine
 10
128.3338517502
 20
132.9697287656
 30
0.0
 11
128.4874051408
 21
133.1232967396
 31
0.0
  0
LINE
  5
2E
330
A
100
AcDbEntity
  8
1
  6
CONTINUOUS
370
    50
100
AcDbLine
 10
128.4874051408
 20
202.6661899585
 30
0.0
 11
128.3338517502
 21
202.8197579325
 31
0.0
  0
ARC
  5
2F
330
A
100
AcDbEntity
  8
1
  6
CONTINUOUS
370
    50
100
AcDbCircle
 10
128.8409585314
 20
132.769743349
 30
0.0
 40
0.5
100
AcDbArc
 50
90.0
 51
135.0
  0
ARC
  5
30
330
A
100
AcDbEntity
  8
1
  6
CONTINUOUS
370
    50
100
AcDbCircle
 10
128.8409585314
 20
203.019743349
 30
0.0
 40
0.5
100
AcDbArc
 50
225.0
 51
270.0
  0
LINE
  5
31
330
A
100
AcDbEntity
  8
1
  6
CONTINUOUS
370
    50
100
AcDbLine
 10
128.8409585314
 20
133.269743349
 30
0.0
 11
129.6338517502
 21
133.269743349
 31
0.0
  0
LINE
  5
32
330
A
100
AcDbEntity
  8
1
  6
CONTINUOUS
370
    50
100
AcDbLine
 10
129.6338517502
 20
202.519743349
 30
0.0
 11
128.8409585314
 21
202.519743349
 31
0.0
  0
ARC
  5
33
330
A
100
AcDbEntity
  8
1
  6
CONTINUOUS
370
    50
100
AcDbCircle
 10
152.3838517502
 20
141.144743349
 30
0.0
 40
5.0
100
AcDbArc
 50
90.0
 51
180.0
  0
ARC
  5
34
330
A
100
AcDbEntity
  8
1
  6
CONTINUOUS
370
    50
100
AcDbCircle
 10
152.3838517502
 20
194.644743349
 30
0.0
 40
5.0
100
AcDbArc
 50
180.0
 51
270.0
  0
LINE
  5
35
330
A
100
AcDbEntity
  8
1
  6
CONTINUOUS
370
    50
100
AcDbLine
 10
152.3838517502
 20
146.144743349
 30
0.0
 11
178.5300041729
 21
146.144743349
 31
0.0
  0
LINE
  5
36
330
A
100
AcDbEntity
  8
1
  6
CONTINUOUS
370
    50
100
AcDbLine
 10
178.5300041729
 20
189.644743349
 30
0.0
 11
152.3838517502
 21
189.644743349
 31
0.0
  0
ARC
  5
37
330
A
100
AcDbEntity
  8
1
  6
CONTINUOUS
370
    50
100
AcDbCircle
 10
178.5300041729
 20
149.144743349
 30
0.0
 40
3.0
100
AcDbArc
 50
270.0
 51
300.0
  0
ARC
  5
38
330
A
100
AcDbEntity
  8
1
  6
CONTINUOUS
370
    50
100
AcDbCircle
 10
178.5300041729
 20
186.644743349
 30
0.0
 40
3.0
100
AcDbArc
 50
60.0
 51
90.0
  0
LINE
  5
39
330
A
100
AcDbEntity
  8
1
  6
CONTINUOUS
370
    50
100
AcDbLine
 10
180.0300041729
 20
146.5466671377
 30
0.0
 11
189.8338517502
 21
152.2069211755
 31
0.0
  0
LINE
  5
3A
330
A
100
AcDbEntity
  8
1
  6
CONTINUOUS
370
    50
100
AcDbLine
 10
189.8338517502
 20
183.5825655226
 30
0.0
 11
180.0300041729
 21
189.2428195604
 31
0.0
  0
ARC
  5
3B
330
A
100
AcDbEntity
  8
1
  6
CONTINUOUS
370
    50
100
AcDbCircle
 10
28.9838517502
 20
186.0572791087
 30
0.0
 40
2.25
100
AcDbArc
 50
98.2972222222
 51
180.0
  0
ARC
  5
3C
330
A
100
AcDbEntity
  8
1
  6
CONTINUOUS
370
    50
100
AcDbCircle
 10
28.9838517502
 20
149.7322075893
 30
0.0
 40
2.25
100
AcDbArc
 50
180.0
 51
261.7027777778
  0
ARC
  5
3D
330
A
100
AcDbEntity
  8
1
  6
CONTINUOUS
370
    50
100
AcDbCircle
 10
188.3338517502
 20
154.8049973869
 30
0.0
 40
3.0
100
AcDbArc
 50
300.0
 51
0.0
  0
ARC
  5
3E
330
A
100
AcDbEntity
  8
1
  6
CONTINUOUS
370
    50
100
AcDbCircle
 10
188.3338517502
 20
180.9844893112
 30
0.0
 40
3.0
100
AcDbArc
 50
0.0
 51
60.0
  0
LINE
  5
3F
330
A
100
AcDbEntity
  8
1
  6
CONTINUOUS
370
    50
100
AcDbLine
 10
142.6670132577
 20
197.744743349
 30
0.0
 11
142.6670132577
 21
121.0811765548
 31
0.0
  0
LINE
  5
40
330
A
100
AcDbEntity
  8
1
  6
CONTINUOUS
370
    50
100
AcDbLine
 10
146.8838517502
 20
197.744743349
 30
0.0
 11
142.6670132577
 21
197.744743349
 31
0.0
  0
LINE
  5
41
330
A
100
AcDbEntity
  8
1
  6
CONTINUOUS
370
    50
100
AcDbLine
 10
146.8838517502
 20
121.0811765548
 30
0.0
 11
146.8838517502
 21
197.744743349
 31
0.0
  0
LINE
  5
42
330
A
100
AcDbEntity
  8
1
  6
CONTINUOUS
370
    50
100
AcDbLine
 10
142.6670132577
 20
121.0811765548
 30
0.0
 11
146.8838517502
 21
121.0811765548
 31
0.0
  0
LINE
  5
43
330
A
100
AcDbEntity
  8
1
  6
CONTINUOUS
370
    50
100
AcDbLine
 10
146.8838517502
 20
197.744743349
 30
0.0
 11
147.3838517502
 21
197.744743349
 31
0.0
  0
LINE
  5
44
330
A
100
AcDbEntity
  8
1
  6
CONTINUOUS
370
    50
100
AcDbLine
 10
147.3838517502
 20
197.744743349
 30
0.0
 11
147.3838517502
 21
121.4856565299
 31
0.0
  0
LINE
  5
45
330
A
100
AcDbEntity
  8
1
  6
CONTINUOUS
370
    50
100
AcDbLine
 10
147.3838517502
 20
121.4856565299
 30
0.0
 11
146.8838517502
 21
121.0811765548
 31
0.0
  0
LINE
  5
46
330
A
100
AcDbEntity
  8
1
  6
CONTINUOUS
370
    50
100
AcDbLine
 10
130.3338517502
 20
197.744743349
 30
0.0
 11
130.3338517502
 21
121.3928818272
 31
0.0
  0
LINE
  5
47
330
A
100
AcDbEntity
  8
1
  6
CONTINUOUS
370
    50
100
AcDbLine
 10
130.3338517502
 20
121.3928818272
 30
0.0
 11
129.8338517502
 21
122.0782820606
 31
0.0
  0
LINE
  5
48
330
A
100
AcDbEntity
  8
1
  6
CONTINUOUS
370
    50
100
AcDbLine
 10
129.8338517502
 20
122.0782820606
 30
0.0
 11
129.8338517502
 21
197.744743349
 31
0.0
  0
LINE
  5
49
330
A
100
AcDbEntity
  8
1
  6
CONTINUOUS
370
    50
100
AcDbLine
 10
129.8338517502
 20
197.744743349
 30
0.0
 11
130.3338517502
 21
197.744743349
 31
0.0
  0
LINE
  5
4A
330
A
100
AcDbEntity
  8
1
  6
CONTINUOUS
370
    50
100
AcDbLine
 10
136.2006902428
 20
121.0811765548
 30
0.0
 11
136.2006902428
 21
197.744743349
 31
0.0
  0
LINE
  5
4B
330
A
100
AcDbEntity
  8
1
  6
CONTINUOUS
370
    50
100
AcDbLine
 10
131.3703182006
 20
121.0811765548
 30
0.0
 11
136.2006902428
 21
121.0811765548
 31
0.0
  0
LINE
  5
4C
330
A
100
AcDbEntity
  8
1
  6
CONTINUOUS
370
    50
100
AcDbLine
 10
130.3338517502
 20
121.3928818272
 30
0.0
 11
131.3703182006
 21
121.0811765548
 31
0.0
  0
LINE
  5
4D
330
A
100
AcDbEntity
  8
1
  6
CONTINUOUS
370
    50
100
AcDbLine
 10
136.2006902428
 20
197.744743349
 30
0.0
 11
130.3338517502
 21
197.744743349
 31
0.0
  0
LINE
  5
4E
330
A
100
AcDbEntity
  8
1
  6
CONTINUOUS
370
    50
100
AcDbLine
 10
141.3588517502
 20
197.744743349
 30
0.0
 11
141.3588517502
 21
123.2479678704
 31
0.0
  0
LINE
  5
4F
330
A
100
AcDbEntity
  8
1
  6
CONTINUOUS
370
    50
100
AcDbLine
 10
142.6670132577
 20
197.744743349
 30
0.0
 11
141.3588517502
 21
197.744743349
 31
0.0
  0
LINE
  5
50
330
A
100
AcDbEntity
  8
1
  6
CONTINUOUS
370
    50
100
AcDbLine
 10
142.1939418302
 20
121.7447101044
 30
0.0
 11
142.6670132577
 21
121.0811765548
 31
0.0
  0
LWPOLYLINE
  5
51
330
A
100
AcDbEntity
  8
1
  6
CONTINUOUS
370
    50
100
AcDbPolyline
 90
        3
 70
   128
 43
0.0
 10
141.3588517502
 20
123.2479678704
 10
142.0452320515
 20
122.0121373202
 10
142.1939418302
 20
121.7447101044
  0
LINE
  5
56
330
A
100
AcDbEntity
  8
1
  6
CONTINUOUS
370
    50
100
AcDbLine
 10
137.5088517502
 20
197.744743349
 30
0.0
 11
136.2006902428
 21
197.744743349
 31
0.0
  0
LINE
  5
57
330
A
100
AcDbEntity
  8
1
  6
CONTINUOUS
370
    50
100
AcDbLine
 10
137.5088517502
 20
123.2479678704
 30
0.0
 11
137.5088517502
 21
197.744743349
 31
0.0
  0
LWPOLYLINE
  5
58
330
A
100
AcDbEntity
  8
1
  6
CONTINUOUS
370
    50
100
AcDbPolyline
 90
        3
 70
   128
 43
0.0
 10
136.6737616703
 20
121.7447101044
 10
136.8549218211
 20
122.0705083586
 10
137.5088517502
 20
123.2479678704
  0
LINE
  5
5D
330
A
100
AcDbEntity
  8
1
  6
CONTINUOUS
370
    50
100
AcDbLine
 10
136.2006902428
 20
121.0811765548
 30
0.0
 11
136.6737616703
 21
121.7447101044
 31
0.0
  0
ARC
  5
5E
330
A
100
AcDbEntity
  8
1
  6
CONTINUOUS
370
    50
100
AcDbCircle
 10
140.8489588243
 20
123.7370602683
 30
0.0
 40
0.5100127724
100
AcDbArc
 50
358.7578664218
 51
88.8885406698
  0
LINE
  5
5F
330
A
100
AcDbEntity
  8
1
  6
CONTINUOUS
370
    50
100
AcDbLine
 10
140.8588517502
 20
197.744743349
 30
0.0
 11
140.8588517502
 21
124.2469770832
 31
0.0
  0
LINE
  5
60
330
A
100
AcDbEntity
  8
1
  6
CONTINUOUS
370
    50
100
AcDbLine
 10
140.8588517502
 20
197.744743349
 30
0.0
 11
141.3588517502
 21
197.744743349
 31
0.0
  0
ARC
  5
61
330
A
100
AcDbEntity
  8
1
  6
CONTINUOUS
370
    50
100
AcDbCircle
 10
138.0203332675
 20
123.7355356285
 30
0.0
 40
0.5115703146
100
AcDbArc
 50
91.28603577260002
 51
181.0675571359
  0
LINE
  5
62
330
A
100
AcDbEntity
  8
1
  6
CONTINUOUS
370
    50
100
AcDbLine
 10
137.5088517502
 20
197.744743349
 30
0.0
 11
138.0088517502
 21
197.744743349
 31
0.0
  0
LINE
  5
63
330
A
100
AcDbEntity
  8
1
  6
CONTINUOUS
370
    50
100
AcDbLine
 10
138.0088517502
 20
197.744743349
 30
0.0
 11
138.0088517502
 21
124.2469770832
 31
0.0
  0
LINE
  5
64
330
A
100
AcDbEntity
  8
1
  6
CONTINUOUS
370
    50
100
AcDbLine
 10
140.8588517502
 20
124.2469770832
 30
0.0
 11
138.0088517502
 21
124.2469770832
 31
0.0
  0
LINE
  5
65
330
A
100
AcDbEntity
  8
1
  6
CONTINUOUS
370
    50
100
AcDbLine
 10
138.0088517502
 20
197.744743349
 30
0.0
 11
140.8588517502
 21
197.744743349
 31
0.0
  0
LINE
  5
66
330
A
100
AcDbEntity
  8
1
  6
CONTINUOUS
370
    50
100
AcDbLine
 10
128.3338517502
 20
202.8197579325
 30
0.0
 11
128.3338517502
 21
132.9697287656
 31
0.0
  0
LINE
  5
67
330
A
100
AcDbEntity
  8
1
  6
CONTINUOUS
370
    50
100
AcDbLine
 10
130.3338517502
 20
206.4058213007
 30
0.0
 11
129.8338517502
 21
205.7712284684
 31
0.0
  0
LINE
  5
68
330
A
100
AcDbEntity
  8
1
  6
CONTINUOUS
370
    50
100
AcDbLine
 10
130.3338517502
 20
206.4058213007
 30
0.0
 11
136.2006902428
 21
206.4058213007
 31
0.0
  0
LINE
  5
69
330
A
100
AcDbEntity
  8
1
  6
CONTINUOUS
370
    50
100
AcDbLine
 10
136.2006902428
 20
206.4058213007
 30
0.0
 11
137.5088517502
 21
203.4957905337
 31
0.0
  0
LINE
  5
6A
330
A
100
AcDbEntity
  8
1
  6
CONTINUOUS
370
    50
100
AcDbLine
 10
137.5088517502
 20
202.894421919
 30
0.0
 11
137.5088517502
 21
203.4957905337
 31
0.0
  0
ARC
  5
6B
330
A
100
AcDbEntity
  8
1
  6
CONTINUOUS
370
    50
100
AcDbCircle
 10
138.1055972956
 20
202.8272907005
 30
0.0
 40
0.6005096556
100
AcDbArc
 50
173.5814650335
 51
260.7289175414999
  0
LINE
  5
6C
330
A
100
AcDbEntity
  8
1
  6
CONTINUOUS
370
    50
100
AcDbLine
 10
140.8588517502
 20
202.2346254106
 30
0.0
 11
138.0088517502
 21
202.2346254106
 31
0.0
  0
ARC
  5
6D
330
A
100
AcDbEntity
  8
1
  6
CONTINUOUS
370
    50
100
AcDbCircle
 10
140.7937778276
 20
202.8032896469
 30
0.0
 40
0.5723754267
100
AcDbArc
 50
276.5281284860999
 51
9.161488939
  0
LINE
  5
6E
330
A
100
AcDbEntity
  8
1
  6
CONTINUOUS
370
    50
100
AcDbLine
 10
141.3588517502
 20
203.4957905337
 30
0.0
 11
141.3588517502
 21
202.894421919
 31
0.0
  0
LWPOLYLINE
  5
6F
330
A
100
AcDbEntity
  8
1
  6
CONTINUOUS
370
    50
100
AcDbPolyline
 90
        3
 70
   128
 43
0.0
 10
141.3588517502
 20
203.4957905337
 10
141.4471513006
 20
203.6951459467
 10
142.6670132577
 20
206.4058213007
  0
LINE
  5
74
330
A
100
AcDbEntity
  8
1
  6
CONTINUOUS
370
    50
100
AcDbLine
 10
142.6670132577
 20
206.4058213007
 30
0.0
 11
146.8838517502
 21
206.4058213007
 31
0.0
  0
LINE
  5
75
330
A
100
AcDbEntity
  8
1
  6
CONTINUOUS
370
    50
100
AcDbLine
 10
147.3838517502
 20
205.7712284684
 30
0.0
 11
146.8838517502
 21
206.4058213007
 31
0.0
  0
LINE
  5
76
330
A
100
AcDbEntity
  8
1
  6
CONTINUOUS
370
    50
100
AcDbLine
 10
129.8338517502
 20
205.7712284684
 30
0.0
 11
129.8338517502
 21
197.744743349
 31
0.0
  0
LINE
  5
77
330
A
100
AcDbEntity
  8
1
  6
CONTINUOUS
370
    50
100
AcDbLine
 10
147.3838517502
 20
205.7712284684
 30
0.0
 11
147.3838517502
 21
197.744743349
 31
0.0
  0
LINE
  5
78
330
A
100
AcDbEntity
  8
1
  6
CONTINUOUS
370
    50
100
AcDbLine
 10
138.0088517502
 20
211.5425096149
 30
0.0
 11
138.0088517502
 21
202.2346254106
 31
0.0
  0
ARC
  5
79
330
A
100
AcDbEntity
  8
1
  6
CONTINUOUS
370
    50
100
AcDbCircle
 10
138.0180889235
 20
212.0517970756
 30
0.0
 40
0.5093712232
100
AcDbArc
 50
178.6854922075
 51
268.9609148841
  0
LINE
  5
7A
330
A
100
AcDbEntity
  8
1
  6
CONTINUOUS
370
    50
100
AcDbLine
 10
140.8588517502
 20
211.5425096149
 30
0.0
 11
140.8588517502
 21
202.2346254106
 31
0.0
  0
ARC
  5
7B
330
A
100
AcDbEntity
  8
1
  6
CONTINUOUS
370
    50
100
AcDbCircle
 10
140.8512925385
 20
212.0501866634
 30
0.0
 40
0.5077333229
100
AcDbArc
 50
270.8530598857
 51
1.5005330227
  0
LINE
  5
7C
330
A
100
AcDbEntity
  8
1
  6
CONTINUOUS
370
    50
100
AcDbLine
 10
140.8588517502
 20
211.5425096149
 30
0.0
 11
138.0088517502
 21
211.5425096149
 31
0.0
  0
LINE
  5
7D
330
A
100
AcDbEntity
  8
1
  6
CONTINUOUS
370
    50
100
AcDbLine
 10
136.2006902428
 20
206.4058213007
 30
0.0
 11
136.2006902428
 21
214.6655023855
 31
0.0
  0
LINE
  5
7E
330
A
100
AcDbEntity
  8
1
  6
CONTINUOUS
370
    50
100
AcDbLine
 10
136.585872751
 20
214.2027761427
 30
0.0
 11
136.2006902428
 21
214.6655023855
 31
0.0
  0
LINE
  5
7F
330
A
100
AcDbEntity
  8
1
  6
CONTINUOUS
370
    50
100
AcDbLine
 10
136.585872751
 20
214.2027761427
 30
0.0
 11
137.5088517502
 21
212.5415188277
 31
0.0
  0
LINE
  5
80
330
A
100
AcDbEntity
  8
1
  6
CONTINUOUS
370
    50
100
AcDbLine
 10
137.5088517502
 20
203.4957905337
 30
0.0
 11
137.5088517502
 21
212.5415188277
 31
0.0
  0
LINE
  5
81
330
A
100
AcDbEntity
  8
1
  6
CONTINUOUS
370
    50
100
AcDbLine
 10
141.3588517502
 20
212.5415188277
 30
0.0
 11
142.2818307494
 21
214.2027761427
 31
0.0
  0
LINE
  5
82
330
A
100
AcDbEntity
  8
1
  6
CONTINUOUS
370
    50
100
AcDbLine
 10
142.6670132577
 20
214.6655023855
 30
0.0
 11
142.2818307494
 21
214.2027761427
 31
0.0
  0
LINE
  5
83
330
A
100
AcDbEntity
  8
1
  6
CONTINUOUS
370
    50
100
AcDbLine
 10
142.6670132577
 20
214.6655023855
 30
0.0
 11
142.6670132577
 21
206.4058213007
 31
0.0
  0
LINE
  5
84
330
A
100
AcDbEntity
  8
1
  6
CONTINUOUS
370
    50
100
AcDbLine
 10
141.3588517502
 20
212.5415188277
 30
0.0
 11
141.3588517502
 21
203.4957905337
 31
0.0
  0
LINE
  5
85
330
A
100
AcDbEntity
  8
1
  6
CONTINUOUS
370
    50
100
AcDbLine
 10
146.8838517502
 20
206.4058213007
 30
0.0
 11
146.8838517502
 21
214.6655023855
 31
0.0
  0
LINE
  5
86
330
A
100
AcDbEntity
  8
1
  6
CONTINUOUS
370
    50
100
AcDbLine
 10
146.8838517502
 20
214.6655023855
 30
0.0
 11
147.3838517502
 21
214.3192901131
 31
0.0
  0
LINE
  5
87
330
A
100
AcDbEntity
  8
1
  6
CONTINUOUS
370
    50
100
AcDbLine
 10
147.3838517502
 20
214.3192901131
 30
0.0
 11
147.3838517502
 21
205.7712284684
 31
0.0
  0
LINE
  5
88
330
A
100
AcDbEntity
  8
1
  6
CONTINUOUS
370
    50
100
AcDbLine
 10
130.3338517502
 20
214.3966048709
 30
0.0
 11
130.3338517502
 21
206.4058213007
 31
0.0
  0
LINE
  5
89
330
A
100
AcDbEntity
  8
1
  6
CONTINUOUS
370
    50
100
AcDbLine
 10
129.8338517502
 20
213.7112046375
 30
0.0
 11
130.3338517502
 21
214.3966048709
 31
0.0
  0
LINE
  5
8A
330
A
100
AcDbEntity
  8
1
  6
CONTINUOUS
370
    50
100
AcDbLine
 10
129.8338517502
 20
205.7712284684
 30
0.0
 11
129.8338517502
 21
213.7112046375
 31
0.0
  0
LINE
  5
8B
330
A
100
AcDbEntity
  8
1
  6
CONTINUOUS
370
    50
100
AcDbLine
 10
146.8838517502
 20
214.6655023855
 30
0.0
 11
142.6670132577
 21
214.6655023855
 31
0.0
  0
LINE
  5
8C
330
A
100
AcDbEntity
  8
1
  6
CONTINUOUS
370
    50
100
AcDbLine
 10
136.2006902428
 20
214.6655023855
 30
0.0
 11
131.2228955554
 21
214.6655023855
 31
0.0
  0
LINE
  5
8D
330
A
100
AcDbEntity
  8
1
  6
CONTINUOUS
370
    50
100
AcDbLine
 10
130.3338517502
 20
214.3966048709
 30
0.0
 11
131.2228955554
 21
214.6655023855
 31
0.0
  0
CIRCLE
  5
8E
330
A
100
AcDbEntity
  8
1
  6
CONTINUOUS
370
    50
100
AcDbCircle
 10
169.3334830269
 20
167.8905175618
 30
0.0
 40
6.9996325522
  0
LINE
  5
8F
330
A
100
AcDbEntity
  8
1
  6
CONTINUOUS
370
    50
100
AcDbLine
 10
26.7338517502
 20
186.0572791073
 30
0.0
 11
26.7338517502
 21
149.7322075893
 31
0.0
  0
CIRCLE
  5
90
330
A
100
AcDbEntity
  8
1
  6
CONTINUOUS
370
    50
100
AcDbCircle
 10
169.3338517502
 20
167.894743349
 30
0.0
 40
5.125
  0
LINE
  5
91
330
A
100
AcDbEntity
  8
1
  6
CONTINUOUS
370
    50
100
AcDbLine
 10
191.3338517502
 20
154.8049974076
 30
0.0
 11
191.3338517502
 21
180.9844893112
 31
0.0
  0
LINE
  5
92
330
A
100
AcDbEntity
  8
1
  6
CONTINUOUS
370
    50
100
AcDbLine
 10
129.6338517502
 20
133.269743349
 30
0.0
 11
129.6338517502
 21
202.519743349
 31
0.0
  0
LINE
  5
93
330
A
100
AcDbEntity
  8
1
  6
CONTINUOUS
370
    50
100
AcDbLine
 10
28.6591582389
 20
188.2837278783
 30
0.0
 11
28.6591582389
 21
147.5057588197
 31
0.0
  0
LINE
  5
94
330
A
100
AcDbEntity
  8
1
  6
CONTINUOUS
370
    50
100
AcDbLine
 10
128.4874051408
 20
133.1232967396
 30
0.0
 11
128.4874051408
 21
202.6661899585
 31
0.0
  0
LINE
  5
95
330
A
100
AcDbEntity
  8
1
  6
CONTINUOUS
370
    50
100
AcDbLine
 10
128.8409585314
 20
133.269743349
 30
0.0
 11
128.8409585314
 21
202.519743349
 31
0.0
  0
LINE
  5
96
330
A
100
AcDbEntity
  8
1
  6
CONTINUOUS
370
    50
100
AcDbLine
 10
152.3838517502
 20
146.144743349
 30
0.0
 11
152.3838517502
 21
189.644743349
 31
0.0
  0
LINE
  5
97
330
A
100
AcDbEntity
  8
1
  6
CONTINUOUS
370
    50
100
AcDbLine
 10
178.5300041729
 20
146.144743349
 30
0.0
 11
178.5300041729
 21
189.644743349
 31
0.0
  0
LINE
  5
98
330
A
100
AcDbEntity
  8
1
  6
CONTINUOUS
370
    50
100
AcDbLine
 10
180.0300041729
 20
146.5466671377
 30
0.0
 11
180.0300041729
 21
189.2428195604
 31
0.0
  0
LINE
  5
99
330
A
100
AcDbEntity
  8
1
  6
CONTINUOUS
370
    50
100
AcDbLine
 10
189.8338517502
 20
152.2069211755
 30
0.0
 11
189.8338517502
 21
183.5825655226
 31
0.0
  0
LWPOLYLINE
  5
9A
330
A
100
AcDbEntity
  8
1
  6
CONTINUOUS
370
    50
100
AcDbPolyline
 90
       27
 70
   128
 43
0.0
 10
146.5564043598
 20
154.2293733305
 10
146.4022077095
 20
153.6223755321
 10
146.1634140776
 20
153.0506542393
 10
145.8539012821
 20
152.5474358157
 10
145.4916570815
 20
152.1419654869
 10
145.097733792
 20
151.8578077145
 10
144.6950248035
 20
151.7114767154
 10
144.3069340986
 20
151.7114767154
 10
143.9560160983
 20
151.8578077145
 10
143.6626648813
 20
152.1419654869
 10
143.443928954
 20
152.5474358157
 10
143.3125204536
 20
153.0506542393
 10
143.2760763642
 20
153.6223755321
 10
143.3367146841
 20
154.2293733305
 10
143.4909113344
 20
154.8363711289
 10
143.7297049662
 20
155.4080924216
 10
144.0392177618
 20
155.9113108452
 10
144.4014619624
 20
156.3167811741
 10
144.7953852518
 20
156.6009389465
 10
145.1980942403
 20
156.7472699456
 10
145.5861849453
 20
156.7472699456
 10
145.9371029456
 20
156.6009389465
 10
146.2304541626
 20
156.3167811741
 10
146.4491900898
 20
155.9113108452
 10
146.5805985903
 20
155.4080924216
 10
146.6170426796
 20
154.8363711289
 10
146.5564043598
 20
154.2293733305
  0
LWPOLYLINE
  5
B7
330
A
100
AcDbEntity
  8
1
  6
CONTINUOUS
370
    50
100
AcDbPolyline
 90
        9
 70
   128
 43
0.0
 10
136.9101896314
 20
154.3984668771
 10
136.0894295197
 20
154.8923543257
 10
135.7096433251
 20
155.3190683467
 10
135.5277651107
 20
155.7415660302
 10
135.5140183725
 20
156.1970520497
 10
135.6503469797
 20
156.582448134
 10
136.00416204
 20
157.0210842038
 10
136.6973912608
 20
157.4535543312
 10
136.9101896314
 20
157.5344220119
  0
LWPOLYLINE
  5
C2
330
A
100
AcDbEntity
  8
1
  6
CONTINUOUS
370
    50
100
AcDbPolyline
 90
        9
 70
   128
 43
0.0
 10
136.9101896314
 20
154.3984668771
 10
137.0977859829
 20
154.2012801162
 10
137.2965504911
 20
154.0471052938
 10
137.5008847297
 20
153.9402849176
 10
137.7050333943
 20
153.8838277039
 10
137.9032464077
 20
153.8793238337
 10
138.0899408771
 20
153.9269001637
 10
138.2598583422
 20
154.0252166528
 10
138.408212886
 20
154.1715041064
  0
ARC
  5
CD
330
A
100
AcDbEntity
  8
1
  6
CONTINUOUS
370
    50
100
AcDbCircle
 10
125.1926409928
 20
155.3558445714
 30
0.0
 40
13.2685343125
100
AcDbArc
 50
354.8790017457
 51
5.120998254300001
  0
LWPOLYLINE
  5
CE
330
A
100
AcDbEntity
  8
1
  6
CONTINUOUS
370
    50
100
AcDbPolyline
 90
        9
 70
   128
 43
0.0
 10
138.408212886
 20
156.5401850364
 10
138.2598583422
 20
156.8074122222
 10
138.0899408771
 20
157.0442466981
 10
137.9032464077
 20
157.2440177539
 10
137.7050333943
 20
157.4010986128
 10
137.5008847297
 20
157.5110649153
 10
137.2965504911
 20
157.5708193365
 10
137.0977859829
 20
157.5786788258
 10
136.9101896314
 20
157.5344220119
  0
LWPOLYLINE
  5
D9
330
A
100
AcDbEntity
  8
1
  6
CONTINUOUS
370
    50
100
AcDbPolyline
 90
       24
 70
   128
 43
0.0
 10
145.8637965925
 20
154.3392964857
 10
145.7177687099
 20
153.786584752
 10
145.4861367639
 20
153.2748651191
 10
145.1860798363
 20
152.8420894912
 10
144.8398517767
 20
152.5203548568
 10
144.4731307365
 20
152.333522802
 10
144.1131147376
 20
152.2954498054
 10
143.7865045196
 20
152.4089595672
 10
143.5175232682
 20
152.6656335875
 10
143.3261200925
 20
153.0464355284
 10
143.2264904902
 20
153.5231230521
 10
143.2260235333
 20
154.0603424257
 10
143.3247538537
 20
154.6182505457
 10
143.5153590753
 20
155.1554699192
 10
143.7837028808
 20
155.6321574429
 10
144.1098834377
 20
156.0129593839
 10
144.4697094262
 20
156.2696334042
 10
144.836494199
 20
156.3831431659
 10
145.1830350072
 20
156.3450701694
 10
145.4836305046
 20
156.1582381145
 10
145.7159868981
 20
155.8365034801
 10
145.8628713771
 20
155.4037278522
 10
145.9133901917
 20
154.8920082194
 10
145.8637965925
 20
154.3392964857
  0
ARC
  5
F3
330
A
100
AcDbEntity
  8
1
  6
CONTINUOUS
370
    50
100
AcDbCircle
 10
127.8900831516
 20
142.3181103504
 30
0.0
 40
17.6889361321
100
AcDbArc
 50
53.5147162494
 51
59.3408807134
  0
ARC
  5
F4
330
A
100
AcDbEntity
  8
1
  6
CONTINUOUS
370
    50
100
AcDbCircle
 10
139.3787171736
 20
165.6343130491
 30
0.0
 40
11.5038196886
100
AcDbArc
 50
257.6089186629
 51
265.1605663873
  0
LWPOLYLINE
  5
F5
330
A
100
AcDbEntity
  8
1
  6
CONTINUOUS
370
    50
100
AcDbPolyline
 90
       24
 70
   128
 43
0.0
 10
136.6712632751
 20
156.9774522104
 10
136.5252353924
 20
156.4247404767
 10
136.2936034464
 20
155.9130208438
 10
135.9935465188
 20
155.4802452159
 10
135.6473184593
 20
155.1585105816
 10
135.2805974191
 20
154.9716785267
 10
134.9205814202
 20
154.9336055302
 10
134.5939712021
 20
155.0471152919
 10
134.3249899508
 20
155.3037893122
 10
134.133586775
 20
155.6845912531
 10
134.0339571728
 20
156.1612787768
 10
134.0334902158
 20
156.6984981504
 10
134.1322205363
 20
157.2564062704
 10
134.3228257579
 20
157.7936256439
 10
134.5911695634
 20
158.2703131676
 10
134.9173501203
 20
158.6511151086
 10
135.2771761088
 20
158.9077891289
 10
135.6439608816
 20
159.0212988906
 10
135.9905016898
 20
158.9832258941
 10
136.2910971872
 20
158.7963938392
 10
136.5234535807
 20
158.4746592048
 10
136.6703380597
 20
158.041883577
 10
136.7208568743
 20
157.5301639441
 10
136.6712632751
 20
156.9774522104
  0
LINE
  5
10F
330
A
100
AcDbEntity
  8
1
  6
CONTINUOUS
370
    50
100
AcDbLine
 10
130.1338517502
 20
132.594743349
 30
0.0
 11
130.1338517502
 21
203.594743349
 31
0.0
  0
LWPOLYLINE
  5
110
330
A
100
AcDbEntity
  8
1
  6
CONTINUOUS
370
    50
100
AcDbPolyline
 90
       26
 70
   128
 43
0.0
 10
136.9112712672
 20
156.9796506735
 10
136.755308415
 20
156.3731367492
 10
136.5118832903
 20
155.8047323254
 10
136.196291189
 20
155.3101523424
 10
135.8283619234
 20
154.9204730796
 10
135.4312138425
 20
154.6601795181
 10
135.0298012207
 20
154.5456268597
 10
134.6493462895
 20
154.5840128693
 10
134.3137544313
 20
154.7729256126
 10
134.0441121169
 20
155.1004950073
 10
133.8573619645
 20
155.5461386635
 10
133.765238173
 20
156.0818551514
 10
133.773529219
 20
156.6739834339
 10
133.8817141456
 20
157.2853179131
 10
134.0829952961
 20
157.8774461955
 10
134.3647254354
 20
158.4131626835
 10
134.7092024228
 20
158.8588063397
 10
135.0947815022
 20
159.1863757344
 10
135.4972353221
 20
159.3752884777
 10
135.8912762289
 20
159.4136744873
 10
136.252145183
 20
159.2991218289
 10
136.5571674611
 20
159.0388282674
 10
136.7871773915
 20
158.6491490046
 10
136.9277226045
 20
158.1545690216
 10
136.9699721274
 20
157.5861645978
 10
136.9112712672
 20
156.9796506735
  0
LWPOLYLINE
  5
12C
330
A
100
AcDbEntity
  8
1
  6
CONTINUOUS
370
    50
100
AcDbPolyline
 90
       26
 70
   128
 43
0.0
 10
136.9189317116
 20
156.9774522104
 10
136.7629688594
 20
156.3709382861
 10
136.5195437347
 20
155.8025338623
 10
136.2039516334
 20
155.3079538793
 10
135.8360223678
 20
154.9182746165
 10
135.4388742869
 20
154.657981055
 10
135.0374616652
 20
154.5434283966
 10
134.6570067339
 20
154.5818144062
 10
134.3214148758
 20
154.7707271495
 10
134.0517725613
 20
155.0982965442
 10
133.8650224089
 20
155.5439402004
 10
133.7728986174
 20
156.0796566883
 10
133.7811896634
 20
156.6717849708
 10
133.8893745901
 20
157.28311945
 10
134.0906557405
 20
157.8752477324
 10
134.3723858798
 20
158.4109642204
 10
134.7168628672
 20
158.8566078766
 10
135.1024419467
 20
159.1841772713
 10
135.5048957666
 20
159.3730900146
 10
135.8989366733
 20
159.4114760242
 10
136.2598056275
 20
159.2969233658
 10
136.5648279055
 20
159.0366298043
 10
136.794837836
 20
158.6469505415
 10
136.9353830489
 20
158.1523705585
 10
136.9776325718
 20
157.5839661347
 10
136.9189317116
 20
156.9774522104
  0
LWPOLYLINE
  5
148
330
A
100
AcDbEntity
  8
1
  6
CONTINUOUS
370
    50
100
AcDbPolyline
 90
       24
 70
   128
 43
0.0
 10
136.6636028306
 20
156.9796506735
 10
136.517574948
 20
156.4269389398
 10
136.285943002
 20
155.9152193069
 10
135.9858860744
 20
155.482443679
 10
135.6396580149
 20
155.1607090447
 10
135.2729369747
 20
154.9738769898
 10
134.9129209757
 20
154.9358039933
 10
134.5863107577
 20
155.049313755
 10
134.3173295064
 20
155.3059877753
 10
134.1259263306
 20
155.6867897162
 10
134.0262967283
 20
156.16347724
 10
134.0258297714
 20
156.7006966135
 10
134.1245600918
 20
157.2586047335
 10
134.3151653135
 20
157.795824107
 10
134.583509119
 20
158.2725116307
 10
134.9096896758
 20
158.6533135717
 10
135.2695156644
 20
158.909987592
 10
135.6363004371
 20
159.0234973537
 10
135.9828412454
 20
158.9854243572
 10
136.2834367427
 20
158.7985923023
 10
136.5157931363
 20
158.4768576679
 10
136.6626776153
 20
158.0440820401
 10
136.7131964298
 20
157.5323624072
 10
136.6636028306
 20
156.9796506735
  0
LWPOLYLINE
  5
162
330
A
100
AcDbEntity
  8
1
  6
CONTINUOUS
370
    50
100
AcDbPolyline
 90
       23
 70
   128
 43
0.0
 10
113.0471270946
 20
163.7573188645
 10
112.6009398277
 20
163.2421359851
 10
111.720138024
 20
162.7502694337
 10
110.9561006567
 20
162.5209078524
 10
110.1370146967
 20
162.3995408099
 10
109.3091462678
 20
162.3920994714
 10
108.4670106443
 20
162.51720072
 10
107.6048084008
 20
162.8490847342
 10
107.0461374271
 20
163.2908447547
 10
106.7495300546
 20
163.7664280089
 10
106.651610838
 20
164.320885372
 10
106.755711265
 20
164.8238806763
 10
107.0197295851
 20
165.278312234
 10
107.5678852729
 20
165.7714639219
 10
108.500683278
 20
166.1797890275
 10
109.956521383
 20
166.319394935
 10
111.437725394
 20
166.0188913619
 10
112.361701261
 20
165.5499238834
 10
112.8696126496
 20
165.0865402727
 10
113.1098307309
 20
164.6779161768
 10
113.184971532
 20
164.2995813739
 10
113.1217795135
 20
163.9238865693
 10
113.0471270946
 20
163.7573188645
  0
LINE
  5
17B
330
A
100
AcDbEntity
  8
1
  6
CONTINUOUS
370
    50
100
AcDbLine
 10
178.5300041729
 20
184.5786009847
 30
0.0
 11
166.3338517502
 21
184.5786009847
 31
0.0
  0
LINE
  5
17C
330
A
100
AcDbEntity
  8
1
  6
CONTINUOUS
370
    50
100
AcDbLine
 10
178.5300041729
 20
157.9893954836
 30
0.0
 11
166.3338517502
 21
157.9893954836
 31
0.0
  0
LWPOLYLINE
  5
17D
330
A
100
AcDbEntity
  8
1
  6
CONTINUOUS
370
    50
100
AcDbPolyline
 90
       20
 70
   128
 43
0.0
 10
166.3338517502
 20
157.9893954836
 10
165.4154633847
 20
159.3860163612
 10
164.5871109285
 20
160.8253916962
 10
163.8529566682
 20
162.3002889483
 10
163.2166895655
 20
163.8032970872
 10
162.6815067206
 20
165.3268638321
 10
162.2500973082
 20
166.8633335994
 10
161.9246290644
 20
168.4049859709
 10
161.7067373947
 20
169.9440744869
 10
161.5975171562
 20
171.4728655705
 10
161.5975171562
 20
172.9836773872
 10
161.7067373947
 20
174.4689184441
 10
161.9246290644
 20
175.9211257359
 10
162.2500973082
 20
177.3330022445
 10
162.6815067206
 20
178.6974536049
 10
163.2166895655
 20
180.0076237531
 10
163.8529566682
 20
181.256929376
 10
164.5871109285
 20
182.4390929912
 10
165.4154633847
 20
183.5481744899
 10
166.3338517502
 20
184.5786009847
  0
ARC
  5
193
330
A
100
AcDbEntity
  8
1
  6
CONTINUOUS
370
    50
100
AcDbCircle
 10
178.5214606397
 20
160.0848840037
 30
0.0
 40
2.0955059364
100
AcDbArc
 50
270.2335997928
 51
316.0457840415
  0
ARC
  5
194
330
A
100
AcDbEntity
  8
1
  6
CONTINUOUS
370
    50
100
AcDbCircle
 10
178.5214606397
 20
182.4831124646
 30
0.0
 40
2.0955059364
100
AcDbArc
 50
43.9542159582
 51
89.7664002076
  0
LWPOLYLINE
  5
195
330
A
100
AcDbEntity
  8
1
  6
CONTINUOUS
370
    50
100
AcDbPolyline
 90
       15
 70
   128
 43
0.0
 10
180.0300041729
 20
183.9375682178
 10
181.8983290109
 20
182.1067141681
 10
183.6457220895
 20
180.1629741805
 10
185.2050362722
 20
178.080149848
 10
186.2867701588
 20
176.2374472438
 10
187.0924160134
 20
174.2680753579
 10
187.4392302454
 20
172.792593139
 10
187.5610930841
 20
171.2841982341
 10
187.3576100768
 20
169.33816863
 10
186.7945151745
 20
167.4580560177
 10
185.9943525782
 20
165.7755390971
 10
185.0008473867
 20
164.1857767017
 10
183.8720497023
 20
162.6878781269
 10
182.0226386083
 20
160.5950845801
 10
180.0300041729
 20
158.6304282505
  0
LINE
  5
1A6
330
A
100
AcDbEntity
  8
1
  6
CONTINUOUS
370
    50
100
AcDbLine
 10
129.8338517502
 20
131.844743349
 30
0.0
 11
132.0338517502
 21
131.844743349
 31
0.0
  0
LINE
  5
1A7
330
A
100
AcDbEntity
  8
1
  6
CONTINUOUS
370
    50
100
AcDbLine
 10
132.0338517502
 20
206.144743349
 30
0.0
 11
129.8338517502
 21
206.144743349
 31
0.0
  0
LINE
  5
1A8
330
A
100
AcDbEntity
  8
1
  6
CONTINUOUS
370
    50
100
AcDbLine
 10
28.7338517502
 20
155.394743349
 30
0.0
 11
28.7338517502
 21
180.394743349
 31
0.0
  0
LINE
  5
1A9
330
A
100
AcDbEntity
  8
1
  6
CONTINUOUS
370
    50
100
AcDbLine
 10
131.7231915785
 20
132.594743349
 30
0.0
 11
129.8338517502
 21
132.594743349
 31
0.0
  0
LINE
  5
1AA
330
A
100
AcDbEntity
  8
1
  6
CONTINUOUS
370
    50
100
AcDbLine
 10
129.8338517502
 20
205.394743349
 30
0.0
 11
131.7231915785
 21
205.394743349
 31
0.0
  0
LINE
  5
1AB
330
A
100
AcDbEntity
  8
1
  6
CONTINUOUS
370
    50
100
AcDbLine
 10
131.2228955554
 20
214.6655023855
 30
0.0
 11
132.0338517502
 21
214.2027761427
 31
0.0
  0
LINE
  5
1AC
330
A
100
AcDbEntity
  8
1
  6
CONTINUOUS
370
    50
100
AcDbLine
 10
132.0338517502
 20
121.7447101044
 30
0.0
 11
131.3703182006
 21
121.0811765548
 31
0.0
  0
LINE
  5
1AD
330
A
100
AcDbEntity
  8
1
  6
CONTINUOUS
370
    50
100
AcDbLine
 10
147.3838517502
 20
121.7447101044
 30
0.0
 11
142.1939418302
 21
121.7447101044
 31
0.0
  0
LINE
  5
1AE
330
A
100
AcDbEntity
  8
1
  6
CONTINUOUS
370
    50
100
AcDbLine
 10
136.6737616703
 20
121.7447101044
 30
0.0
 11
132.0338517502
 21
121.7447101044
 31
0.0
  0
LINE
  5
1AF
330
A
100
AcDbEntity
  8
1
  6
CONTINUOUS
370
    50
100
AcDbLine
 10
132.0338517502
 20
121.7447101044
 30
0.0
 11
132.0338517502
 21
131.844743349
 31
0.0
  0
LINE
  5
1B0
330
A
100
AcDbEntity
  8
1
  6
CONTINUOUS
370
    50
100
AcDbLine
 10
132.0338517502
 20
131.844743349
 30
0.0
 11
147.3838517502
 21
131.844743349
 31
0.0
  0
LINE
  5
1B1
330
A
100
AcDbEntity
  8
1
  6
CONTINUOUS
370
    50
100
AcDbLine
 10
147.3838517502
 20
132.594743349
 30
0.0
 11
131.7231915785
 21
132.594743349
 31
0.0
  0
LINE
  5
1B2
330
A
100
AcDbEntity
  8
1
  6
CONTINUOUS
370
    50
100
AcDbLine
 10
131.7231915785
 20
132.594743349
 30
0.0
 11
132.0338517502
 21
131.844743349
 31
0.0
  0
LINE
  5
1B3
330
A
100
AcDbEntity
  8
1
  6
CONTINUOUS
370
    50
100
AcDbLine
 10
131.7231915785
 20
205.394743349
 30
0.0
 11
147.3838517502
 21
205.394743349
 31
0.0
  0
LINE
  5
1B4
330
A
100
AcDbEntity
  8
1
  6
CONTINUOUS
370
    50
100
AcDbLine
 10
132.0338517502
 20
206.144743349
 30
0.0
 11
131.7231915785
 21
205.394743349
 31
0.0
  0
LINE
  5
1B5
330
A
100
AcDbEntity
  8
1
  6
CONTINUOUS
370
    50
100
AcDbLine
 10
147.3838517502
 20
206.144743349
 30
0.0
 11
132.0338517502
 21
206.144743349
 31
0.0
  0
LINE
  5
1B6
330
A
100
AcDbEntity
  8
1
  6
CONTINUOUS
370
    50
100
AcDbLine
 10
142.2818307494
 20
214.2027761427
 30
0.0
 11
147.3838517502
 21
214.2027761427
 31
0.0
  0
LINE
  5
1B7
330
A
100
AcDbEntity
  8
1
  6
CONTINUOUS
370
    50
100
AcDbLine
 10
132.0338517502
 20
214.2027761427
 30
0.0
 11
136.585872751
 21
214.2027761427
 31
0.0
  0
LINE
  5
1B8
330
A
100
AcDbEntity
  8
1
  6
CONTINUOUS
370
    50
100
AcDbLine
 10
132.0338517502
 20
214.2027761427
 30
0.0
 11
132.0338517502
 21
206.144743349
 31
0.0
  0
LINE
  5
1B9
330
A
100
AcDbEntity
  8
1
  6
CONTINUOUS
370
    50
100
AcDbLine
 10
39.6024678968
 20
178.457243349
 30
0.0
 11
39.6024678968
 21
157.332243349
 31
0.0
  0
LINE
  5
1BA
330
A
100
AcDbEntity
  8
1
  6
CONTINUOUS
370
    50
100
AcDbLine
 10
38.4838517502
 20
180.394743349
 30
0.0
 11
38.4838517502
 21
155.394743349
 31
0.0
  0
LINE
  5
1BB
330
A
100
AcDbEntity
  8
1
  6
CONTINUOUS
370
    50
100
AcDbLine
 10
75.7338017502
 20
155.894743349
 30
0.0
 11
75.7338017502
 21
179.894743349
 31
0.0
  0
LINE
  5
1BC
330
A
100
AcDbEntity
  8
1
  6
CONTINUOUS
370
    50
100
AcDbLine
 10
75.7339017502
 20
155.894743349
 30
0.0
 11
75.7339017502
 21
179.894743349
 31
0.0
  0
LWPOLYLINE
  5
1BD
330
A
100
AcDbEntity
  8
1
  6
CONTINUOUS
370
    50
100
AcDbPolyline
 90
       23
 70
   128
 43
0.0
 10
113.0471270946
 20
172.0321678336
 10
112.6009398277
 20
172.547350713
 10
111.720138024
 20
173.0392172644
 10
110.9455375336
 20
173.2714456831
 10
110.1370146967
 20
173.3899458882
 10
109.2949333547
 20
173.3967885436
 10
108.4670106443
 20
173.2722859781
 10
107.6048084008
 20
172.9404019639
 10
107.0461374271
 20
172.4986419434
 10
106.7495300546
 20
172.0230586892
 10
106.651610838
 20
171.4686013261
 10
106.755711265
 20
170.9656060218
 10
107.0197295851
 20
170.5111744641
 10
107.5678852729
 20
170.0180227762
 10
108.500683278
 20
169.6096976706
 10
109.956521383
 20
169.4700917631
 10
111.437725394
 20
169.7705953362
 10
112.361701261
 20
170.2395628147
 10
112.8696126496
 20
170.7029464254
 10
113.1098307309
 20
171.1115705213
 10
113.184971532
 20
171.4899053241
 10
113.1217795135
 20
171.8656001288
 10
113.0471270946
 20
172.0321678336
  0
LINE
  5
1D6
330
A
100
AcDbEntity
  8
1
  6
CONTINUOUS
370
    50
100
AcDbLine
 10
146.0372077907
 20
178.457243349
 30
0.0
 11
146.0372077907
 21
157.332243349
 31
0.0
  0
LINE
  5
1D7
330
A
100
AcDbEntity
  8
1
  6
CONTINUOUS
370
    50
100
AcDbLine
 10
147.3338517502
 20
160.894743349
 30
0.0
 11
147.3338517502
 21
174.894743349
 31
0.0
  0
LINE
  5
1D8
330
A
100
AcDbEntity
  8
1
  6
CONTINUOUS
370
    50
100
AcDbLine
 10
190.4678263465
 20
174.894743349
 30
0.0
 11
190.4678263465
 21
160.894743349
 31
0.0
  0
LINE
  5
1D9
330
A
100
AcDbEntity
  8
1
  6
CONTINUOUS
370
    50
100
AcDbLine
 10
134.4338517502
 20
200.994743349
 30
0.0
 11
144.4338517502
 21
200.994743349
 31
0.0
  0
LINE
  5
1DA
330
A
100
AcDbEntity
  8
1
  6
CONTINUOUS
370
    50
100
AcDbLine
 10
144.1338517502
 20
200.694743349
 30
0.0
 11
134.7338517502
 21
200.694743349
 31
0.0
  0
LWPOLYLINE
  5
1DB
330
A
100
AcDbEntity
  8
1
  6
CONTINUOUS
370
    50
100
AcDbPolyline
 90
       24
 70
   128
 43
0.0
 10
136.6636028306
 20
178.8098360246
 10
136.517574948
 20
179.3625477583
 10
136.285943002
 20
179.8742673912
 10
135.9858860744
 20
180.3070430191
 10
135.6396580149
 20
180.6287776534
 10
135.2729369747
 20
180.8156097083
 10
134.9129209757
 20
180.8536827048
 10
134.5863107577
 20
180.7401729431
 10
134.3173295064
 20
180.4834989228
 10
134.1259263306
 20
180.1026969818
 10
134.0262967283
 20
179.6260094581
 10
134.0258297714
 20
179.0887900846
 10
134.1245600918
 20
178.5308819646
 10
134.3151653135
 20
177.9936625911
 10
134.583509119
 20
177.5169750674
 10
134.9096896758
 20
177.1361731264
 10
135.2695156644
 20
176.8794991061
 10
135.6363004371
 20
176.7659893444
 10
135.9828412454
 20
176.8040623409
 10
136.2834367427
 20
176.9908943958
 10
136.5157931363
 20
177.3126290301
 10
136.6626776153
 20
177.745404658
 10
136.7131964298
 20
178.2571242909
 10
136.6636028306
 20
178.8098360246
  0
LINE
  5
1F5
330
A
100
AcDbEntity
  8
1
  6
CONTINUOUS
370
    50
100
AcDbLine
 10
137.5088517502
 20
197.744743349
 30
0.0
 11
137.5088517502
 21
202.894421919
 31
0.0
  0
LINE
  5
1F6
330
A
100
AcDbEntity
  8
1
  6
CONTINUOUS
370
    50
100
AcDbLine
 10
138.0088517502
 20
124.2469770832
 30
0.0
 11
138.0088517502
 21
211.5425096149
 31
0.0
  0
LINE
  5
1F7
330
A
100
AcDbEntity
  8
1
  6
CONTINUOUS
370
    50
100
AcDbLine
 10
140.8588517502
 20
124.2469770832
 30
0.0
 11
140.8588517502
 21
211.5425096149
 31
0.0
  0
LINE
  5
1F8
330
A
100
AcDbEntity
  8
1
  6
CONTINUOUS
370
    50
100
AcDbLine
 10
141.3588517502
 20
197.744743349
 30
0.0
 11
141.3588517502
 21
202.894421919
 31
0.0
  0
LINE
  5
1F9
330
A
100
AcDbEntity
  8
1
  6
CONTINUOUS
370
    50
100
AcDbLine
 10
136.2006902428
 20
206.4058213007
 30
0.0
 11
136.2006902428
 21
197.744743349
 31
0.0
  0
LINE
  5
1FA
330
A
100
AcDbEntity
  8
1
  6
CONTINUOUS
370
    50
100
AcDbLine
 10
146.8838517502
 20
206.4058213007
 30
0.0
 11
146.8838517502
 21
197.744743349
 31
0.0
  0
LINE
  5
1FB
330
A
100
AcDbEntity
  8
1
  6
CONTINUOUS
370
    50
100
AcDbLine
 10
142.6670132577
 20
197.744743349
 30
0.0
 11
142.6670132577
 21
206.4058213007
 31
0.0
  0
LINE
  5
1FC
330
A
100
AcDbEntity
  8
1
  6
CONTINUOUS
370
    50
100
AcDbLine
 10
166.3338517502
 20
157.9893954836
 30
0.0
 11
166.3338517502
 21
184.5786009847
 31
0.0
  0
LINE
  5
1FD
330
A
100
AcDbEntity
  8
1
  6
CONTINUOUS
370
    50
100
AcDbLine
 10
130.3338517502
 20
197.744743349
 30
0.0
 11
130.3338517502
 21
206.4058213007
 31
0.0
  0
LINE
  5
1FE
330
A
100
AcDbEntity
  8
1
  6
CONTINUOUS
370
    50
100
AcDbLine
 10
168.3338517502
 20
163.4426069178
 30
0.0
 11
168.3338517502
 21
179.2389931563
 31
0.0
  0
LINE
  5
1FF
330
A
100
AcDbEntity
  8
1
  6
CONTINUOUS
370
    50
100
AcDbLine
 10
182.3338517502
 20
179.2389931563
 30
0.0
 11
182.3338517502
 21
163.4426069178
 31
0.0
  0
LINE
  5
200
330
A
100
AcDbEntity
  8
1
  6
CONTINUOUS
370
    50
100
AcDbLine
 10
168.3338517502
 20
179.2389931563
 30
0.0
 11
182.3338517502
 21
179.2389931563
 31
0.0
  0
LINE
  5
201
330
A
100
AcDbEntity
  8
1
  6
CONTINUOUS
370
    50
100
AcDbLine
 10
168.3338517502
 20
179.2389931563
 30
0.0
 11
168.3338517502
 21
179.2409868357
 31
0.0
  0
LINE
  5
202
330
A
100
AcDbEntity
  8
1
  6
CONTINUOUS
370
    50
100
AcDbLine
 10
182.3338517502
 20
179.2389931563
 30
0.0
 11
182.3338517502
 21
179.2409868357
 31
0.0
  0
LINE
  5
203
330
A
100
AcDbEntity
  8
1
  6
CONTINUOUS
370
    50
100
AcDbLine
 10
168.3338517502
 20
179.2409868357
 30
0.0
 11
182.3338517502
 21
179.2409868357
 31
0.0
  0
LINE
  5
204
330
A
100
AcDbEntity
  8
1
  6
CONTINUOUS
370
    50
100
AcDbLine
 10
182.3338517502
 20
163.4426069178
 30
0.0
 11
168.3338517502
 21
163.4426069178
 31
0.0
  0
LINE
  5
205
330
A
100
AcDbEntity
  8
1
  6
CONTINUOUS
370
    50
100
AcDbLine
 10
182.3338517502
 20
163.4446005972
 30
0.0
 11
168.3338517502
 21
163.4446005972
 31
0.0
  0
LWPOLYLINE
  5
206
330
A
100
AcDbEntity
  8
1
  6
CONTINUOUS
370
    50
100
AcDbPolyline
 90
       26
 70
   128
 43
0.0
 10
136.9189317116
 20
178.8120344877
 10
136.7629688594
 20
179.418548412
 10
136.5195437347
 20
179.9869528358
 10
136.2039516334
 20
180.4815328188
 10
135.8360223678
 20
180.8712120816
 10
135.4388742869
 20
181.1315056431
 10
135.0374616652
 20
181.2460583015
 10
134.6570067339
 20
181.2076722919
 10
134.3214148758
 20
181.0187595486
 10
134.0517725613
 20
180.6911901539
 10
133.8650224089
 20
180.2455464977
 10
133.7728986174
 20
179.7098300098
 10
133.7811896634
 20
179.1177017273
 10
133.8893745901
 20
178.5063672481
 10
134.0906557405
 20
177.9142389657
 10
134.3723858798
 20
177.3785224777
 10
134.7168628672
 20
176.9328788215
 10
135.1024419467
 20
176.6053094268
 10
135.5048957666
 20
176.4163966835
 10
135.8989366733
 20
176.3780106739
 10
136.2598056275
 20
176.4925633323
 10
136.5648279055
 20
176.7528568938
 10
136.794837836
 20
177.1425361566
 10
136.9353830489
 20
177.6371161396
 10
136.9776325718
 20
178.2055205634
 10
136.9189317116
 20
178.8120344877
  0
LWPOLYLINE
  5
222
330
A
100
AcDbEntity
  8
1
  6
CONTINUOUS
370
    50
100
AcDbPolyline
 90
       26
 70
   128
 43
0.0
 10
136.9112712672
 20
178.8098360246
 10
136.755308415
 20
179.4163499489
 10
136.5118832903
 20
179.9847543727
 10
136.196291189
 20
180.4793343557
 10
135.8283619234
 20
180.8690136185
 10
135.4312138425
 20
181.12930718
 10
135.0298012207
 20
181.2438598384
 10
134.6493462895
 20
181.2054738288
 10
134.3137544313
 20
181.0165610855
 10
134.0441121169
 20
180.6889916908
 10
133.8573619645
 20
180.2433480346
 10
133.765238173
 20
179.7076315467
 10
133.773529219
 20
179.1155032642
 10
133.8817141456
 20
178.504168785
 10
134.0829952961
 20
177.9120405025
 10
134.3647254354
 20
177.3763240146
 10
134.7092024228
 20
176.9306803584
 10
135.0947815022
 20
176.6031109637
 10
135.4972353221
 20
176.4141982204
 10
135.8912762289
 20
176.3758122108
 10
136.252145183
 20
176.4903648692
 10
136.5571674611
 20
176.7506584307
 10
136.7871773915
 20
177.1403376935
 10
136.9277226045
 20
177.6349176765
 10
136.9699721274
 20
178.2033221003
 10
136.9112712672
 20
178.8098360246
  0
LWPOLYLINE
  5
23E
330
A
100
AcDbEntity
  8
1
  6
CONTINUOUS
370
    50
100
AcDbPolyline
 90
       24
 70
   128
 43
0.0
 10
136.6712632751
 20
178.8120344877
 10
136.5252353924
 20
179.3647462214
 10
136.2936034464
 20
179.8764658543
 10
135.9935465188
 20
180.3092414822
 10
135.6473184593
 20
180.6309761165
 10
135.2805974191
 20
180.8178081714
 10
134.9205814202
 20
180.8558811679
 10
134.5939712021
 20
180.7423714062
 10
134.3249899508
 20
180.4856973859
 10
134.133586775
 20
180.1048954449
 10
134.0339571728
 20
179.6282079212
 10
134.0334902158
 20
179.0909885477
 10
134.1322205363
 20
178.5330804277
 10
134.3228257579
 20
177.9958610542
 10
134.5911695634
 20
177.5191735305
 10
134.9173501203
 20
177.1383715895
 10
135.2771761088
 20
176.8816975692
 10
135.6439608816
 20
176.7681878075
 10
135.9905016898
 20
176.806260804
 10
136.2910971872
 20
176.9930928589
 10
136.5234535807
 20
177.3148274932
 10
136.6703380597
 20
177.7476031211
 10
136.7208568743
 20
178.259322754
 10
136.6712632751
 20
178.8120344877
  0
LWPOLYLINE
  5
258
330
A
100
AcDbEntity
  8
1
  6
CONTINUOUS
370
    50
100
AcDbPolyline
 90
       24
 70
   128
 43
0.0
 10
145.8637965925
 20
181.4501902124
 10
145.7177687099
 20
182.0029019461
 10
145.4861367639
 20
182.514621579
 10
145.1860798363
 20
182.9473972069
 10
144.8398517767
 20
183.2691318412
 10
144.4731307365
 20
183.4559638961
 10
144.1131147376
 20
183.4940368927
 10
143.7865045196
 20
183.3805271309
 10
143.5175232682
 20
183.1238531106
 10
143.3261200925
 20
182.7430511697
 10
143.2264904902
 20
182.266363646
 10
143.2260235333
 20
181.7291442724
 10
143.3247538537
 20
181.1712361524
 10
143.5153590753
 20
180.6340167789
 10
143.7837028808
 20
180.1573292552
 10
144.1098834377
 20
179.7765273142
 10
144.4697094262
 20
179.5198532939
 10
144.836494199
 20
179.4063435322
 10
145.1830350072
 20
179.4444165287
 10
145.4836305046
 20
179.6312485836
 10
145.7159868981
 20
179.952983218
 10
145.8628713771
 20
180.3857588458
 10
145.9133901917
 20
180.8974784787
 10
145.8637965925
 20
181.4501902124
  0
ARC
  5
272
330
A
100
AcDbEntity
  8
1
  6
CONTINUOUS
370
    50
100
AcDbCircle
 10
122.1787022095
 20
180.4336421267
 30
0.0
 40
16.2726666264
100
AcDbArc
 50
355.8262672738001
 51
4.1737327262
  0
ARC
  5
273
330
A
100
AcDbEntity
  8
1
  6
CONTINUOUS
370
    50
100
AcDbCircle
 10
139.2143718808
 20
171.2399025223
 30
0.0
 40
10.4093437954
100
AcDbArc
 50
94.4417599086
 51
102.7887550412
  0
LWPOLYLINE
  5
274
330
A
100
AcDbEntity
  8
1
  6
CONTINUOUS
370
    50
100
AcDbPolyline
 90
        9
 70
   128
 43
0.0
 10
136.9101896314
 20
178.2550646862
 10
136.0894295197
 20
178.6956679292
 10
135.7096433251
 20
179.1079359043
 10
135.5277651107
 20
179.52477657
 10
135.5140183725
 20
179.9798620469
 10
135.6503469797
 20
180.3693949611
 10
136.00416204
 20
180.8207877285
 10
136.6973912608
 20
181.2919431367
 10
136.9101896314
 20
181.391019821
  0
ARC
  5
27F
330
A
100
AcDbEntity
  8
1
  6
CONTINUOUS
370
    50
100
AcDbCircle
 10
127.1677704525
 20
194.5596895438
 30
0.0
 40
18.9935653105
100
AcDbArc
 50
300.8593681438
 51
306.2850348934
  0
LWPOLYLINE
  5
280
330
A
100
AcDbEntity
  8
1
  6
CONTINUOUS
370
    50
100
AcDbPolyline
 90
        9
 70
   128
 43
0.0
 10
136.9101896314
 20
181.391019821
 10
137.0977859829
 20
181.5882065819
 10
137.2965504911
 20
181.7423814043
 10
137.5008847297
 20
181.8492017805
 10
137.7050333943
 20
181.9056589942
 10
137.9032464077
 20
181.9101628644
 10
138.0899408771
 20
181.8625865344
 10
138.2598583422
 20
181.7642700452
 10
138.408212886
 20
181.6179825917
  0
LWPOLYLINE
  5
28B
330
A
100
AcDbEntity
  8
1
  6
CONTINUOUS
370
    50
100
AcDbPolyline
 90
        9
 70
   128
 43
0.0
 10
138.408212886
 20
179.2493016616
 10
138.2598583422
 20
178.9820744758
 10
138.0899408771
 20
178.74524
 10
137.9032464077
 20
178.5454689442
 10
137.7050333943
 20
178.3883880853
 10
137.5008847297
 20
178.2784217828
 10
137.2965504911
 20
178.2186673616
 10
137.0977859829
 20
178.2108078723
 10
136.9101896314
 20
178.2550646862
  0
LWPOLYLINE
  5
296
330
A
100
AcDbEntity
  8
1
  6
CONTINUOUS
370
    50
100
AcDbPolyline
 90
       27
 70
   128
 43
0.0
 10
146.5564043598
 20
181.5601133676
 10
146.4022077095
 20
182.167111166
 10
146.1634140776
 20
182.7388324588
 10
145.8539012821
 20
183.2420508824
 10
145.4916570815
 20
183.6475212112
 10
145.097733792
 20
183.9316789836
 10
144.6950248035
 20
184.0780099827
 10
144.3069340986
 20
184.0780099827
 10
143.9560160983
 20
183.9316789836
 10
143.6626648813
 20
183.6475212112
 10
143.443928954
 20
183.2420508824
 10
143.3125204536
 20
182.7388324588
 10
143.2760763642
 20
182.167111166
 10
143.3367146841
 20
181.5601133676
 10
143.4909113344
 20
180.9531155692
 10
143.7297049662
 20
180.3813942765
 10
144.0392177618
 20
179.8781758529
 10
144.4014619624
 20
179.472705524
 10
144.7953852518
 20
179.1885477516
 10
145.1980942403
 20
179.0422167525
 10
145.5861849453
 20
179.0422167525
 10
145.9371029456
 20
179.1885477516
 10
146.2304541626
 20
179.472705524
 10
146.4491900898
 20
179.8781758529
 10
146.5805985903
 20
180.3813942765
 10
146.6170426796
 20
180.9531155692
 10
146.5564043598
 20
181.5601133676
  0
LINE
  5
2B3
330
A
100
AcDbEntity
  8
1
  6
CONTINUOUS
370
    50
100
AcDbLine
 10
144.2293399049
 20
151.7302542815
 30
0.0
 11
147.3838517502
 21
150.8249441568
 31
0.0
  0
LINE
  5
2B4
330
A
100
AcDbEntity
  8
1
  6
CONTINUOUS
370
    50
100
AcDbLine
 10
147.3838517502
 20
156.2348505019
 30
0.0
 11
145.663779139
 21
156.7284923794
 31
0.0
  0
LINE
  5
2B5
330
A
100
AcDbEntity
  8
1
  6
CONTINUOUS
370
    50
100
AcDbLine
 10
129.8338517502
 20
151.5532007802
 30
0.0
 11
138.0184182093
 21
153.9020811283
 31
0.0
  0
LINE
  5
2B6
330
A
100
AcDbEntity
  8
1
  6
CONTINUOUS
370
    50
100
AcDbLine
 10
136.9701741536
 20
157.5546397383
 30
0.0
 11
129.8338517502
 21
155.5065938785
 31
0.0
  0
LINE
  5
2B7
330
A
100
AcDbEntity
  8
1
  6
CONTINUOUS
370
    50
100
AcDbLine
 10
144.2703795204
 20
156.1880561714
 30
0.0
 11
144.0173919145
 21
155.9213095495
 31
0.0
  0
LINE
  5
2B8
330
A
100
AcDbEntity
  8
1
  6
CONTINUOUS
370
    50
100
AcDbLine
 10
143.2615670393
 20
153.2876722391
 30
0.0
 11
143.3345963416
 21
152.9273623585
 31
0.0
  0
LINE
  5
2B9
330
A
100
AcDbEntity
  8
1
  6
CONTINUOUS
370
    50
100
AcDbLine
 10
134.7917112153
 20
154.9589329785
 30
0.0
 11
143.9842445327
 21
152.3207772538
 31
0.0
  0
LINE
  5
2BA
330
A
100
AcDbEntity
  8
1
  6
CONTINUOUS
370
    50
100
AcDbLine
 10
145.142830068
 20
156.3578157175
 30
0.0
 11
135.9502967506
 21
158.9959714422
 31
0.0
  0
LINE
  5
2BB
330
A
100
AcDbEntity
  8
1
  6
CONTINUOUS
370
    50
100
AcDbLine
 10
130.1338517502
 20
203.594743349
 30
0.0
 11
129.8338517502
 21
203.894743349
 31
0.0
  0
ARC
  5
2BC
330
A
100
AcDbEntity
  8
1
  6
CONTINUOUS
370
    50
100
AcDbCircle
 10
129.6338517502
 20
132.769743349
 30
0.0
 40
0.5
100
AcDbArc
 50
0.0
 51
66.4218215218
  0
ARC
  5
2BD
330
A
100
AcDbEntity
  8
1
  6
CONTINUOUS
370
    50
100
AcDbCircle
 10
129.6338517502
 20
203.019743349
 30
0.0
 40
0.5
100
AcDbArc
 50
293.5781784782001
 51
0.0
  0
LINE
  5
2BE
330
A
100
AcDbEntity
  8
1
  6
CONTINUOUS
370
    50
100
AcDbLine
 10
108.3213135517
 20
162.5556453015
 30
0.0
 11
134.7840507709
 21
154.9611314416
 31
0.0
  0
LINE
  5
2BF
330
A
100
AcDbEntity
  8
1
  6
CONTINUOUS
370
    50
100
AcDbLine
 10
135.9426363061
 20
158.9981699053
 30
0.0
 11
111.1114471934
 21
166.1244474446
 31
0.0
  0
ARC
  5
2C0
330
A
100
AcDbEntity
  8
1
  6
CONTINUOUS
370
    50
100
AcDbCircle
 10
28.7338517502
 20
182.394743349
 30
0.0
 40
2.0
100
AcDbArc
 50
180.0
 51
270.0
  0
ARC
  5
2C1
330
A
100
AcDbEntity
  8
1
  6
CONTINUOUS
370
    50
100
AcDbCircle
 10
28.7338517502
 20
153.394743349
 30
0.0
 40
2.0
100
AcDbArc
 50
90.0
 51
180.0
  0
LINE
  5
2C2
330
A
100
AcDbEntity
  8
1
  6
CONTINUOUS
370
    50
100
AcDbLine
 10
38.4838517502
 20
155.394743349
 30
0.0
 11
39.6024678968
 21
157.332243349
 31
0.0
  0
LINE
  5
2C3
330
A
100
AcDbEntity
  8
1
  6
CONTINUOUS
370
    50
100
AcDbLine
 10
39.6024678968
 20
178.457243349
 30
0.0
 11
38.4838517502
 21
180.394743349
 31
0.0
  0
LINE
  5
2C4
330
A
100
AcDbEntity
  8
1
  6
CONTINUOUS
370
    50
100
AcDbLine
 10
38.4838517502
 20
180.394743349
 30
0.0
 11
28.7338517502
 21
180.394743349
 31
0.0
  0
LINE
  5
2C5
330
A
100
AcDbEntity
  8
1
  6
CONTINUOUS
370
    50
100
AcDbLine
 10
28.7338517502
 20
155.394743349
 30
0.0
 11
38.4838517502
 21
155.394743349
 31
0.0
  0
LINE
  5
2C6
330
A
100
AcDbEntity
  8
1
  6
CONTINUOUS
370
    50
100
AcDbLine
 10
146.0372077907
 20
178.457243349
 30
0.0
 11
75.7339017502
 21
178.457243349
 31
0.0
  0
LINE
  5
2C7
330
A
100
AcDbEntity
  8
1
  6
CONTINUOUS
370
    50
100
AcDbLine
 10
75.7339017502
 20
157.332243349
 30
0.0
 11
146.0372077907
 21
157.332243349
 31
0.0
  0
LINE
  5
2C8
330
A
100
AcDbEntity
  8
1
  6
CONTINUOUS
370
    50
100
AcDbLine
 10
146.0372077907
 20
157.332243349
 30
0.0
 11
147.3338517502
 21
160.894743349
 31
0.0
  0
LINE
  5
2C9
330
A
100
AcDbEntity
  8
1
  6
CONTINUOUS
370
    50
100
AcDbLine
 10
147.3338517502
 20
174.894743349
 30
0.0
 11
146.0372077907
 21
178.457243349
 31
0.0
  0
LINE
  5
2CA
330
A
100
AcDbEntity
  8
1
  6
CONTINUOUS
370
    50
100
AcDbLine
 10
75.7338017502
 20
178.457243349
 30
0.0
 11
39.6024678968
 21
178.457243349
 31
0.0
  0
LINE
  5
2CB
330
A
100
AcDbEntity
  8
1
  6
CONTINUOUS
370
    50
100
AcDbLine
 10
39.6024678968
 20
157.332243349
 30
0.0
 11
75.7338017502
 21
157.332243349
 31
0.0
  0
LINE
  5
2CC
330
A
100
AcDbEntity
  8
1
  6
CONTINUOUS
370
    50
100
AcDbLine
 10
191.3338517502
 20
175.394743349
 30
0.0
 11
190.4678263465
 21
174.894743349
 31
0.0
  0
LINE
  5
2CD
330
A
100
AcDbEntity
  8
1
  6
CONTINUOUS
370
    50
100
AcDbLine
 10
190.4678263465
 20
160.894743349
 30
0.0
 11
191.3338517502
 21
160.394743349
 31
0.0
  0
LINE
  5
2CE
330
A
100
AcDbEntity
  8
1
  6
CONTINUOUS
370
    50
100
AcDbLine
 10
190.4678263465
 20
174.894743349
 30
0.0
 11
147.3338517502
 21
174.894743349
 31
0.0
  0
LINE
  5
2CF
330
A
100
AcDbEntity
  8
1
  6
CONTINUOUS
370
    50
100
AcDbLine
 10
147.3338517502
 20
160.894743349
 30
0.0
 11
190.4678263465
 21
160.894743349
 31
0.0
  0
LINE
  5
2D0
330
A
100
AcDbEntity
  8
1
  6
CONTINUOUS
370
    50
100
AcDbLine
 10
144.4338517502
 20
200.994743349
 30
0.0
 11
144.4338517502
 21
205.394743349
 31
0.0
  0
LINE
  5
2D1
330
A
100
AcDbEntity
  8
1
  6
CONTINUOUS
370
    50
100
AcDbLine
 10
134.4338517502
 20
205.394743349
 30
0.0
 11
134.4338517502
 21
200.994743349
 31
0.0
  0
ARC
  5
2D2
330
A
100
AcDbEntity
  8
1
  6
CONTINUOUS
370
    50
100
AcDbCircle
 10
144.1338517502
 20
200.994743349
 30
0.0
 40
0.3
100
AcDbArc
 50
270.0
 51
0.0
  0
ARC
  5
2D3
330
A
100
AcDbEntity
  8
1
  6
CONTINUOUS
370
    50
100
AcDbCircle
 10
134.7338517502
 20
200.994743349
 30
0.0
 40
0.3
100
AcDbArc
 50
180.0
 51
270.0
  0
LINE
  5
2D4
330
A
100
AcDbEntity
  8
1
  6
CONTINUOUS
370
    50
100
AcDbLine
 10
137.7018009427
 20
200.694743349
 30
0.0
 11
139.4338517502
 21
199.694743349
 31
0.0
  0
LINE
  5
2D5
330
A
100
AcDbEntity
  8
1
  6
CONTINUOUS
370
    50
100
AcDbLine
 10
139.4338517502
 20
199.694743349
 30
0.0
 11
141.1659025578
 21
200.694743349
 31
0.0
  0
LINE
  5
2D6
330
A
100
AcDbEntity
  8
1
  6
CONTINUOUS
370
    50
100
AcDbLine
 10
111.1114471934
 20
169.6650392534
 30
0.0
 11
135.9426363061
 21
176.7913167927
 31
0.0
  0
LINE
  5
2D7
330
A
100
AcDbEntity
  8
1
  6
CONTINUOUS
370
    50
100
AcDbLine
 10
134.7840507709
 20
180.8283552565
 30
0.0
 11
108.3213135517
 21
173.2338413966
 31
0.0
  0
LINE
  5
2D8
330
A
100
AcDbEntity
  8
1
  6
CONTINUOUS
370
    50
100
AcDbLine
 10
135.9502967506
 20
176.7935152558
 30
0.0
 11
145.142830068
 21
179.4316709806
 31
0.0
  0
LINE
  5
2D9
330
A
100
AcDbEntity
  8
1
  6
CONTINUOUS
370
    50
100
AcDbLine
 10
143.9842445327
 20
183.4687094443
 30
0.0
 11
134.7917112153
 21
180.8305537196
 31
0.0
  0
LINE
  5
2DA
330
A
100
AcDbEntity
  8
1
  6
CONTINUOUS
370
    50
100
AcDbLine
 10
129.8338517502
 20
180.2828928196
 30
0.0
 11
136.9701741536
 21
178.2348469598
 31
0.0
  0
LINE
  5
2DB
330
A
100
AcDbEntity
  8
1
  6
CONTINUOUS
370
    50
100
AcDbLine
 10
138.0184182093
 20
181.8874055698
 30
0.0
 11
129.8338517502
 21
184.2362859179
 31
0.0
  0
LINE
  5
2DC
330
A
100
AcDbEntity
  8
1
  6
CONTINUOUS
370
    50
100
AcDbLine
 10
145.663779139
 20
179.0609943187
 30
0.0
 11
147.3838517502
 21
179.5546361962
 31
0.0
  0
LINE
  5
2DD
330
A
100
AcDbEntity
  8
1
  6
CONTINUOUS
370
    50
100
AcDbLine
 10
147.3838517502
 20
184.9645425412
 30
0.0
 11
144.2293399049
 21
184.0592324166
 31
0.0
  0
LINE
  5
2DE
330
A
100
AcDbEntity
  8
1
  6
CONTINUOUS
370
    50
100
AcDbLine
 10
143.3345963416
 20
182.8621243396
 30
0.0
 11
143.2615670393
 21
182.501814459
 31
0.0
  0
LINE
  5
2DF
330
A
100
AcDbEntity
  8
1
  6
CONTINUOUS
370
    50
100
AcDbLine
 10
144.0173919145
 20
179.8681771486
 30
0.0
 11
144.2703795204
 21
179.6014305267
 31
0.0
  0
LINE
  5
2E0
330
A
100
AcDbEntity
  8
1
  6
CONTINUOUS
370
    50
100
AcDbLine
 10
129.6338517502
 20
202.519743349
 30
0.0
 11
129.6338517502
 21
133.269743349
 31
0.0
  0
LINE
  5
2E1
330
A
100
AcDbEntity
  8
1
  6
CONTINUOUS
370
    50
100
AcDbLine
 10
28.6591582389
 20
147.5057588197
 30
0.0
 11
28.6591582389
 21
188.2837278783
 31
0.0
  0
LINE
  5
2E2
330
A
100
AcDbEntity
  8
1
  6
CONTINUOUS
370
    50
100
AcDbLine
 10
128.4874051408
 20
202.6661899585
 30
0.0
 11
128.4874051408
 21
133.1232967396
 31
0.0
  0
LINE
  5
2E3
330
A
100
AcDbEntity
  8
1
  6
CONTINUOUS
370
    50
100
AcDbLine
 10
128.8409585314
 20
202.519743349
 30
0.0
 11
128.8409585314
 21
133.269743349
 31
0.0
  0
LINE
  5
2E4
330
A
100
AcDbEntity
  8
1
  6
CONTINUOUS
370
    50
100
AcDbLine
 10
152.3838517502
 20
189.644743349
 30
0.0
 11
152.3838517502
 21
146.144743349
 31
0.0
  0
LINE
  5
2E5
330
A
100
AcDbEntity
  8
1
  6
CONTINUOUS
370
    50
100
AcDbLine
 10
178.5300041729
 20
157.9893954836
 30
0.0
 11
178.5300041729
 21
146.144743349
 31
0.0
  0
LINE
  5
2E6
330
A
100
AcDbEntity
  8
1
  6
CONTINUOUS
370
    50
100
AcDbLine
 10
178.5300041729
 20
189.644743349
 30
0.0
 11
178.5300041729
 21
184.5786009847
 31
0.0
  0
LINE
  5
2E7
330
A
100
AcDbEntity
  8
1
  6
CONTINUOUS
370
    50
100
AcDbLine
 10
180.0300041729
 20
158.6304282505
 30
0.0
 11
180.0300041729
 21
146.5466671377
 31
0.0
  0
LINE
  5
2E8
330
A
100
AcDbEntity
  8
1
  6
CONTINUOUS
370
    50
100
AcDbLine
 10
180.0300041729
 20
189.2428195604
 30
0.0
 11
180.0300041729
 21
183.9375682178
 31
0.0
  0
LINE
  5
2E9
330
A
100
AcDbEntity
  8
1
  6
CONTINUOUS
370
    50
100
AcDbLine
 10
189.8338517502
 20
183.5825655226
 30
0.0
 11
189.8338517502
 21
152.2069211755
 31
0.0
  0
LINE
  5
2EA
330
A
100
AcDbEntity
  8
1
  6
CONTINUOUS
370
    50
100
AcDbLine
 10
136.9189317116
 20
178.8120344877
 30
0.0
 11
136.7229484916
 21
179.5308941067
 31
0.0
  0
LINE
  5
2EB
330
A
100
AcDbEntity
  8
1
  6
CONTINUOUS
370
    50
100
AcDbLine
 10
136.7229484916
 20
179.5308941067
 30
0.0
 11
136.4068390691
 21
180.1858798939
 31
0.0
  0
LINE
  5
2EC
330
A
100
AcDbEntity
  8
1
  6
CONTINUOUS
370
    50
100
AcDbLine
 10
136.4068390691
 20
180.1858798939
 30
0.0
 11
135.9986911535
 21
180.7187934877
 31
0.0
  0
LINE
  5
2ED
330
A
100
AcDbEntity
  8
1
  6
CONTINUOUS
370
    50
100
AcDbLine
 10
135.9986911535
 20
180.7187934877
 30
0.0
 11
135.5347704782
 21
181.0822831767
 31
0.0
  0
LINE
  5
2EE
330
A
100
AcDbEntity
  8
1
  6
CONTINUOUS
370
    50
100
AcDbLine
 10
135.5347704782
 20
181.0822831767
 30
0.0
 11
135.0562984311
 21
181.2440513069
 31
0.0
  0
LINE
  5
2EF
330
A
100
AcDbEntity
  8
1
  6
CONTINUOUS
370
    50
100
AcDbLine
 10
135.0562984311
 20
181.2440513069
 30
0.0
 11
134.6057893534
 21
181.1897240699
 31
0.0
  0
LINE
  5
2F0
330
A
100
AcDbEntity
  8
1
  6
CONTINUOUS
370
    50
100
AcDbLine
 10
134.6057893534
 20
181.1897240699
 30
0.0
 11
134.2232729536
 21
180.9241286793
 31
0.0
  0
LINE
  5
2F1
330
A
100
AcDbEntity
  8
1
  6
CONTINUOUS
370
    50
100
AcDbLine
 10
134.2232729536
 20
180.9241286793
 30
0.0
 11
133.9427374925
 21
180.4708644509
 31
0.0
  0
LINE
  5
2F2
330
A
100
AcDbEntity
  8
1
  6
CONTINUOUS
370
    50
100
AcDbLine
 10
133.9427374925
 20
180.4708644509
 30
0.0
 11
133.7891097769
 21
179.8702059007
 31
0.0
  0
LINE
  5
2F3
330
A
100
AcDbEntity
  8
1
  6
CONTINUOUS
370
    50
100
AcDbLine
 10
133.7891097769
 20
179.8702059007
 30
0.0
 11
133.7760403036
 21
179.1755241767
 31
0.0
  0
LINE
  5
2F4
330
A
100
AcDbEntity
  8
1
  6
CONTINUOUS
370
    50
100
AcDbLine
 10
133.7760403036
 20
179.1755241767
 30
0.0
 11
133.9046903525
 21
178.4485447987
 31
0.0
  0
LINE
  5
2F5
330
A
100
AcDbEntity
  8
1
  6
CONTINUOUS
370
    50
100
AcDbLine
 10
133.9046903525
 20
178.4485447987
 30
0.0
 11
134.1636288023
 21
177.7538630747
 31
0.0
  0
LINE
  5
2F6
330
A
100
AcDbEntity
  8
1
  6
CONTINUOUS
370
    50
100
AcDbLine
 10
134.1636288023
 20
177.7538630747
 30
0.0
 11
134.5298478354
 21
177.1532045245
 31
0.0
  0
LINE
  5
2F7
330
A
100
AcDbEntity
  8
1
  6
CONTINUOUS
370
    50
100
AcDbLine
 10
134.5298478354
 20
177.1532045245
 30
0.0
 11
134.9708072836
 21
176.6999402961
 31
0.0
  0
LINE
  5
2F8
330
A
100
AcDbEntity
  8
1
  6
CONTINUOUS
370
    50
100
AcDbLine
 10
134.9708072836
 20
176.6999402961
 30
0.0
 11
135.4473259647
 21
176.4343449055
 31
0.0
  0
LINE
  5
2F9
330
A
100
AcDbEntity
  8
1
  6
CONTINUOUS
370
    50
100
AcDbLine
 10
135.4473259647
 20
176.4343449055
 30
0.0
 11
135.9170631028
 21
176.3800176685
 31
0.0
  0
LINE
  5
2FA
330
A
100
AcDbEntity
  8
1
  6
CONTINUOUS
370
    50
100
AcDbLine
 10
135.9170631028
 20
176.3800176685
 30
0.0
 11
136.3382804918
 21
176.5417857987
 31
0.0
  0
LINE
  5
2FB
330
A
100
AcDbEntity
  8
1
  6
CONTINUOUS
370
    50
100
AcDbLine
 10
136.3382804918
 20
176.5417857987
 30
0.0
 11
136.6735511182
 21
176.9052754877
 31
0.0
  0
LINE
  5
2FC
330
A
100
AcDbEntity
  8
1
  6
CONTINUOUS
370
    50
100
AcDbLine
 10
136.6735511182
 20
176.9052754877
 30
0.0
 11
136.8930847154
 21
177.4381890815
 31
0.0
  0
LINE
  5
2FD
330
A
100
AcDbEntity
  8
1
  6
CONTINUOUS
370
    50
100
AcDbLine
 10
136.8930847154
 20
177.4381890815
 30
0.0
 11
136.97737476
 21
178.0931748687
 31
0.0
  0
LINE
  5
2FE
330
A
100
AcDbEntity
  8
1
  6
CONTINUOUS
370
    50
100
AcDbLine
 10
136.97737476
 20
178.0931748687
 30
0.0
 11
136.9189317116
 21
178.8120344877
 31
0.0
  0
LINE
  5
2FF
330
A
100
AcDbEntity
  8
1
  6
CONTINUOUS
370
    50
100
AcDbLine
 10
143.3220273489
 20
181.5381287366
 30
0.0
 11
143.2635843006
 21
182.2569883556
 31
0.0
  0
LINE
  5
300
330
A
100
AcDbEntity
  8
1
  6
CONTINUOUS
370
    50
100
AcDbLine
 10
143.2635843006
 20
182.2569883556
 30
0.0
 11
143.3478743452
 21
182.9119741428
 31
0.0
  0
LINE
  5
301
330
A
100
AcDbEntity
  8
1
  6
CONTINUOUS
370
    50
100
AcDbLine
 10
143.3478743452
 20
182.9119741428
 30
0.0
 11
143.5674079424
 21
183.4448877366
 31
0.0
  0
LINE
  5
302
330
A
100
AcDbEntity
  8
1
  6
CONTINUOUS
370
    50
100
AcDbLine
 10
143.5674079424
 20
183.4448877366
 30
0.0
 11
143.9026785688
 21
183.8083774256
 31
0.0
  0
LINE
  5
303
330
A
100
AcDbEntity
  8
1
  6
CONTINUOUS
370
    50
100
AcDbLine
 10
143.9026785688
 20
183.8083774256
 30
0.0
 11
144.3238959577
 21
183.9701455558
 31
0.0
  0
LINE
  5
304
330
A
100
AcDbEntity
  8
1
  6
CONTINUOUS
370
    50
100
AcDbLine
 10
144.3238959577
 20
183.9701455558
 30
0.0
 11
144.7936330958
 21
183.9158183188
 31
0.0
  0
LINE
  5
305
330
A
100
AcDbEntity
  8
1
  6
CONTINUOUS
370
    50
100
AcDbLine
 10
144.7936330958
 20
183.9158183188
 30
0.0
 11
145.270151777
 21
183.6502229282
 31
0.0
  0
LINE
  5
306
330
A
100
AcDbEntity
  8
1
  6
CONTINUOUS
370
    50
100
AcDbLine
 10
145.270151777
 20
183.6502229282
 30
0.0
 11
145.7111112251
 21
183.1969586998
 31
0.0
  0
LINE
  5
307
330
A
100
AcDbEntity
  8
1
  6
CONTINUOUS
370
    50
100
AcDbLine
 10
145.7111112251
 20
183.1969586998
 30
0.0
 11
146.0773302582
 21
182.5963001496
 31
0.0
  0
LINE
  5
308
330
A
100
AcDbEntity
  8
1
  6
CONTINUOUS
370
    50
100
AcDbLine
 10
146.0773302582
 20
182.5963001496
 30
0.0
 11
146.3362687081
 21
181.9016184256
 31
0.0
  0
LINE
  5
309
330
A
100
AcDbEntity
  8
1
  6
CONTINUOUS
370
    50
100
AcDbLine
 10
146.3362687081
 20
181.9016184256
 30
0.0
 11
146.464918757
 21
181.1746390476
 31
0.0
  0
LINE
  5
30A
330
A
100
AcDbEntity
  8
1
  6
CONTINUOUS
370
    50
100
AcDbLine
 10
146.464918757
 20
181.1746390476
 30
0.0
 11
146.4518492837
 21
180.4799573236
 31
0.0
  0
LINE
  5
30B
330
A
100
AcDbEntity
  8
1
  6
CONTINUOUS
370
    50
100
AcDbLine
 10
146.4518492837
 20
180.4799573236
 30
0.0
 11
146.2982215681
 21
179.8792987733
 31
0.0
  0
LINE
  5
30C
330
A
100
AcDbEntity
  8
1
  6
CONTINUOUS
370
    50
100
AcDbLine
 10
146.2982215681
 20
179.8792987733
 30
0.0
 11
146.017686107
 21
179.426034545
 31
0.0
  0
LINE
  5
30D
330
A
100
AcDbEntity
  8
1
  6
CONTINUOUS
370
    50
100
AcDbLine
 10
146.017686107
 20
179.426034545
 30
0.0
 11
145.6351697072
 21
179.1604391543
 31
0.0
  0
LINE
  5
30E
330
A
100
AcDbEntity
  8
1
  6
CONTINUOUS
370
    50
100
AcDbLine
 10
145.6351697072
 20
179.1604391543
 30
0.0
 11
145.1846606295
 21
179.1061119174
 31
0.0
  0
LINE
  5
30F
330
A
100
AcDbEntity
  8
1
  6
CONTINUOUS
370
    50
100
AcDbLine
 10
145.1846606295
 20
179.1061119174
 30
0.0
 11
144.7061885824
 21
179.2678800476
 31
0.0
  0
LINE
  5
310
330
A
100
AcDbEntity
  8
1
  6
CONTINUOUS
370
    50
100
AcDbLine
 10
144.7061885824
 20
179.2678800476
 30
0.0
 11
144.2422679071
 21
179.6313697366
 31
0.0
  0
LINE
  5
311
330
A
100
AcDbEntity
  8
1
  6
CONTINUOUS
370
    50
100
AcDbLine
 10
144.2422679071
 20
179.6313697366
 30
0.0
 11
143.8341199915
 21
180.1642833304
 31
0.0
  0
LINE
  5
312
330
A
100
AcDbEntity
  8
1
  6
CONTINUOUS
370
    50
100
AcDbLine
 10
143.8341199915
 20
180.1642833304
 30
0.0
 11
143.518010569
 21
180.8192691176
 31
0.0
  0
LINE
  5
313
330
A
100
AcDbEntity
  8
1
  6
CONTINUOUS
370
    50
100
AcDbLine
 10
143.518010569
 20
180.8192691176
 30
0.0
 11
143.3220273489
 21
181.5381287366
 31
0.0
  0
LINE
  5
314
330
A
100
AcDbEntity
  8
1
  6
CONTINUOUS
370
    50
100
AcDbLine
 10
136.9189317116
 20
156.9774522104
 30
0.0
 11
136.7229484916
 21
156.2585925914
 31
0.0
  0
LINE
  5
315
330
A
100
AcDbEntity
  8
1
  6
CONTINUOUS
370
    50
100
AcDbLine
 10
136.7229484916
 20
156.2585925914
 30
0.0
 11
136.4068390691
 21
155.6036068042
 31
0.0
  0
LINE
  5
316
330
A
100
AcDbEntity
  8
1
  6
CONTINUOUS
370
    50
100
AcDbLine
 10
136.4068390691
 20
155.6036068042
 30
0.0
 11
135.9986911535
 21
155.0706932104
 31
0.0
  0
LINE
  5
317
330
A
100
AcDbEntity
  8
1
  6
CONTINUOUS
370
    50
100
AcDbLine
 10
135.9986911535
 20
155.0706932104
 30
0.0
 11
135.5347704782
 21
154.7072035214
 31
0.0
  0
LINE
  5
318
330
A
100
AcDbEntity
  8
1
  6
CONTINUOUS
370
    50
100
AcDbLine
 10
135.5347704782
 20
154.7072035214
 30
0.0
 11
135.0562984311
 21
154.5454353912
 31
0.0
  0
LINE
  5
319
330
A
100
AcDbEntity
  8
1
  6
CONTINUOUS
370
    50
100
AcDbLine
 10
135.0562984311
 20
154.5454353912
 30
0.0
 11
134.6057893534
 21
154.5997626282
 31
0.0
  0
LINE
  5
31A
330
A
100
AcDbEntity
  8
1
  6
CONTINUOUS
370
    50
100
AcDbLine
 10
134.6057893534
 20
154.5997626282
 30
0.0
 11
134.2232729536
 21
154.8653580188
 31
0.0
  0
LINE
  5
31B
330
A
100
AcDbEntity
  8
1
  6
CONTINUOUS
370
    50
100
AcDbLine
 10
134.2232729536
 20
154.8653580188
 30
0.0
 11
133.9427374925
 21
155.3186222472
 31
0.0
  0
LINE
  5
31C
330
A
100
AcDbEntity
  8
1
  6
CONTINUOUS
370
    50
100
AcDbLine
 10
133.9427374925
 20
155.3186222472
 30
0.0
 11
133.7891097769
 21
155.9192807974
 31
0.0
  0
LINE
  5
31D
330
A
100
AcDbEntity
  8
1
  6
CONTINUOUS
370
    50
100
AcDbLine
 10
133.7891097769
 20
155.9192807974
 30
0.0
 11
133.7760403036
 21
156.6139625214
 31
0.0
  0
LINE
  5
31E
330
A
100
AcDbEntity
  8
1
  6
CONTINUOUS
370
    50
100
AcDbLine
 10
133.7760403036
 20
156.6139625214
 30
0.0
 11
133.9046903525
 21
157.3409418994
 31
0.0
  0
LINE
  5
31F
330
A
100
AcDbEntity
  8
1
  6
CONTINUOUS
370
    50
100
AcDbLine
 10
133.9046903525
 20
157.3409418994
 30
0.0
 11
134.1636288023
 21
158.0356236234
 31
0.0
  0
LINE
  5
320
330
A
100
AcDbEntity
  8
1
  6
CONTINUOUS
370
    50
100
AcDbLine
 10
134.1636288023
 20
158.0356236234
 30
0.0
 11
134.5298478354
 21
158.6362821736
 31
0.0
  0
LINE
  5
321
330
A
100
AcDbEntity
  8
1
  6
CONTINUOUS
370
    50
100
AcDbLine
 10
134.5298478354
 20
158.6362821736
 30
0.0
 11
134.9708072836
 21
159.089546402
 31
0.0
  0
LINE
  5
322
330
A
100
AcDbEntity
  8
1
  6
CONTINUOUS
370
    50
100
AcDbLine
 10
134.9708072836
 20
159.089546402
 30
0.0
 11
135.4473259647
 21
159.3551417926
 31
0.0
  0
LINE
  5
323
330
A
100
AcDbEntity
  8
1
  6
CONTINUOUS
370
    50
100
AcDbLine
 10
135.4473259647
 20
159.3551417926
 30
0.0
 11
135.9170631028
 21
159.4094690296
 31
0.0
  0
LINE
  5
324
330
A
100
AcDbEntity
  8
1
  6
CONTINUOUS
370
    50
100
AcDbLine
 10
135.9170631028
 20
159.4094690296
 30
0.0
 11
136.3382804918
 21
159.2477008994
 31
0.0
  0
LINE
  5
325
330
A
100
AcDbEntity
  8
1
  6
CONTINUOUS
370
    50
100
AcDbLine
 10
136.3382804918
 20
159.2477008994
 30
0.0
 11
136.6735511182
 21
158.8842112104
 31
0.0
  0
LINE
  5
326
330
A
100
AcDbEntity
  8
1
  6
CONTINUOUS
370
    50
100
AcDbLine
 10
136.6735511182
 20
158.8842112104
 30
0.0
 11
136.8930847154
 21
158.3512976166
 31
0.0
  0
LINE
  5
327
330
A
100
AcDbEntity
  8
1
  6
CONTINUOUS
370
    50
100
AcDbLine
 10
136.8930847154
 20
158.3512976166
 30
0.0
 11
136.97737476
 21
157.6963118294
 31
0.0
  0
LINE
  5
328
330
A
100
AcDbEntity
  8
1
  6
CONTINUOUS
370
    50
100
AcDbLine
 10
136.97737476
 20
157.6963118294
 30
0.0
 11
136.9189317116
 21
156.9774522104
 31
0.0
  0
LINE
  5
329
330
A
100
AcDbEntity
  8
1
  6
CONTINUOUS
370
    50
100
AcDbLine
 10
146.4178828063
 20
154.2513579615
 30
0.0
 11
146.4763258547
 21
154.9702175805
 31
0.0
  0
LINE
  5
32A
330
A
100
AcDbEntity
  8
1
  6
CONTINUOUS
370
    50
100
AcDbLine
 10
146.4763258547
 20
154.9702175805
 30
0.0
 11
146.3920358101
 21
155.6252033677
 31
0.0
  0
LINE
  5
32B
330
A
100
AcDbEntity
  8
1
  6
CONTINUOUS
370
    50
100
AcDbLine
 10
146.3920358101
 20
155.6252033677
 30
0.0
 11
146.1725022128
 21
156.1581169615
 31
0.0
  0
LINE
  5
32C
330
A
100
AcDbEntity
  8
1
  6
CONTINUOUS
370
    50
100
AcDbLine
 10
146.1725022128
 20
156.1581169615
 30
0.0
 11
145.8372315865
 21
156.5216066505
 31
0.0
  0
LINE
  5
32D
330
A
100
AcDbEntity
  8
1
  6
CONTINUOUS
370
    50
100
AcDbLine
 10
145.8372315865
 20
156.5216066505
 30
0.0
 11
145.4160141975
 21
156.6833747807
 31
0.0
  0
LINE
  5
32E
330
A
100
AcDbEntity
  8
1
  6
CONTINUOUS
370
    50
100
AcDbLine
 10
145.4160141975
 20
156.6833747807
 30
0.0
 11
144.9462770594
 21
156.6290475437
 31
0.0
  0
LINE
  5
32F
330
A
100
AcDbEntity
  8
1
  6
CONTINUOUS
370
    50
100
AcDbLine
 10
144.9462770594
 20
156.6290475437
 30
0.0
 11
144.4697583783
 21
156.3634521531
 31
0.0
  0
LINE
  5
330
330
A
100
AcDbEntity
  8
1
  6
CONTINUOUS
370
    50
100
AcDbLine
 10
144.4697583783
 20
156.3634521531
 30
0.0
 11
144.0287989301
 21
155.9101879247
 31
0.0
  0
LINE
  5
331
330
A
100
AcDbEntity
  8
1
  6
CONTINUOUS
370
    50
100
AcDbLine
 10
144.0287989301
 20
155.9101879247
 30
0.0
 11
143.662579897
 21
155.3095293745
 31
0.0
  0
LINE
  5
332
330
A
100
AcDbEntity
  8
1
  6
CONTINUOUS
370
    50
100
AcDbLine
 10
143.662579897
 20
155.3095293745
 30
0.0
 11
143.4036414472
 21
154.6148476505
 31
0.0
  0
LINE
  5
333
330
A
100
AcDbEntity
  8
1
  6
CONTINUOUS
370
    50
100
AcDbLine
 10
143.4036414472
 20
154.6148476505
 30
0.0
 11
143.2749913982
 21
153.8878682725
 31
0.0
  0
LINE
  5
334
330
A
100
AcDbEntity
  8
1
  6
CONTINUOUS
370
    50
100
AcDbLine
 10
143.2749913982
 20
153.8878682725
 30
0.0
 11
143.2880608716
 21
153.1931865485
 31
0.0
  0
LINE
  5
335
330
A
100
AcDbEntity
  8
1
  6
CONTINUOUS
370
    50
100
AcDbLine
 10
143.2880608716
 20
153.1931865485
 30
0.0
 11
143.4416885872
 21
152.5925279983
 31
0.0
  0
LINE
  5
336
330
A
100
AcDbEntity
  8
1
  6
CONTINUOUS
370
    50
100
AcDbLine
 10
143.4416885872
 20
152.5925279983
 30
0.0
 11
143.7222240483
 21
152.1392637699
 31
0.0
  0
LINE
  5
337
330
A
100
AcDbEntity
  8
1
  6
CONTINUOUS
370
    50
100
AcDbLine
 10
143.7222240483
 20
152.1392637699
 30
0.0
 11
144.1047404481
 21
151.8736683793
 31
0.0
  0
LINE
  5
338
330
A
100
AcDbEntity
  8
1
  6
CONTINUOUS
370
    50
100
AcDbLine
 10
144.1047404481
 20
151.8736683793
 30
0.0
 11
144.5552495258
 21
151.8193411423
 31
0.0
  0
LINE
  5
339
330
A
100
AcDbEntity
  8
1
  6
CONTINUOUS
370
    50
100
AcDbLine
 10
144.5552495258
 20
151.8193411423
 30
0.0
 11
145.0337215728
 21
151.9811092725
 31
0.0
  0
LINE
  5
33A
330
A
100
AcDbEntity
  8
1
  6
CONTINUOUS
370
    50
100
AcDbLine
 10
145.0337215728
 20
151.9811092725
 30
0.0
 11
145.4976422481
 21
152.3445989615
 31
0.0
  0
LINE
  5
33B
330
A
100
AcDbEntity
  8
1
  6
CONTINUOUS
370
    50
100
AcDbLine
 10
145.4976422481
 20
152.3445989615
 30
0.0
 11
145.9057901638
 21
152.8775125553
 31
0.0
  0
LINE
  5
33C
330
A
100
AcDbEntity
  8
1
  6
CONTINUOUS
370
    50
100
AcDbLine
 10
145.9057901638
 20
152.8775125553
 30
0.0
 11
146.2218995863
 21
153.5324983425
 31
0.0
  0
LINE
  5
33D
330
A
100
AcDbEntity
  8
1
  6
CONTINUOUS
370
    50
100
AcDbLine
 10
146.2218995863
 20
153.5324983425
 30
0.0
 11
146.4178828063
 21
154.2513579615
 31
0.0
  0
LINE
  5
33E
330
A
100
AcDbEntity
  8
1
  6
CONTINUOUS
370
    50
100
AcDbLine
 10
75.7338017502
 20
179.894743349
 30
0.0
 11
38.7725268848
 21
179.894743349
 31
0.0
  0
LINE
  5
33F
330
A
100
AcDbEntity
  8
1
  6
CONTINUOUS
370
    50
100
AcDbLine
 10
38.7725268848
 20
155.894743349
 30
0.0
 11
75.7338017502
 21
155.894743349
 31
0.0
  0
LINE
  5
340
330
A
100
AcDbEntity
  8
1
  6
CONTINUOUS
370
    50
100
AcDbLine
 10
75.7338017502
 20
179.894743349
 30
0.0
 11
75.7338017502
 21
179.7876732069
 31
0.0
  0
LINE
  5
341
330
A
100
AcDbEntity
  8
1
  6
CONTINUOUS
370
    50
100
AcDbLine
 10
75.7338017502
 20
179.7876732069
 30
0.0
 11
75.7338017502
 21
155.894743349
 31
0.0
  0
LINE
  5
342
330
A
100
AcDbEntity
  8
1
  6
CONTINUOUS
370
    50
100
AcDbLine
 10
75.7338517502
 20
179.894743349
 30
0.0
 11
75.7338517502
 21
179.8880421138
 31
0.0
  0
LINE
  5
343
330
A
100
AcDbEntity
  8
1
  6
CONTINUOUS
370
    50
100
AcDbLine
 10
75.7338517502
 20
179.8880421138
 30
0.0
 11
75.7338517502
 21
155.894743349
 31
0.0
  0
LINE
  5
344
330
A
100
AcDbEntity
  8
1
  6
CONTINUOUS
370
    50
100
AcDbLine
 10
169.3338517502
 20
173.894743162
 30
0.0
 11
170.4959651217
 21
173.7789122248
 31
0.0
  0
LINE
  5
345
330
A
100
AcDbEntity
  8
1
  6
CONTINUOUS
370
    50
100
AcDbLine
 10
168.3934432861
 20
173.7924744468
 30
0.0
 11
169.3338516908
 21
173.894743349
 31
0.0
  0
ARC
  5
346
330
A
100
AcDbEntity
  8
1
  6
CONTINUOUS
370
    50
100
AcDbCircle
 10
169.3338517502
 20
167.894743349
 30
0.0
 40
6.0
100
AcDbArc
 50
75.0
 51
345.0
  0
ENDSEC
  0
SECTION
  2
OBJECTS
  0
DICTIONARY
  5
19
330
0
100
AcDbDictionary
281
     1
  3
ACAD_GROUP
350
1A
  3
ACAD_LAYOUT
350
36B
  3
ACAD_MATERIAL
350
37F
  3
ACAD_MLEADERSTYLE
350
387
  3
ACAD_MLINESTYLE
350
1B
  3
ACAD_SCALELIST
350
349
  3
ACAD_VISUALSTYLE
350
36E
  3
ACDB_RECOMPOSE_DATA
350
3B4
  3
AcDbVariableDictionary
350
385
  0
DICTIONARY
  5
38B
330
7
100
AcDbDictionary
280
     1
281
     1
  3
ACAD_XREC_ROUNDTRIP
360
38C
  0
DICTIONARY
  5
1A
102
{ACAD_REACTORS
330
19
102
}
330
19
100
AcDbDictionary
281
     1
  0
DICTIONARY
  5
36B
102
{ACAD_REACTORS
330
19
102
}
330
19
100
AcDbDictionary
281
     1
  3
Layout1
350
36D
  3
Model
350
36C
  0
DICTIONARY
  5
37F
102
{ACAD_REACTORS
330
19
102
}
330
19
100
AcDbDictionary
281
     1
  3
ByBlock
350
381
  3
ByLayer
350
380
  3
Global
350
382
  0
DICTIONARY
  5
387
102
{ACAD_REACTORS
330
19
102
}
330
19
100
AcDbDictionary
281
     1
  0
DICTIONARY
  5
1B
102
{ACAD_REACTORS
330
19
102
}
330
19
100
AcDbDictionary
281
     1
  3
STANDARD
350
1C
  0
DICTIONARY
  5
349
102
{ACAD_REACTORS
330
19
102
}
330
19
100
AcDbDictionary
281
     1
  3
A0
350
34A
  3
A1
350
34B
  3
A2
350
34C
  3
A3
350
34D
  3
A4
350
34E
  3
A5
350
34F
  3
A6
350
350
  3
A7
350
351
  3
A8
350
352
  3
A9
350
353
  3
B0
350
354
  3
B1
350
355
  3
B2
350
356
  3
B3
350
357
  3
B4
350
358
  3
B5
350
359
  3
B6
350
35A
  3
B7
350
35B
  3
B8
350
35C
  3
B9
350
35D
  3
C0
350
35E
  3
C1
350
35F
  3
C2
350
360
  3
C3
350
361
  3
C4
350
362
  3
C5
350
363
  3
C6
350
364
  3
C7
350
365
  3
C8
350
366
  3
C9
350
367
  3
D0
350
368
  3
D1
350
369
  3
D2
350
36A
  0
DICTIONARY
  5
36E
102
{ACAD_REACTORS
330
19
102
}
330
19
100
AcDbDictionary
281
     1
  3
2dWireframe
350
373
  3
3D Hidden
350
375
  3
3dWireframe
350
374
  3
Basic
350
376
  3
Brighten
350
37A
  3
ColorChange
350
37E
  3
Conceptual
350
378
  3
Dim
350
379
  3
Facepattern
350
37D
  3
Flat
350
36F
  3
FlatWithEdges
350
370
  3
Gouraud
350
371
  3
GouraudWithEdges
350
372
  3
Linepattern
350
37C
  3
Realistic
350
377
  3
Thicken
350
37B
  0
XRECORD
  5
3B4
102
{ACAD_REACTORS
330
19
102
}
330
19
100
AcDbXrecord
280
     1
  0
DICTIONARY
  5
385
102
{ACAD_REACTORS
330
19
102
}
330
19
100
AcDbDictionary
281
     1
  3
CANNOSCALE
350
38D
  3
DIMASSOC
350
389
  3
HIDETEXT
350
38A
  3
MSLTSCALE
350
388
  0
XRECORD
  5
38C
102
{ACAD_REACTORS
330
38B
102
}
330
38B
100
AcDbXrecord
280
     1
102
VTR_0.000_0.000_1.000_1.000_VISUALSTYLE
340
373
102
VTR_0.000_0.000_1.000_1.000_GRIDDISPLAY
 70
     3
102
VTR_0.000_0.000_1.000_1.000_GRIDMAJOR
 70
     5
102
VTR_0.000_0.000_1.000_1.000_DEFAULTLIGHTING
280
     1
102
VTR_0.000_0.000_1.000_1.000_DEFAULTLIGHTINGTYPE
 70
     1
102
VTR_0.000_0.000_1.000_1.000_BRIGHTNESS
141
0.0
102
VTR_0.000_0.000_1.000_1.000_CONTRAST
142
0.0
  0
LAYOUT
  5
36D
102
{ACAD_REACTORS
330
36B
102
}
330
36B
100
AcDbPlotSettings
  1

  2
none_device
  4

  6

 40
0.0
 41
0.0
 42
0.0
 43
0.0
 44
0.0
 45
0.0
 46
0.0
 47
0.0
 48
0.0
 49
0.0
140
0.0
141
0.0
142
1.0
143
1.0
 70
   688
 72
     0
 73
     0
 74
     5
  7

 75
    16
147
1.0
148
0.0
149
0.0
100
AcDbLayout
  1
Layout1
 70
     1
 71
     1
 10
0.0
 20
0.0
 11
12.0
 21
9.0
 12
0.0
 22
0.0
 32
0.0
 14
1.000000000000000E+20
 24
1.000000000000000E+20
 34
1.000000000000000E+20
 15
-1.000000000000000E+20
 25
-1.000000000000000E+20
 35
-1.000000000000000E+20
146
0.0
 13
0.0
 23
0.0
 33
0.0
 16
1.0
 26
0.0
 36
0.0
 17
0.0
 27
1.0
 37
0.0
 76
     0
330
B
  0
LAYOUT
  5
36C
102
{ACAD_REACTORS
330
36B
102
}
330
36B
100
AcDbPlotSettings
  1

  2
none_device
  4

  6

 40
0.0
 41
0.0
 42
0.0
 43
0.0
 44
0.0
 45
0.0
 46
0.0
 47
0.0
 48
0.0
 49
0.0
140
0.0
141
0.0
142
1.0
143
1.0
 70
  1712
 72
     0
 73
     0
 74
     0
  7

 75
     0
147
1.0
148
2667.54428576817
149
0.0
100
AcDbLayout
  1
Model
 70
     1
 71
     0
 10
0.0
 20
0.0
 11
0.0
 21
0.0
 12
0.0
 22
0.0
 32
0.0
 14
0.0
 24
0.0
 34
0.0
 15
210.0
 25
297.0
 35
0.0
146
0.0
 13
0.0
 23
0.0
 33
0.0
 16
1.0
 26
0.0
 36
0.0
 17
0.0
 27
1.0
 37
0.0
 76
     0
330
A
331
15
  0
MATERIAL
  5
381
102
{ACAD_REACTORS
330
37F
102
}
102
{ACAD_XDICTIONARY
360
3B0
102
}
330
37F
100
AcDbMaterial
  1
ByBlock
  0
MATERIAL
  5
380
102
{ACAD_REACTORS
330
37F
102
}
102
{ACAD_XDICTIONARY
360
3AE
102
}
330
37F
100
AcDbMaterial
  1
ByLayer
  0
MATERIAL
  5
382
102
{ACAD_REACTORS
330
37F
102
}
102
{ACAD_XDICTIONARY
360
3B2
102
}
330
37F
100
AcDbMaterial
  1
Global
  0
MLINESTYLE
  5
1C
102
{ACAD_REACTORS
330
1B
102
}
330
1B
100
AcDbMlineStyle
  2
STANDARD
 70
     0
  3

 62
     0
 51
90.0
 52
90.0
 71
     2
 49
0.5
 62
   256
  6
BYLAYER
 49
-0.5
 62
   256
  6
BYLAYER
  0
SCALE
  5
34A
102
{ACAD_REACTORS
330
349
102
}
330
349
100
AcDbScale
 70
     0
300
1:1
140
1.0
141
1.0
290
     1
  0
SCALE
  5
34B
102
{ACAD_REACTORS
330
349
102
}
330
349
100
AcDbScale
 70
     0
300
1:2
140
1.0
141
2.0
290
     0
  0
SCALE
  5
34C
102
{ACAD_REACTORS
330
349
102
}
330
349
100
AcDbScale
 70
     0
300
1:4
140
1.0
141
4.0
290
     0
  0
SCALE
  5
34D
102
{ACAD_REACTORS
330
349
102
}
330
349
100
AcDbScale
 70
     0
300
1:5
140
1.0
141
5.0
290
     0
  0
SCALE
  5
34E
102
{ACAD_REACTORS
330
349
102
}
330
349
100
AcDbScale
 70
     0
300
1:8
140
1.0
141
8.0
290
     0
  0
SCALE
  5
34F
102
{ACAD_REACTORS
330
349
102
}
330
349
100
AcDbScale
 70
     0
300
1:10
140
1.0
141
10.0
290
     0
  0
SCALE
  5
350
102
{ACAD_REACTORS
330
349
102
}
330
349
100
AcDbScale
 70
     0
300
1:16
140
1.0
141
16.0
290
     0
  0
SCALE
  5
351
102
{ACAD_REACTORS
330
349
102
}
330
349
100
AcDbScale
 70
     0
300
1:20
140
1.0
141
20.0
290
     0
  0
SCALE
  5
352
102
{ACAD_REACTORS
330
349
102
}
330
349
100
AcDbScale
 70
     0
300
1:30
140
1.0
141
30.0
290
     0
  0
SCALE
  5
353
102
{ACAD_REACTORS
330
349
102
}
330
349
100
AcDbScale
 70
     0
300
1:40
140
1.0
141
40.0
290
     0
  0
SCALE
  5
354
102
{ACAD_REACTORS
330
349
102
}
330
349
100
AcDbScale
 70
     0
300
1:50
140
1.0
141
50.0
290
     0
  0
SCALE
  5
355
102
{ACAD_REACTORS
330
349
102
}
330
349
100
AcDbScale
 70
     0
300
1:100
140
1.0
141
100.0
290
     0
  0
SCALE
  5
356
102
{ACAD_REACTORS
330
349
102
}
330
349
100
AcDbScale
 70
     0
300
2:1
140
2.0
141
1.0
290
     0
  0
SCALE
  5
357
102
{ACAD_REACTORS
330
349
102
}
330
349
100
AcDbScale
 70
     0
300
4:1
140
4.0
141
1.0
290
     0
  0
SCALE
  5
358
102
{ACAD_REACTORS
330
349
102
}
330
349
100
AcDbScale
 70
     0
300
8:1
140
8.0
141
1.0
290
     0
  0
SCALE
  5
359
102
{ACAD_REACTORS
330
349
102
}
330
349
100
AcDbScale
 70
     0
300
10:1
140
10.0
141
1.0
290
     0
  0
SCALE
  5
35A
102
{ACAD_REACTORS
330
349
102
}
330
349
100
AcDbScale
 70
     0
300
100:1
140
100.0
141
1.0
290
     0
  0
SCALE
  5
35B
102
{ACAD_REACTORS
330
349
102
}
330
349
100
AcDbScale
 70
     0
300
1/128" = 1'-0"
140
0.0078125
141
12.0
290
     0
  0
SCALE
  5
35C
102
{ACAD_REACTORS
330
349
102
}
330
349
100
AcDbScale
 70
     0
300
1/64" = 1'-0"
140
0.015625
141
12.0
290
     0
  0
SCALE
  5
35D
102
{ACAD_REACTORS
330
349
102
}
330
349
100
AcDbScale
 70
     0
300
1/32" = 1'-0"
140
0.03125
141
12.0
290
     0
  0
SCALE
  5
35E
102
{ACAD_REACTORS
330
349
102
}
330
349
100
AcDbScale
 70
     0
300
1/16" = 1'-0"
140
0.0625
141
12.0
290
     0
  0
SCALE
  5
35F
102
{ACAD_REACTORS
330
349
102
}
330
349
100
AcDbScale
 70
     0
300
3/32" = 1'-0"
140
0.09375
141
12.0
290
     0
  0
SCALE
  5
360
102
{ACAD_REACTORS
330
349
102
}
330
349
100
AcDbScale
 70
     0
300
1/8" = 1'-0"
140
0.125
141
12.0
290
     0
  0
SCALE
  5
361
102
{ACAD_REACTORS
330
349
102
}
330
349
100
AcDbScale
 70
     0
300
3/16" = 1'-0"
140
0.1875
141
12.0
290
     0
  0
SCALE
  5
362
102
{ACAD_REACTORS
330
349
102
}
330
349
100
AcDbScale
 70
     0
300
1/4" = 1'-0"
140
0.25
141
12.0
290
     0
  0
SCALE
  5
363
102
{ACAD_REACTORS
330
349
102
}
330
349
100
AcDbScale
 70
     0
300
3/8" = 1'-0"
140
0.375
141
12.0
290
     0
  0
SCALE
  5
364
102
{ACAD_REACTORS
330
349
102
}
330
349
100
AcDbScale
 70
     0
300
1/2" = 1'-0"
140
0.5
141
12.0
290
     0
  0
SCALE
  5
365
102
{ACAD_REACTORS
330
349
102
}
330
349
100
AcDbScale
 70
     0
300
3/4" = 1'-0"
140
0.75
141
12.0
290
     0
  0
SCALE
  5
366
102
{ACAD_REACTORS
330
349
102
}
330
349
100
AcDbScale
 70
     0
300
1" = 1'-0"
140
1.0
141
12.0
290
     0
  0
SCALE
  5
367
102
{ACAD_REACTORS
330
349
102
}
330
349
100
AcDbScale
 70
     0
300
1-1/2" = 1'-0"
140
1.5
141
12.0
290
     0
  0
SCALE
  5
368
102
{ACAD_REACTORS
330
349
102
}
330
349
100
AcDbScale
 70
     0
300
3" = 1'-0"
140
3.0
141
12.0
290
     0
  0
SCALE
  5
369
102
{ACAD_REACTORS
330
349
102
}
330
349
100
AcDbScale
 70
     0
300
6" = 1'-0"
140
6.0
141
12.0
290
     0
  0
SCALE
  5
36A
102
{ACAD_REACTORS
330
349
102
}
330
349
100
AcDbScale
 70
     0
300
1'-0" = 1'-0"
140
12.0
141
12.0
290
     0
  0
VISUALSTYLE
  5
373
102
{ACAD_REACTORS
330
36E
102
}
102
{ACAD_XDICTIONARY
360
396
102
}
330
36E
100
AcDbVisualStyle
  2
2dWireframe
 70
     4
 71
     0
 72
     2
 73
     0
 90
        0
 40
-0.6
 41
-30.0
 62
     5
 63
     7
 74
     1
 91
        4
 64
     7
 65
   257
 75
     1
175
     1
 42
1.0
 92
        0
 66
   257
 43
1.0
 76
     1
 77
     6
 78
     2
 67
     7
 79
     5
170
     0
171
     0
290
     0
174
     0
 93
        1
 44
0.0
173
     0
291
     0
 45
0.0
1001
ACAD
1000
AcDbSavedByObjectVersion
1070
     0
  0
VISUALSTYLE
  5
375
102
{ACAD_REACTORS
330
36E
102
}
102
{ACAD_XDICTIONARY
360
39A
102
}
330
36E
100
AcDbVisualStyle
  2
3D Hidden
 70
     6
 71
     1
 72
     2
 73
     2
 90
        0
 40
-0.6
 41
-30.0
 62
     5
 63
     7
 74
     2
 91
        2
 64
     7
 65
   257
 75
     2
175
     1
 42
40.0
 92
        0
 66
   257
 43
1.0
 76
     1
 77
     6
 78
     2
 67
     7
 79
     3
170
     0
171
     0
290
     0
174
     0
 93
        1
 44
0.0
173
     0
291
     0
 45
0.0
1001
ACAD
1000
AcDbSavedByObjectVersion
1070
     0
  0
VISUALSTYLE
  5
374
102
{ACAD_REACTORS
330
36E
102
}
102
{ACAD_XDICTIONARY
360
398
102
}
330
36E
100
AcDbVisualStyle
  2
3dWireframe
 70
     5
 71
     0
 72
     2
 73
     0
 90
        0
 40
-0.6
 41
-30.0
 62
     5
 63
     7
 74
     1
 91
        4
 64
     7
 65
   257
 75
     1
175
     1
 42
1.0
 92
        0
 66
   257
 43
1.0
 76
     1
 77
     6
 78
     2
 67
     7
 79
     5
170
     0
171
     0
290
     0
174
     0
 93
        1
 44
0.0
173
     0
291
     0
 45
0.0
1001
ACAD
1000
AcDbSavedByObjectVersion
1070
     0
  0
VISUALSTYLE
  5
376
102
{ACAD_REACTORS
330
36E
102
}
102
{ACAD_XDICTIONARY
360
39C
102
}
330
36E
100
AcDbVisualStyle
  2
Basic
 70
     7
 71
     1
 72
     0
 73
     1
 90
        0
 40
-0.6
 41
-30.0
 62
     5
 63
     7
 74
     0
 91
        4
 64
     7
 65
   257
 75
     1
175
     1
 42
1.0
 92
        8
 66
     7
 43
1.0
 76
     1
 77
     6
 78
     2
 67
     7
 79
     5
170
     0
171
     0
290
     0
174
     0
 93
        1
 44
0.0
173
     0
291
     1
 45
0.0
1001
ACAD
1000
AcDbSavedByObjectVersion
1070
     0
  0
VISUALSTYLE
  5
37A
102
{ACAD_REACTORS
330
36E
102
}
102
{ACAD_XDICTIONARY
360
3A4
102
}
330
36E
100
AcDbVisualStyle
  2
Brighten
 70
    12
 71
     2
 72
     2
 73
     0
 90
        0
 40
-0.6
 41
-30.0
 62
     5
 63
     7
 74
     1
 91
        4
 64
     7
 65
   257
 75
     1
175
     1
 42
1.0
 92
        8
 66
     7
 43
1.0
 76
     1
 77
     6
 78
     2
 67
     7
 79
     5
170
     0
171
     0
290
     0
174
     0
 93
        1
 44
50.0
173
     0
291
     1
 45
0.0
1001
ACAD
1000
AcDbSavedByObjectVersion
1070
     0
  0
VISUALSTYLE
  5
37E
102
{ACAD_REACTORS
330
36E
102
}
102
{ACAD_XDICTIONARY
360
3AC
102
}
330
36E
100
AcDbVisualStyle
  2
ColorChange
 70
    16
 71
     2
 72
     2
 73
     3
 90
        0
 40
-0.6
 41
-30.0
 62
     5
 63
     8
 74
     1
 91
        4
 64
     7
 65
   257
 75
     1
175
     1
 42
1.0
 92
        8
 66
     8
 43
1.0
 76
     1
 77
     6
 78
     2
 67
     7
 79
     5
170
     0
171
     0
290
     0
174
     0
 93
        1
 44
0.0
173
     0
291
     1
 45
0.0
1001
ACAD
1000
AcDbSavedByObjectVersion
1070
     0
  0
VISUALSTYLE
  5
378
102
{ACAD_REACTORS
330
36E
102
}
102
{ACAD_XDICTIONARY
360
3A0
102
}
330
36E
100
AcDbVisualStyle
  2
Conceptual
 70
     9
 71
     3
 72
     2
 73
     0
 90
        0
 40
-0.6
 41
-30.0
 62
     5
 63
     7
 74
     2
 91
        2
 64
     7
 65
   257
 75
     1
175
     1
 42
40.0
 92
        8
 66
     7
 43
1.0
 76
     1
 77
     6
 78
     2
 67
     7
 79
     3
170
     0
171
     0
290
     0
174
     0
 93
        1
 44
0.0
173
     0
291
     0
 45
0.0
1001
ACAD
1000
AcDbSavedByObjectVersion
1070
     0
  0
VISUALSTYLE
  5
379
102
{ACAD_REACTORS
330
36E
102
}
102
{ACAD_XDICTIONARY
360
3A2
102
}
330
36E
100
AcDbVisualStyle
  2
Dim
 70
    11
 71
     2
 72
     2
 73
     0
 90
        0
 40
-0.6
 41
-30.0
 62
     5
 63
     7
 74
     1
 91
        4
 64
     7
 65
   257
 75
     1
175
     1
 42
1.0
 92
        8
 66
     7
 43
1.0
 76
     1
 77
     6
 78
     2
 67
     7
 79
     5
170
     0
171
     0
290
     0
174
     0
 93
        1
 44
-50.0
173
     0
291
     1
 45
0.0
1001
ACAD
1000
AcDbSavedByObjectVersion
1070
     0
  0
VISUALSTYLE
  5
37D
102
{ACAD_REACTORS
330
36E
102
}
102
{ACAD_XDICTIONARY
360
3AA
102
}
330
36E
100
AcDbVisualStyle
  2
Facepattern
 70
    15
 71
     2
 72
     2
 73
     0
 90
        0
 40
-0.6
 41
-30.0
 62
     5
 63
     7
 74
     1
 91
        4
 64
     7
 65
   257
 75
     1
175
     1
 42
1.0
 92
        8
 66
     7
 43
1.0
 76
     1
 77
     6
 78
     2
 67
     7
 79
     5
170
     0
171
     0
290
     0
174
     0
 93
        1
 44
0.0
173
     0
291
     1
 45
0.0
1001
ACAD
1000
AcDbSavedByObjectVersion
1070
     0
  0
VISUALSTYLE
  5
36F
102
{ACAD_REACTORS
330
36E
102
}
102
{ACAD_XDICTIONARY
360
38E
102
}
330
36E
100
AcDbVisualStyle
  2
Flat
 70
     0
 71
     2
 72
     1
 73
     1
 90
        2
 40
-0.6
 41
30.0
 62
     5
 63
     7
 74
     0
 91
        4
 64
     7
 65
   257
 75
     1
175
     1
 42
1.0
 92
        8
 66
     7
 43
1.0
 76
     1
 77
     6
 78
     2
 67
     7
 79
     5
170
     0
171
     0
290
     0
174
     0
 93
       13
 44
0.0
173
     0
291
     1
 45
0.0
1001
ACAD
1000
AcDbSavedByObjectVersion
1070
     0
  0
VISUALSTYLE
  5
370
102
{ACAD_REACTORS
330
36E
102
}
102
{ACAD_XDICTIONARY
360
390
102
}
330
36E
100
AcDbVisualStyle
  2
FlatWithEdges
 70
     1
 71
     2
 72
     1
 73
     1
 90
        2
 40
-0.6
 41
30.0
 62
     5
 63
     7
 74
     1
 91
        4
 64
     7
 65
   257
 75
     1
175
     1
 42
1.0
 92
        0
 66
   257
 43
1.0
 76
     1
 77
     6
 78
     2
 67
     7
 79
     5
170
     0
171
     0
290
     0
174
     0
 93
       13
 44
0.0
173
     0
291
     1
 45
0.0
1001
ACAD
1000
AcDbSavedByObjectVersion
1070
     0
  0
VISUALSTYLE
  5
371
102
{ACAD_REACTORS
330
36E
102
}
102
{ACAD_XDICTIONARY
360
392
102
}
330
36E
100
AcDbVisualStyle
  2
Gouraud
 70
     2
 71
     2
 72
     2
 73
     1
 90
        2
 40
-0.6
 41
30.0
 62
     5
 63
     7
 74
     0
 91
        4
 64
     7
 65
   257
 75
     1
175
     1
 42
1.0
 92
        0
 66
     7
 43
1.0
 76
     1
 77
     6
 78
     2
 67
     7
 79
     5
170
     0
171
     0
290
     0
174
     0
 93
       13
 44
0.0
173
     0
291
     1
 45
0.0
1001
ACAD
1000
AcDbSavedByObjectVersion
1070
     0
  0
VISUALSTYLE
  5
372
102
{ACAD_REACTORS
330
36E
102
}
102
{ACAD_XDICTIONARY
360
394
102
}
330
36E
100
AcDbVisualStyle
  2
GouraudWithEdges
 70
     3
 71
     2
 72
     2
 73
     1
 90
        2
 40
-0.6
 41
30.0
 62
     5
 63
     7
 74
     1
 91
        4
 64
     7
 65
   257
 75
     1
175
     1
 42
1.0
 92
        0
 66
   257
 43
1.0
 76
     1
 77
     6
 78
     2
 67
     7
 79
     5
170
     0
171
     0
290
     0
174
     0
 93
       13
 44
0.0
173
     0
291
     1
 45
0.0
1001
ACAD
1000
AcDbSavedByObjectVersion
1070
     0
  0
VISUALSTYLE
  5
37C
102
{ACAD_REACTORS
330
36E
102
}
102
{ACAD_XDICTIONARY
360
3A8
102
}
330
36E
100
AcDbVisualStyle
  2
Linepattern
 70
    14
 71
     2
 72
     2
 73
     0
 90
        0
 40
-0.6
 41
-30.0
 62
     5
 63
     7
 74
     1
 91
        4
 64
     7
 65
   257
 75
     7
175
     7
 42
1.0
 92
        8
 66
     7
 43
1.0
 76
     1
 77
     6
 78
     2
 67
     7
 79
     5
170
     0
171
     0
290
     0
174
     0
 93
        1
 44
0.0
173
     0
291
     1
 45
0.0
1001
ACAD
1000
AcDbSavedByObjectVersion
1070
     0
  0
VISUALSTYLE
  5
377
102
{ACAD_REACTORS
330
36E
102
}
102
{ACAD_XDICTIONARY
360
39E
102
}
330
36E
100
AcDbVisualStyle
  2
Realistic
 70
     8
 71
     2
 72
     2
 73
     0
 90
        0
 40
-0.6
 41
-30.0
 62
     5
 63
     7
 74
     1
 91
        0
 64
     7
 65
   257
 75
     1
175
     1
 42
1.0
 92
        8
 66
     8
 43
1.0
 76
     1
 77
     6
 78
     2
 67
     7
 79
     5
170
     0
171
     0
290
     0
174
     0
 93
       13
 44
0.0
173
     0
291
     0
 45
0.0
1001
ACAD
1000
AcDbSavedByObjectVersion
1070
     0
  0
VISUALSTYLE
  5
37B
102
{ACAD_REACTORS
330
36E
102
}
102
{ACAD_XDICTIONARY
360
3A6
102
}
330
36E
100
AcDbVisualStyle
  2
Thicken
 70
    13
 71
     2
 72
     2
 73
     0
 90
        0
 40
-0.6
 41
-30.0
 62
     5
 63
     7
 74
     1
 91
        4
 64
     7
 65
   257
 75
     1
175
     1
 42
1.0
 92
       12
 66
     7
 43
1.0
 76
     1
 77
     6
 78
     2
 67
     7
 79
     5
170
     0
171
     0
290
     0
174
     0
 93
        1
 44
0.0
173
     0
291
     1
 45
0.0
1001
ACAD
1000
AcDbSavedByObjectVersion
1070
     0
  0
DICTIONARYVAR
  5
38D
102
{ACAD_REACTORS
330
385
102
}
330
385
100
DictionaryVariables
280
     0
  1
1:1
  0
DICTIONARYVAR
  5
389
102
{ACAD_REACTORS
330
385
102
}
330
385
100
DictionaryVariables
280
     0
  1
2
  0
DICTIONARYVAR
  5
38A
102
{ACAD_REACTORS
330
385
102
}
330
385
100
DictionaryVariables
280
     0
  1
1
  0
DICTIONARYVAR
  5
388
102
{ACAD_REACTORS
330
385
102
}
330
385
100
DictionaryVariables
280
     0
  1
0
  0
DICTIONARY
  5
3B0
330
381
100
AcDbDictionary
280
     1
281
     1
  3
ACAD_XREC_ROUNDTRIP
360
3B1
  0
DICTIONARY
  5
3AE
330
380
100
AcDbDictionary
280
     1
281
     1
  3
ACAD_XREC_ROUNDTRIP
360
3AF
  0
DICTIONARY
  5
3B2
330
382
100
AcDbDictionary
280
     1
281
     1
  3
ACAD_XREC_ROUNDTRIP
360
3B3
  0
DICTIONARY
  5
396
330
373
100
AcDbDictionary
280
     1
281
     1
  3
ACAD_XREC_ROUNDTRIP
360
397
  0
DICTIONARY
  5
39A
330
375
100
AcDbDictionary
280
     1
281
     1
  3
ACAD_XREC_ROUNDTRIP
360
39B
  0
DICTIONARY
  5
398
330
374
100
AcDbDictionary
280
     1
281
     1
  3
ACAD_XREC_ROUNDTRIP
360
399
  0
DICTIONARY
  5
39C
330
376
100
AcDbDictionary
280
     1
281
     1
  3
ACAD_XREC_ROUNDTRIP
360
39D
  0
DICTIONARY
  5
3A4
330
37A
100
AcDbDictionary
280
     1
281
     1
  3
ACAD_XREC_ROUNDTRIP
360
3A5
  0
DICTIONARY
  5
3AC
330
37E
100
AcDbDictionary
280
     1
281
     1
  3
ACAD_XREC_ROUNDTRIP
360
3AD
  0
DICTIONARY
  5
3A0
330
378
100
AcDbDictionary
280
     1
281
     1
  3
ACAD_XREC_ROUNDTRIP
360
3A1
  0
DICTIONARY
  5
3A2
330
379
100
AcDbDictionary
280
     1
281
     1
  3
ACAD_XREC_ROUNDTRIP
360
3A3
  0
DICTIONARY
  5
3AA
330
37D
100
AcDbDictionary
280
     1
281
     1
  3
ACAD_XREC_ROUNDTRIP
360
3AB
  0
DICTIONARY
  5
38E
330
36F
100
AcDbDictionary
280
     1
281
     1
  3
ACAD_XREC_ROUNDTRIP
360
38F
  0
DICTIONARY
  5
390
330
370
100
AcDbDictionary
280
     1
281
     1
  3
ACAD_XREC_ROUNDTRIP
360
391
  0
DICTIONARY
  5
392
330
371
100
AcDbDictionary
280
     1
281
     1
  3
ACAD_XREC_ROUNDTRIP
360
393
  0
DICTIONARY
  5
394
330
372
100
AcDbDictionary
280
     1
281
     1
  3
ACAD_XREC_ROUNDTRIP
360
395
  0
DICTIONARY
  5
3A8
330
37C
100
AcDbDictionary
280
     1
281
     1
  3
ACAD_XREC_ROUNDTRIP
360
3A9
  0
DICTIONARY
  5
39E
330
377
100
AcDbDictionary
280
     1
281
     1
  3
ACAD_XREC_ROUNDTRIP
360
39F
  0
DICTIONARY
  5
3A6
330
37B
100
AcDbDictionary
280
     1
281
     1
  3
ACAD_XREC_ROUNDTRIP
360
3A7
  0
XRECORD
  5
3B1
102
{ACAD_REACTORS
330
3B0
102
}
330
3B0
100
AcDbXrecord
280
     1
102
MATERIAL
148
0.0
149
0.0
149
0.0
 93
        0
 94
      127
282
     0
 72
     1
 77
     1
171
     1
175
     1
179
     1
273
     0
  0
XRECORD
  5
3AF
102
{ACAD_REACTORS
330
3AE
102
}
330
3AE
100
AcDbXrecord
280
     1
102
MATERIAL
148
0.0
149
0.0
149
0.0
 93
        0
 94
      127
282
     0
 72
     1
 77
     1
171
     1
175
     1
179
     1
273
     0
  0
XRECORD
  5
3B3
102
{ACAD_REACTORS
330
3B2
102
}
330
3B2
100
AcDbXrecord
280
     1
102
MATERIAL
148
0.0
149
0.0
149
0.0
 93
        0
 94
      127
282
     0
 72
     1
 77
     1
171
     1
175
     1
179
     1
273
     0
  0
XRECORD
  5
397
102
{ACAD_REACTORS
330
396
102
}
330
396
100
AcDbXrecord
280
     1
102
RTVSPropertyOp0
 70
     1
102
RTVSPropertyOp1
 70
     1
102
RTVSPropertyOp2
 70
     1
102
RTVSPropertyOp3
 70
     1
102
RTVSPropertyOp4
 70
     1
102
RTVSPropertyOp5
 70
     1
102
RTVSPropertyOp6
 70
     1
102
RTVSPropertyOp7
 70
     1
102
RTVSPropertyOp8
 70
     1
102
RTVSPropertyOp9
 70
     1
102
RTVSPropertyOp10
 70
     1
102
RTVSPropertyOp11
 70
     1
102
RTVSPropertyOp12
 70
     1
102
RTVSPropertyOp13
 70
     1
102
RTVSPropertyOp14
 70
     1
102
RTVSPropertyOp15
 70
     1
102
RTVSPropertyOp16
 70
     1
102
RTVSPropertyOp17
 70
     1
102
RTVSPropertyOp18
 70
     1
102
RTVSPropertyOp19
 70
     1
102
RTVSPropertyOp20
 70
     1
102
RTVSPropertyOp21
 70
     1
102
RTVSPropertyOp22
 70
     1
102
RTVSPropertyOp23
 70
     1
102
RTVSPropertyOp24
 70
     1
102
RTVSPropertyOp25
 70
     1
102
RTVSPropertyOp26
 70
     1
102
RTVSPropertyOp27
 70
     1
102
RTVSPropertyOp28
 70
     1
102
RTVSPropertyOp29
 70
     1
102
RTVSPropertyOp30
 70
     1
102
RTVSPropertyOp31
 70
     1
102
RTVSPropertyOp32
 70
     1
  0
XRECORD
  5
39B
102
{ACAD_REACTORS
330
39A
102
}
330
39A
100
AcDbXrecord
280
     1
102
RTVSPropertyOp0
 70
     1
102
RTVSPropertyOp1
 70
     1
102
RTVSPropertyOp2
 70
     1
102
RTVSPropertyOp3
 70
     1
102
RTVSPropertyOp4
 70
     1
102
RTVSPropertyOp5
 70
     1
102
RTVSPropertyOp6
 70
     1
102
RTVSPropertyOp7
 70
     1
102
RTVSPropertyOp8
 70
     1
102
RTVSPropertyOp9
 70
     1
102
RTVSPropertyOp10
 70
     1
102
RTVSPropertyOp11
 70
     1
102
RTVSPropertyOp12
 70
     1
102
RTVSPropertyOp13
 70
     1
102
RTVSPropertyOp14
 70
     1
102
RTVSPropertyOp15
 70
     1
102
RTVSPropertyOp16
 70
     1
102
RTVSPropertyOp17
 70
     1
102
RTVSPropertyOp18
 70
     1
102
RTVSPropertyOp19
 70
     1
102
RTVSPropertyOp20
 70
     1
102
RTVSPropertyOp21
 70
     1
102
RTVSPropertyOp22
 70
     1
102
RTVSPropertyOp23
 70
     1
102
RTVSPropertyOp24
 70
     1
102
RTVSPropertyOp25
 70
     1
102
RTVSPropertyOp26
 70
     1
102
RTVSPropertyOp27
 70
     1
102
RTVSPropertyOp28
 70
     1
102
RTVSPropertyOp29
 70
     1
102
RTVSPropertyOp30
 70
     1
102
RTVSPropertyOp31
 70
     1
102
RTVSPropertyOp32
 70
     1
  0
XRECORD
  5
399
102
{ACAD_REACTORS
330
398
102
}
330
398
100
AcDbXrecord
280
     1
102
RTVSPropertyOp0
 70
     1
102
RTVSPropertyOp1
 70
     1
102
RTVSPropertyOp2
 70
     1
102
RTVSPropertyOp3
 70
     1
102
RTVSPropertyOp4
 70
     1
102
RTVSPropertyOp5
 70
     1
102
RTVSPropertyOp6
 70
     1
102
RTVSPropertyOp7
 70
     1
102
RTVSPropertyOp8
 70
     1
102
RTVSPropertyOp9
 70
     1
102
RTVSPropertyOp10
 70
     1
102
RTVSPropertyOp11
 70
     1
102
RTVSPropertyOp12
 70
     1
102
RTVSPropertyOp13
 70
     1
102
RTVSPropertyOp14
 70
     1
102
RTVSPropertyOp15
 70
     1
102
RTVSPropertyOp16
 70
     1
102
RTVSPropertyOp17
 70
     1
102
RTVSPropertyOp18
 70
     1
102
RTVSPropertyOp19
 70
     1
102
RTVSPropertyOp20
 70
     1
102
RTVSPropertyOp21
 70
     1
102
RTVSPropertyOp22
 70
     1
102
RTVSPropertyOp23
 70
     1
102
RTVSPropertyOp24
 70
     1
102
RTVSPropertyOp25
 70
     1
102
RTVSPropertyOp26
 70
     1
102
RTVSPropertyOp27
 70
     1
102
RTVSPropertyOp28
 70
     1
102
RTVSPropertyOp29
 70
     1
102
RTVSPropertyOp30
 70
     1
102
RTVSPropertyOp31
 70
     1
102
RTVSPropertyOp32
 70
     1
  0
XRECORD
  5
39D
102
{ACAD_REACTORS
330
39C
102
}
330
39C
100
AcDbXrecord
280
     1
102
RTVSPropertyOp0
 70
     1
102
RTVSPropertyOp1
 70
     1
102
RTVSPropertyOp2
 70
     1
102
RTVSPropertyOp3
 70
     1
102
RTVSPropertyOp4
 70
     1
102
RTVSPropertyOp5
 70
     1
102
RTVSPropertyOp6
 70
     1
102
RTVSPropertyOp7
 70
     1
102
RTVSPropertyOp8
 70
     1
102
RTVSPropertyOp9
 70
     1
102
RTVSPropertyOp10
 70
     1
102
RTVSPropertyOp11
 70
     1
102
RTVSPropertyOp12
 70
     1
102
RTVSPropertyOp13
 70
     1
102
RTVSPropertyOp14
 70
     1
102
RTVSPropertyOp15
 70
     1
102
RTVSPropertyOp16
 70
     1
102
RTVSPropertyOp17
 70
     1
102
RTVSPropertyOp18
 70
     1
102
RTVSPropertyOp19
 70
     1
102
RTVSPropertyOp20
 70
     1
102
RTVSPropertyOp21
 70
     1
102
RTVSPropertyOp22
 70
     1
102
RTVSPropertyOp23
 70
     1
102
RTVSPropertyOp24
 70
     1
102
RTVSPropertyOp25
 70
     1
102
RTVSPropertyOp26
 70
     1
102
RTVSPropertyOp27
 70
     1
102
RTVSPropertyOp28
 70
     1
102
RTVSPropertyOp29
 70
     1
102
RTVSPropertyOp30
 70
     1
102
RTVSPropertyOp31
 70
     1
102
RTVSPropertyOp32
 70
     1
  0
XRECORD
  5
3A5
102
{ACAD_REACTORS
330
3A4
102
}
330
3A4
100
AcDbXrecord
280
     1
102
RTVSPropertyOp0
 70
     1
102
RTVSPropertyOp1
 70
     1
102
RTVSPropertyOp2
 70
     1
102
RTVSPropertyOp3
 70
     1
102
RTVSPropertyOp4
 70
     1
102
RTVSPropertyOp5
 70
     1
102
RTVSPropertyOp6
 70
     1
102
RTVSPropertyOp7
 70
     1
102
RTVSPropertyOp8
 70
     1
102
RTVSPropertyOp9
 70
     1
102
RTVSPropertyOp10
 70
     1
102
RTVSPropertyOp11
 70
     1
102
RTVSPropertyOp12
 70
     1
102
RTVSPropertyOp13
 70
     1
102
RTVSPropertyOp14
 70
     1
102
RTVSPropertyOp15
 70
     1
102
RTVSPropertyOp16
 70
     1
102
RTVSPropertyOp17
 70
     1
102
RTVSPropertyOp18
 70
     1
102
RTVSPropertyOp19
 70
     1
102
RTVSPropertyOp20
 70
     1
102
RTVSPropertyOp21
 70
     1
102
RTVSPropertyOp22
 70
     1
102
RTVSPropertyOp23
 70
     1
102
RTVSPropertyOp24
 70
     1
102
RTVSPropertyOp25
 70
     1
102
RTVSPropertyOp26
 70
     1
102
RTVSPropertyOp27
 70
     1
102
RTVSPropertyOp28
 70
     1
102
RTVSPropertyOp29
 70
     1
102
RTVSPropertyOp30
 70
     1
102
RTVSPropertyOp31
 70
     1
102
RTVSPropertyOp32
 70
     1
  0
XRECORD
  5
3AD
102
{ACAD_REACTORS
330
3AC
102
}
330
3AC
100
AcDbXrecord
280
     1
102
RTVSPropertyOp0
 70
     1
102
RTVSPropertyOp1
 70
     1
102
RTVSPropertyOp2
 70
     1
102
RTVSPropertyOp3
 70
     1
102
RTVSPropertyOp4
 70
     1
102
RTVSPropertyOp5
 70
     1
102
RTVSPropertyOp6
 70
     1
102
RTVSPropertyOp7
 70
     1
102
RTVSPropertyOp8
 70
     1
102
RTVSPropertyOp9
 70
     1
102
RTVSPropertyOp10
 70
     1
102
RTVSPropertyOp11
 70
     1
102
RTVSPropertyOp12
 70
     1
102
RTVSPropertyOp13
 70
     1
102
RTVSPropertyOp14
 70
     1
102
RTVSPropertyOp15
 70
     1
102
RTVSPropertyOp16
 70
     1
102
RTVSPropertyOp17
 70
     1
102
RTVSPropertyOp18
 70
     1
102
RTVSPropertyOp19
 70
     1
102
RTVSPropertyOp20
 70
     1
102
RTVSPropertyOp21
 70
     1
102
RTVSPropertyOp22
 70
     1
102
RTVSPropertyOp23
 70
     1
102
RTVSPropertyOp24
 70
     1
102
RTVSPropertyOp25
 70
     1
102
RTVSPropertyOp26
 70
     1
102
RTVSPropertyOp27
 70
     1
102
RTVSPropertyOp28
 70
     1
102
RTVSPropertyOp29
 70
     1
102
RTVSPropertyOp30
 70
     1
102
RTVSPropertyOp31
 70
     1
102
RTVSPropertyOp32
 70
     1
  0
XRECORD
  5
3A1
102
{ACAD_REACTORS
330
3A0
102
}
330
3A0
100
AcDbXrecord
280
     1
102
RTVSPropertyOp0
 70
     1
102
RTVSPropertyOp1
 70
     1
102
RTVSPropertyOp2
 70
     1
102
RTVSPropertyOp3
 70
     1
102
RTVSPropertyOp4
 70
     1
102
RTVSPropertyOp5
 70
     1
102
RTVSPropertyOp6
 70
     1
102
RTVSPropertyOp7
 70
     1
102
RTVSPropertyOp8
 70
     1
102
RTVSPropertyOp9
 70
     1
102
RTVSPropertyOp10
 70
     1
102
RTVSPropertyOp11
 70
     1
102
RTVSPropertyOp12
 70
     1
102
RTVSPropertyOp13
 70
     1
102
RTVSPropertyOp14
 70
     1
102
RTVSPropertyOp15
 70
     1
102
RTVSPropertyOp16
 70
     1
102
RTVSPropertyOp17
 70
     1
102
RTVSPropertyOp18
 70
     1
102
RTVSPropertyOp19
 70
     1
102
RTVSPropertyOp20
 70
     1
102
RTVSPropertyOp21
 70
     1
102
RTVSPropertyOp22
 70
     1
102
RTVSPropertyOp23
 70
     1
102
RTVSPropertyOp24
 70
     1
102
RTVSPropertyOp25
 70
     1
102
RTVSPropertyOp26
 70
     1
102
RTVSPropertyOp27
 70
     1
102
RTVSPropertyOp28
 70
     1
102
RTVSPropertyOp29
 70
     1
102
RTVSPropertyOp30
 70
     1
102
RTVSPropertyOp31
 70
     1
102
RTVSPropertyOp32
 70
     1
  0
XRECORD
  5
3A3
102
{ACAD_REACTORS
330
3A2
102
}
330
3A2
100
AcDbXrecord
280
     1
102
RTVSPropertyOp0
 70
     1
102
RTVSPropertyOp1
 70
     1
102
RTVSPropertyOp2
 70
     1
102
RTVSPropertyOp3
 70
     1
102
RTVSPropertyOp4
 70
     1
102
RTVSPropertyOp5
 70
     1
102
RTVSPropertyOp6
 70
     1
102
RTVSPropertyOp7
 70
     1
102
RTVSPropertyOp8
 70
     1
102
RTVSPropertyOp9
 70
     1
102
RTVSPropertyOp10
 70
     1
102
RTVSPropertyOp11
 70
     1
102
RTVSPropertyOp12
 70
     1
102
RTVSPropertyOp13
 70
     1
102
RTVSPropertyOp14
 70
     1
102
RTVSPropertyOp15
 70
     1
102
RTVSPropertyOp16
 70
     1
102
RTVSPropertyOp17
 70
     1
102
RTVSPropertyOp18
 70
     1
102
RTVSPropertyOp19
 70
     1
102
RTVSPropertyOp20
 70
     1
102
RTVSPropertyOp21
 70
     1
102
RTVSPropertyOp22
 70
     1
102
RTVSPropertyOp23
 70
     1
102
RTVSPropertyOp24
 70
     1
102
RTVSPropertyOp25
 70
     1
102
RTVSPropertyOp26
 70
     1
102
RTVSPropertyOp27
 70
     1
102
RTVSPropertyOp28
 70
     1
102
RTVSPropertyOp29
 70
     1
102
RTVSPropertyOp30
 70
     1
102
RTVSPropertyOp31
 70
     1
102
RTVSPropertyOp32
 70
     1
  0
XRECORD
  5
3AB
102
{ACAD_REACTORS
330
3AA
102
}
330
3AA
100
AcDbXrecord
280
     1
102
RTVSPropertyOp0
 70
     1
102
RTVSPropertyOp1
 70
     1
102
RTVSPropertyOp2
 70
     1
102
RTVSPropertyOp3
 70
     1
102
RTVSPropertyOp4
 70
     1
102
RTVSPropertyOp5
 70
     1
102
RTVSPropertyOp6
 70
     1
102
RTVSPropertyOp7
 70
     1
102
RTVSPropertyOp8
 70
     1
102
RTVSPropertyOp9
 70
     1
102
RTVSPropertyOp10
 70
     1
102
RTVSPropertyOp11
 70
     1
102
RTVSPropertyOp12
 70
     1
102
RTVSPropertyOp13
 70
     1
102
RTVSPropertyOp14
 70
     1
102
RTVSPropertyOp15
 70
     1
102
RTVSPropertyOp16
 70
     1
102
RTVSPropertyOp17
 70
     1
102
RTVSPropertyOp18
 70
     1
102
RTVSPropertyOp19
 70
     1
102
RTVSPropertyOp20
 70
     1
102
RTVSPropertyOp21
 70
     1
102
RTVSPropertyOp22
 70
     1
102
RTVSPropertyOp23
 70
     1
102
RTVSPropertyOp24
 70
     1
102
RTVSPropertyOp25
 70
     1
102
RTVSPropertyOp26
 70
     1
102
RTVSPropertyOp27
 70
     1
102
RTVSPropertyOp28
 70
     1
102
RTVSPropertyOp29
 70
     1
102
RTVSPropertyOp30
 70
     1
102
RTVSPropertyOp31
 70
     1
102
RTVSPropertyOp32
 70
     1
  0
XRECORD
  5
38F
102
{ACAD_REACTORS
330
38E
102
}
330
38E
100
AcDbXrecord
280
     1
102
RTVSPropertyOp0
 70
     1
102
RTVSPropertyOp1
 70
     1
102
RTVSPropertyOp2
 70
     1
102
RTVSPropertyOp3
 70
     1
102
RTVSPropertyOp4
 70
     1
102
RTVSPropertyOp5
 70
     1
102
RTVSPropertyOp6
 70
     1
102
RTVSPropertyOp7
 70
     1
102
RTVSPropertyOp8
 70
     1
102
RTVSPropertyOp9
 70
     1
102
RTVSPropertyOp10
 70
     1
102
RTVSPropertyOp11
 70
     1
102
RTVSPropertyOp12
 70
     1
102
RTVSPropertyOp13
 70
     1
102
RTVSPropertyOp14
 70
     1
102
RTVSPropertyOp15
 70
     1
102
RTVSPropertyOp16
 70
     1
102
RTVSPropertyOp17
 70
     1
102
RTVSPropertyOp18
 70
     1
102
RTVSPropertyOp19
 70
     1
102
RTVSPropertyOp20
 70
     1
102
RTVSPropertyOp21
 70
     1
102
RTVSPropertyOp22
 70
     1
102
RTVSPropertyOp23
 70
     1
102
RTVSPropertyOp24
 70
     1
102
RTVSPropertyOp25
 70
     1
102
RTVSPropertyOp26
 70
     1
102
RTVSPropertyOp27
 70
     1
102
RTVSPropertyOp28
 70
     1
102
RTVSPropertyOp29
 70
     1
102
RTVSPropertyOp30
 70
     1
102
RTVSPropertyOp31
 70
     1
102
RTVSPropertyOp32
 70
     1
  0
XRECORD
  5
391
102
{ACAD_REACTORS
330
390
102
}
330
390
100
AcDbXrecord
280
     1
102
RTVSPropertyOp0
 70
     1
102
RTVSPropertyOp1
 70
     1
102
RTVSPropertyOp2
 70
     1
102
RTVSPropertyOp3
 70
     1
102
RTVSPropertyOp4
 70
     1
102
RTVSPropertyOp5
 70
     1
102
RTVSPropertyOp6
 70
     1
102
RTVSPropertyOp7
 70
     1
102
RTVSPropertyOp8
 70
     1
102
RTVSPropertyOp9
 70
     1
102
RTVSPropertyOp10
 70
     1
102
RTVSPropertyOp11
 70
     1
102
RTVSPropertyOp12
 70
     1
102
RTVSPropertyOp13
 70
     1
102
RTVSPropertyOp14
 70
     1
102
RTVSPropertyOp15
 70
     1
102
RTVSPropertyOp16
 70
     1
102
RTVSPropertyOp17
 70
     1
102
RTVSPropertyOp18
 70
     1
102
RTVSPropertyOp19
 70
     1
102
RTVSPropertyOp20
 70
     1
102
RTVSPropertyOp21
 70
     1
102
RTVSPropertyOp22
 70
     1
102
RTVSPropertyOp23
 70
     1
102
RTVSPropertyOp24
 70
     1
102
RTVSPropertyOp25
 70
     1
102
RTVSPropertyOp26
 70
     1
102
RTVSPropertyOp27
 70
     1
102
RTVSPropertyOp28
 70
     1
102
RTVSPropertyOp29
 70
     1
102
RTVSPropertyOp30
 70
     1
102
RTVSPropertyOp31
 70
     1
102
RTVSPropertyOp32
 70
     1
  0
XRECORD
  5
393
102
{ACAD_REACTORS
330
392
102
}
330
392
100
AcDbXrecord
280
     1
102
RTVSPropertyOp0
 70
     1
102
RTVSPropertyOp1
 70
     1
102
RTVSPropertyOp2
 70
     1
102
RTVSPropertyOp3
 70
     1
102
RTVSPropertyOp4
 70
     1
102
RTVSPropertyOp5
 70
     1
102
RTVSPropertyOp6
 70
     1
102
RTVSPropertyOp7
 70
     1
102
RTVSPropertyOp8
 70
     1
102
RTVSPropertyOp9
 70
     1
102
RTVSPropertyOp10
 70
     1
102
RTVSPropertyOp11
 70
     1
102
RTVSPropertyOp12
 70
     1
102
RTVSPropertyOp13
 70
     1
102
RTVSPropertyOp14
 70
     1
102
RTVSPropertyOp15
 70
     1
102
RTVSPropertyOp16
 70
     1
102
RTVSPropertyOp17
 70
     1
102
RTVSPropertyOp18
 70
     1
102
RTVSPropertyOp19
 70
     1
102
RTVSPropertyOp20
 70
     1
102
RTVSPropertyOp21
 70
     1
102
RTVSPropertyOp22
 70
     1
102
RTVSPropertyOp23
 70
     1
102
RTVSPropertyOp24
 70
     1
102
RTVSPropertyOp25
 70
     1
102
RTVSPropertyOp26
 70
     1
102
RTVSPropertyOp27
 70
     1
102
RTVSPropertyOp28
 70
     1
102
RTVSPropertyOp29
 70
     1
102
RTVSPropertyOp30
 70
     1
102
RTVSPropertyOp31
 70
     1
102
RTVSPropertyOp32
 70
     1
  0
XRECORD
  5
395
102
{ACAD_REACTORS
330
394
102
}
330
394
100
AcDbXrecord
280
     1
102
RTVSPropertyOp0
 70
     1
102
RTVSPropertyOp1
 70
     1
102
RTVSPropertyOp2
 70
     1
102
RTVSPropertyOp3
 70
     1
102
RTVSPropertyOp4
 70
     1
102
RTVSPropertyOp5
 70
     1
102
RTVSPropertyOp6
 70
     1
102
RTVSPropertyOp7
 70
     1
102
RTVSPropertyOp8
 70
     1
102
RTVSPropertyOp9
 70
     1
102
RTVSPropertyOp10
 70
     1
102
RTVSPropertyOp11
 70
     1
102
RTVSPropertyOp12
 70
     1
102
RTVSPropertyOp13
 70
     1
102
RTVSPropertyOp14
 70
     1
102
RTVSPropertyOp15
 70
     1
102
RTVSPropertyOp16
 70
     1
102
RTVSPropertyOp17
 70
     1
102
RTVSPropertyOp18
 70
     1
102
RTVSPropertyOp19
 70
     1
102
RTVSPropertyOp20
 70
     1
102
RTVSPropertyOp21
 70
     1
102
RTVSPropertyOp22
 70
     1
102
RTVSPropertyOp23
 70
     1
102
RTVSPropertyOp24
 70
     1
102
RTVSPropertyOp25
 70
     1
102
RTVSPropertyOp26
 70
     1
102
RTVSPropertyOp27
 70
     1
102
RTVSPropertyOp28
 70
     1
102
RTVSPropertyOp29
 70
     1
102
RTVSPropertyOp30
 70
     1
102
RTVSPropertyOp31
 70
     1
102
RTVSPropertyOp32
 70
     1
  0
XRECORD
  5
3A9
102
{ACAD_REACTORS
330
3A8
102
}
330
3A8
100
AcDbXrecord
280
     1
102
RTVSPropertyOp0
 70
     1
102
RTVSPropertyOp1
 70
     1
102
RTVSPropertyOp2
 70
     1
102
RTVSPropertyOp3
 70
     1
102
RTVSPropertyOp4
 70
     1
102
RTVSPropertyOp5
 70
     1
102
RTVSPropertyOp6
 70
     1
102
RTVSPropertyOp7
 70
     1
102
RTVSPropertyOp8
 70
     1
102
RTVSPropertyOp9
 70
     1
102
RTVSPropertyOp10
 70
     1
102
RTVSPropertyOp11
 70
     1
102
RTVSPropertyOp12
 70
     1
102
RTVSPropertyOp13
 70
     1
102
RTVSPropertyOp14
 70
     1
102
RTVSPropertyOp15
 70
     1
102
RTVSPropertyOp16
 70
     1
102
RTVSPropertyOp17
 70
     1
102
RTVSPropertyOp18
 70
     1
102
RTVSPropertyOp19
 70
     1
102
RTVSPropertyOp20
 70
     1
102
RTVSPropertyOp21
 70
     1
102
RTVSPropertyOp22
 70
     1
102
RTVSPropertyOp23
 70
     1
102
RTVSPropertyOp24
 70
     1
102
RTVSPropertyOp25
 70
     1
102
RTVSPropertyOp26
 70
     1
102
RTVSPropertyOp27
 70
     1
102
RTVSPropertyOp28
 70
     1
102
RTVSPropertyOp29
 70
     1
102
RTVSPropertyOp30
 70
     1
102
RTVSPropertyOp31
 70
     1
102
RTVSPropertyOp32
 70
     1
  0
XRECORD
  5
39F
102
{ACAD_REACTORS
330
39E
102
}
330
39E
100
AcDbXrecord
280
     1
102
RTVSPropertyOp0
 70
     1
102
RTVSPropertyOp1
 70
     1
102
RTVSPropertyOp2
 70
     1
102
RTVSPropertyOp3
 70
     1
102
RTVSPropertyOp4
 70
     1
102
RTVSPropertyOp5
 70
     1
102
RTVSPropertyOp6
 70
     1
102
RTVSPropertyOp7
 70
     1
102
RTVSPropertyOp8
 70
     1
102
RTVSPropertyOp9
 70
     1
102
RTVSPropertyOp10
 70
     1
102
RTVSPropertyOp11
 70
     1
102
RTVSPropertyOp12
 70
     1
102
RTVSPropertyOp13
 70
     1
102
RTVSPropertyOp14
 70
     1
102
RTVSPropertyOp15
 70
     1
102
RTVSPropertyOp16
 70
     1
102
RTVSPropertyOp17
 70
     1
102
RTVSPropertyOp18
 70
     1
102
RTVSPropertyOp19
 70
     1
102
RTVSPropertyOp20
 70
     1
102
RTVSPropertyOp21
 70
     1
102
RTVSPropertyOp22
 70
     1
102
RTVSPropertyOp23
 70
     1
102
RTVSPropertyOp24
 70
     1
102
RTVSPropertyOp25
 70
     1
102
RTVSPropertyOp26
 70
     1
102
RTVSPropertyOp27
 70
     1
102
RTVSPropertyOp28
 70
     1
102
RTVSPropertyOp29
 70
     1
102
RTVSPropertyOp30
 70
     1
102
RTVSPropertyOp31
 70
     1
102
RTVSPropertyOp32
 70
     1
  0
XRECORD
  5
3A7
102
{ACAD_REACTORS
330
3A6
102
}
330
3A6
100
AcDbXrecord
280
     1
102
RTVSPropertyOp0
 70
     1
102
RTVSPropertyOp1
 70
     1
102
RTVSPropertyOp2
 70
     1
102
RTVSPropertyOp3
 70
     1
102
RTVSPropertyOp4
 70
     1
102
RTVSPropertyOp5
 70
     1
102
RTVSPropertyOp6
 70
     1
102
RTVSPropertyOp7
 70
     1
102
RTVSPropertyOp8
 70
     1
102
RTVSPropertyOp9
 70
     1
102
RTVSPropertyOp10
 70
     1
102
RTVSPropertyOp11
 70
     1
102
RTVSPropertyOp12
 70
     1
102
RTVSPropertyOp13
 70
     1
102
RTVSPropertyOp14
 70
     1
102
RTVSPropertyOp15
 70
     1
102
RTVSPropertyOp16
 70
     1
102
RTVSPropertyOp17
 70
     1
102
RTVSPropertyOp18
 70
     1
102
RTVSPropertyOp19
 70
     1
102
RTVSPropertyOp20
 70
     1
102
RTVSPropertyOp21
 70
     1
102
RTVSPropertyOp22
 70
     1
102
RTVSPropertyOp23
 70
     1
102
RTVSPropertyOp24
 70
     1
102
RTVSPropertyOp25
 70
     1
102
RTVSPropertyOp26
 70
     1
102
RTVSPropertyOp27
 70
     1
102
RTVSPropertyOp28
 70
     1
102
RTVSPropertyOp29
 70
     1
102
RTVSPropertyOp30
 70
     1
102
RTVSPropertyOp31
 70
     1
102
RTVSPropertyOp32
 70
     1
  0
ENDSEC
  0
EOF
