  0
SECTION
  2
HEADER
  9
$ACADVER
  1
AC1015
  9
$ACADMAINTVER
 70
     6
  9
$DWGCODEPAGE
  3
ANSI_1252
  9
$INSBASE
 10
0.0
 20
0.0
 30
0.0
  9
$EXTMIN
 10
0.0
 20
0.0
 30
0.0
  9
$EXTMAX
 10
210.0
 20
297.0
 30
0.0
  9
$LIMMIN
 10
0.0
 20
0.0
  9
$LIMMAX
 10
0.0
 20
0.0
  9
$ORTHOMODE
 70
     0
  9
$REGENMODE
 70
     1
  9
$FILLMODE
 70
     1
  9
$QTEXTMODE
 70
     0
  9
$MIRRTEXT
 70
     1
  9
$LTSCALE
 40
1.0
  9
$ATTMODE
 70
     1
  9
$TEXTSIZE
 40
0.0
  9
$TRACEWID
 40
0.05
  9
$TEXTSTYLE
  7
STANDARD
  9
$CLAYER
  8
0
  9
$CELTYPE
  6
CONTINUOUS
  9
$CECOLOR
 62
   256
  9
$CELTSCALE
 40
1.0
  9
$DISPSILH
 70
     0
  9
$DIMSCALE
 40
1.0
  9
$DIMASZ
 40
0.0
  9
$DIMEXO
 40
0.0
  9
$DIMDLI
 40
0.38
  9
$DIMRND
 40
0.0
  9
$DIMDLE
 40
0.0
  9
$DIMEXE
 40
0.18
  9
$DIMTP
 40
0.0
  9
$DIMTM
 40
0.0
  9
$DIMTXT
 40
3.5
  9
$DIMCEN
 40
0.09
  9
$DIMTSZ
 40
0.0
  9
$DIMTOL
 70
     0
  9
$DIMLIM
 70
     0
  9
$DIMTIH
 70
     1
  9
$DIMTOH
 70
     1
  9
$DIMSE1
 70
     0
  9
$DIMSE2
 70
     0
  9
$DIMTAD
 70
     1
  9
$DIMZIN
 70
     0
  9
$DIMBLK
  1

  9
$DIMASO
 70
     1
  9
$DIMSHO
 70
     1
  9
$DIMPOST
  1

  9
$DIMAPOST
  1

  9
$DIMALT
 70
     0
  9
$DIMALTD
 70
     2
  9
$DIMALTF
 40
0.0394
  9
$DIMLFAC
 40
1.0
  9
$DIMTOFL
 70
     0
  9
$DIMTVP
 40
0.0
  9
$DIMTIX
 70
     0
  9
$DIMSOXD
 70
     0
  9
$DIMSAH
 70
     0
  9
$DIMBLK1
  1

  9
$DIMBLK2
  1

  9
$DIMSTYLE
  2
STANDARD
  9
$DIMCLRD
 70
     0
  9
$DIMCLRE
 70
     0
  9
$DIMCLRT
 70
     0
  9
$DIMTFAC
 40
1.0
  9
$DIMGAP
 40
0.0
  9
$DIMJUST
 70
     0
  9
$DIMSD1
 70
     0
  9
$DIMSD2
 70
     0
  9
$DIMTOLJ
 70
     1
  9
$DIMTZIN
 70
     0
  9
$DIMALTZ
 70
     0
  9
$DIMALTTZ
 70
     0
  9
$DIMUPT
 70
     0
  9
$DIMDEC
 70
     4
  9
$DIMTDEC
 70
     4
  9
$DIMALTU
 70
     2
  9
$DIMALTTD
 70
     2
  9
$DIMTXSTY
  7
STANDARD
  9
$DIMAUNIT
 70
     0
  9
$DIMADEC
 70
     0
  9
$DIMALTRND
 40
0.0
  9
$DIMAZIN
 70
     0
  9
$DIMDSEP
 70
    46
  9
$DIMATFIT
 70
     3
  9
$DIMFRAC
 70
     0
  9
$DIMLDRBLK
  1

  9
$DIMLUNIT
 70
     2
  9
$DIMLWD
 70
    -2
  9
$DIMLWE
 70
    -2
  9
$DIMTMOVE
 70
     2
  9
$LUNITS
 70
     2
  9
$LUPREC
 70
     2
  9
$SKETCHINC
 40
0.1
  9
$FILLETRAD
 40
0.0
  9
$AUNITS
 70
     0
  9
$AUPREC
 70
     2
  9
$MENU
  1
acad
  9
$ELEVATION
 40
0.0
  9
$PELEVATION
 40
0.0
  9
$THICKNESS
 40
0.0
  9
$LIMCHECK
 70
     0
  9
$CHAMFERA
 40
0.0
  9
$CHAMFERB
 40
0.0
  9
$CHAMFERC
 40
0.0
  9
$CHAMFERD
 40
0.0
  9
$SKPOLY
 70
     0
  9
$TDCREATE
 40
2447893.0
  9
$TDUCREATE
 40
2447892.916666667
  9
$TDUPDATE
 40
2458327.548770752
  9
$TDUUPDATE
 40
2458327.465437419
  9
$TDINDWG
 40
0.0
  9
$TDUSRTIMER
 40
0.0
  9
$USRTIMER
 70
     1
  9
$ANGBASE
 50
0.0
  9
$ANGDIR
 70
     0
  9
$PDMODE
 70
     0
  9
$PDSIZE
 40
-1.0
  9
$PLINEWID
 40
0.0
  9
$SPLFRAME
 70
     0
  9
$SPLINETYPE
 70
     6
  9
$SPLINESEGS
 70
     8
  9
$HANDSEED
  5
3C2
  9
$SURFTAB1
 70
     6
  9
$SURFTAB2
 70
     6
  9
$SURFTYPE
 70
     6
  9
$SURFU
 70
     6
  9
$SURFV
 70
     6
  9
$UCSBASE
  2

  9
$UCSNAME
  2

  9
$UCSORG
 10
0.0
 20
0.0
 30
0.0
  9
$UCSXDIR
 10
1.0
 20
0.0
 30
0.0
  9
$UCSYDIR
 10
0.0
 20
1.0
 30
0.0
  9
$UCSORTHOREF
  2

  9
$UCSORTHOVIEW
 70
     0
  9
$UCSORGTOP
 10
0.0
 20
0.0
 30
0.0
  9
$UCSORGBOTTOM
 10
0.0
 20
0.0
 30
0.0
  9
$UCSORGLEFT
 10
0.0
 20
0.0
 30
0.0
  9
$UCSORGRIGHT
 10
0.0
 20
0.0
 30
0.0
  9
$UCSORGFRONT
 10
0.0
 20
0.0
 30
0.0
  9
$UCSORGBACK
 10
0.0
 20
0.0
 30
0.0
  9
$PUCSBASE
  2

  9
$PUCSNAME
  2

  9
$PUCSORG
 10
0.0
 20
0.0
 30
0.0
  9
$PUCSXDIR
 10
1.0
 20
0.0
 30
0.0
  9
$PUCSYDIR
 10
0.0
 20
1.0
 30
0.0
  9
$PUCSORTHOREF
  2

  9
$PUCSORTHOVIEW
 70
     0
  9
$PUCSORGTOP
 10
0.0
 20
0.0
 30
0.0
  9
$PUCSORGBOTTOM
 10
0.0
 20
0.0
 30
0.0
  9
$PUCSORGLEFT
 10
0.0
 20
0.0
 30
0.0
  9
$PUCSORGRIGHT
 10
0.0
 20
0.0
 30
0.0
  9
$PUCSORGFRONT
 10
0.0
 20
0.0
 30
0.0
  9
$PUCSORGBACK
 10
0.0
 20
0.0
 30
0.0
  9
$USERI1
 70
     0
  9
$USERI2
 70
     0
  9
$USERI3
 70
     0
  9
$USERI4
 70
     0
  9
$USERI5
 70
     0
  9
$USERR1
 40
0.0
  9
$USERR2
 40
0.0
  9
$USERR3
 40
0.0
  9
$USERR4
 40
0.0
  9
$USERR5
 40
0.0
  9
$WORLDVIEW
 70
     1
  9
$SHADEDGE
 70
     3
  9
$SHADEDIF
 70
    70
  9
$TILEMODE
 70
     1
  9
$MAXACTVP
 70
    16
  9
$PINSBASE
 10
0.0
 20
0.0
 30
0.0
  9
$PLIMCHECK
 70
     0
  9
$PEXTMIN
 10
1.000000000000000E+20
 20
1.000000000000000E+20
 30
1.000000000000000E+20
  9
$PEXTMAX
 10
-1.000000000000000E+20
 20
-1.000000000000000E+20
 30
-1.000000000000000E+20
  9
$PLIMMIN
 10
0.0
 20
0.0
  9
$PLIMMAX
 10
12.0
 20
9.0
  9
$UNITMODE
 70
     0
  9
$VISRETAIN
 70
     0
  9
$PLINEGEN
 70
     1
  9
$PSLTSCALE
 70
     1
  9
$TREEDEPTH
 70
  3020
  9
$CMLSTYLE
  2
STANDARD
  9
$CMLJUST
 70
     0
  9
$CMLSCALE
 40
1.0
  9
$PROXYGRAPHICS
 70
     1
  9
$MEASUREMENT
 70
     0
  9
$CELWEIGHT
370
    -1
  9
$ENDCAPS
280
     0
  9
$JOINSTYLE
280
     0
  9
$LWDISPLAY
290
     0
  9
$INSUNITS
 70
     0
  9
$HYPERLINKBASE
  1

  9
$STYLESHEET
  1

  9
$XEDIT
290
     1
  9
$CEPSNTYPE
380
     0
  9
$PSTYLEMODE
290
     1
  9
$FINGERPRINTGUID
  2
{888FADEC-2301-4B72-A169-35C5A3D752BC}
  9
$VERSIONGUID
  2
{FAEB1C32-E019-11D5-929B-00C0DF256EC4}
  9
$EXTNAMES
290
     1
  9
$PSVPSCALE
 40
0.0
  9
$OLESTARTUP
290
     0
  0
ENDSEC
  0
SECTION
  2
CLASSES
  0
CLASS
  1
LWPOLYLINE
  2
AcDbPolyline
  3
ObjectDBX Classes
 90
        0
280
     0
281
     1
  0
CLASS
  1
IMAGE
  2
AcDbRasterImage
  3
ISM
 90
      127
280
     0
281
     1
  0
CLASS
  1
OLE2FRAME
  2
AcDbOle2Frame
  3
ObjectDBX Classes
 90
        0
280
     0
281
     1
  0
CLASS
  1
HATCH
  2
AcDbHatch
  3
ObjectDBX Classes
 90
        0
280
     0
281
     1
  0
CLASS
  1
DICTIONARYVAR
  2
AcDbDictionaryVar
  3
ObjectDBX Classes
 90
        0
280
     0
281
     0
  0
CLASS
  1
RASTERVARIABLES
  2
AcDbRasterVariables
  3
ISM
 90
        0
280
     0
281
     0
  0
CLASS
  1
IMAGEDEF
  2
AcDbRasterImageDef
  3
ISM
 90
        0
280
     0
281
     0
  0
CLASS
  1
IMAGEDEF_REACTOR
  2
AcDbRasterImageDefReactor
  3
ISM
 90
        1
280
     0
281
     0
  0
CLASS
  1
IDBUFFER
  2
AcDbIdBuffer
  3
ObjectDBX Classes
 90
        0
280
     0
281
     0
  0
CLASS
  1
SPATIAL_FILTER
  2
AcDbSpatialFilter
  3
ObjectDBX Classes
 90
        0
280
     0
281
     0
  0
CLASS
  1
XRECORD
  2
AcDbXrecord
  3
ObjectDBX Classes
 90
        0
280
     0
281
     0
  0
CLASS
  1
SORTENTSTABLE
  2
AcDbSortentsTable
  3
ObjectDBX Classes
 90
        0
280
     0
281
     0
  0
CLASS
  1
LAYER_INDEX
  2
AcDbLayerIndex
  3
ObjectDBX Classes
 90
        0
280
     0
281
     0
  0
CLASS
  1
SPATIAL_INDEX
  2
AcDbSpatialIndex
  3
AutoCAD 2000
 90
        0
280
     0
281
     0
  0
CLASS
  1
OBJECT_PTR
  2
CAseDLPNTableRecord
  3
ASE-LPNTableRecord
 90
        1
280
     0
281
     0
  0
CLASS
  1
LAYOUT
  2
AcDbLayout
  3
ObjectDBX Classes
 90
        0
280
     0
281
     0
  0
CLASS
  1
PLOTSETTINGS
  2
AcDbPlotSettings
  3
ObjectDBX Classes
 90
        0
280
     0
281
     0
  0
CLASS
  1
ACDBDICTIONARYWDFLT
  2
AcDbDictionaryWithDefault
  3
ObjectDBX Classes
 90
        0
280
     0
281
     0
  0
CLASS
  1
ACDBPLACEHOLDER
  2
AcDbPlaceHolder
  3
ObjectDBX Classes
 90
        0
280
     0
281
     0
  0
CLASS
  1
VBA_PROJECT
  2
AcDbVbaProject
  3
ObjectDBX Classes
 90
        0
280
     0
281
     0
  0
CLASS
  1
WIPEOUT
  2
AcDbWipeout
  3
WipeOut|AutoCAD Express Tool|expresstools@autodesk.com
 90
      127
280
     0
281
     1
  0
CLASS
  1
WIPEOUTVARIABLES
  2
AcDbWipeoutVariables
  3
WipeOut|AutoCAD Express Tool|expresstools@autodesk.com
 90
        0
280
     0
281
     0
  0
CLASS
  1
RTEXT
  2
RText
  3
RText|AutoCAD Express Tool|expresstools@autodesk.com
 90
        0
280
     0
281
     1
  0
CLASS
  1
ARCALIGNEDTEXT
  2
AcDbArcAlignedText
  3
ATEXT|AutoCAD Express Tool|expresstools@autodesk.com
 90
        0
280
     0
281
     1
  0
CLASS
  1
SCALE
  2
AcDbScale
  3
ObjectDBX Classes
 90
     1153
280
     0
281
     0
  0
CLASS
  1
VISUALSTYLE
  2
AcDbVisualStyle
  3
ObjectDBX Classes
 90
     4095
280
     0
281
     0
  0
CLASS
  1
MATERIAL
  2
AcDbMaterial
  3
ObjectDBX Classes
 90
     1153
280
     0
281
     0
  0
ENDSEC
  0
SECTION
  2
TABLES
  0
TABLE
  2
VPORT
  5
7
102
{ACAD_XDICTIONARY
360
387
102
}
330
0
100
AcDbSymbolTable
 70
     1
  0
VPORT
  5
15
330
7
100
AcDbSymbolTableRecord
100
AcDbViewportTableRecord
  2
*ACTIVE
 70
     0
 10
0.0
 20
0.0
 11
1.0
 21
1.0
 12
105.0
 22
148.5
 13
0.0
 23
0.0
 14
1.0
 24
1.0
 15
0.0
 25
0.0
 16
0.0
 26
0.0
 36
1.0
 17
0.0
 27
0.0
 37
0.0
 40
297.0
 41
1.4142857143
 42
50.0
 43
0.0
 44
0.0
 50
0.0
 51
0.0
 71
     0
 72
  2000
 73
     1
 74
     1
 75
     0
 76
     0
 77
     0
 78
     0
281
     0
 65
     1
110
0.0
120
0.0
130
0.0
111
1.0
121
0.0
131
0.0
112
0.0
122
1.0
132
0.0
 79
     0
146
0.0
  0
ENDTAB
  0
TABLE
  2
LTYPE
  5
4
330
0
100
AcDbSymbolTable
 70
     6
  0
LTYPE
  5
11
330
4
100
AcDbSymbolTableRecord
100
AcDbLinetypeTableRecord
  2
BYBLOCK
 70
     0
  3

 72
    65
 73
     0
 40
0.0
  0
LTYPE
  5
12
330
4
100
AcDbSymbolTableRecord
100
AcDbLinetypeTableRecord
  2
BYLAYER
 70
     0
  3

 72
    65
 73
     0
 40
0.0
  0
LTYPE
  5
13
330
4
100
AcDbSymbolTableRecord
100
AcDbLinetypeTableRecord
  2
CONTINUOUS
 70
     0
  3
Solid line
 72
    65
 73
     0
 40
0.0
  0
LTYPE
  5
1D
330
4
100
AcDbSymbolTableRecord
100
AcDbLinetypeTableRecord
  2
HIDDEN
 70
     0
  3
Hidden __ __ __ __ __ __ __ __ __ __ __ __ __ __
 72
    65
 73
     2
 40
1.905
 49
1.27
 74
     0
 49
-0.635
 74
     0
  0
LTYPE
  5
1E
330
4
100
AcDbSymbolTableRecord
100
AcDbLinetypeTableRecord
  2
PHANTOM
 70
     0
  3
Phantom ______  __  __  ______  __  __  ______
 72
    65
 73
     6
 40
12.7
 49
6.35
 74
     0
 49
-1.27
 74
     0
 49
1.27
 74
     0
 49
-1.27
 74
     0
 49
1.27
 74
     0
 49
-1.27
 74
     0
  0
LTYPE
  5
1F
330
4
100
AcDbSymbolTableRecord
100
AcDbLinetypeTableRecord
  2
CENTER
 70
     0
  3
Center ____ _ ____ _ ____ _ ____ _ ____ _ ____
 72
    65
 73
     4
 40
10.16
 49
6.35
 74
     0
 49
-1.27
 74
     0
 49
1.27
 74
     0
 49
-1.27
 74
     0
  0
LTYPE
  5
20
330
4
100
AcDbSymbolTableRecord
100
AcDbLinetypeTableRecord
  2
CENTERX2
 70
     0
  3
Center (2x) ________  __  ________  __  _____
 72
    65
 73
     4
 40
20.32
 49
12.7
 74
     0
 49
-2.54
 74
     0
 49
2.54
 74
     0
 49
-2.54
 74
     0
  0
LTYPE
  5
21
330
4
100
AcDbSymbolTableRecord
100
AcDbLinetypeTableRecord
  2
DOT2
 70
     0
  3
Dot (.5x) ........................................
 72
    65
 73
     2
 40
0.635
 49
0.0
 74
     0
 49
-0.635
 74
     0
  0
LTYPE
  5
3B1
330
5
100
AcDbSymbolTableRecord
100
AcDbLinetypeTableRecord
  2
DASH
 70
     0
  3
DASH _ _ _ _ _
 72
    65
 73
     2
 40
0.75
 49
0.40
 74
     0
 49
-0.35
 74
     0
  0
LTYPE
  5
3B2
330
5
100
AcDbSymbolTableRecord
100
AcDbLinetypeTableRecord
  2
LONGDASH_DASH
 70
     0
  3
LONGDASH_DASH __ . __ . __
 72
    65
 73
     4
 40
0.85
 49
0.40
 74
     0
 49
-0.20
 74
     0
 49
0.05
 74
     0
 49
-0.20
 74
     0
  0
LTYPE
  5
3B3
330
5
100
AcDbSymbolTableRecord
100
AcDbLinetypeTableRecord
  2
LONGDASH_DASH_DASH
 70
     0
  3
LONGDASH_DASH_DASH __ . . __ . . __
 72
    65
 73
     6
 40
1.10
 49
0.40
 74
     0
 49
-0.20
 74
     0
 49
0.05
 74
     0
 49
-0.20
 74
     0
 49
0.05
 74
     0
 49
-0.20
 74
     0
  0
ENDTAB
  0
TABLE
  2
LAYER
  5
2
330
0
100
AcDbSymbolTable
 70
     8
  0
LAYER
  5
23
330
2
100
AcDbSymbolTableRecord
100
AcDbLayerTableRecord
  2
DEFPOINTS
 70
     0
 62
     7
  6
CONTINUOUS
290
     0
370
    -3
390
0
  0
LAYER
  5
3B4
330
2
100
AcDbSymbolTableRecord
100
AcDbLayerTableRecord
  2
0
 70
     0
 62
     -1
  6
CONTINUOUS
370
    -3
390
F
  0
LAYER
  5
3B5
330
2
100
AcDbSymbolTableRecord
100
AcDbLayerTableRecord
  2
1
 70
     0
 62
     4
  6
CONTINUOUS
370
    50
390
F
  0
LAYER
  5
3B6
330
2
100
AcDbSymbolTableRecord
100
AcDbLayerTableRecord
  2
2
 70
     0
 62
     7
  6
CONTINUOUS
370
    25
390
F
  0
LAYER
  5
3B7
330
2
100
AcDbSymbolTableRecord
100
AcDbLayerTableRecord
  2
3
 70
     0
 62
     1
  6
DASH
370
    35
390
F
  0
LAYER
  5
3B8
330
2
100
AcDbSymbolTableRecord
100
AcDbLayerTableRecord
  2
4
 70
     0
 62
     2
  6
LONGDASH_DASH
370
    25
390
F
  0
LAYER
  5
3B9
330
2
100
AcDbSymbolTableRecord
100
AcDbLayerTableRecord
  2
6
 70
     0
 62
     5
  6
CONTINUOUS
370
    -3
390
F
  0
LAYER
  5
3BA
330
2
100
AcDbSymbolTableRecord
100
AcDbLayerTableRecord
  2
CUT
 70
     0
 62
     1
  6
CONTINUOUS
370
    25
390
F
  0
LAYER
  5
3BB
330
2
100
AcDbSymbolTableRecord
100
AcDbLayerTableRecord
  2
NOCUT
 70
     0
 62
     7
  6
CONTINUOUS
370
    25
390
F
  0
LAYER
  5
3BC
330
2
100
AcDbSymbolTableRecord
100
AcDbLayerTableRecord
  2
SK1
 70
     0
 62
     4
  6
CONTINUOUS
370
    50
390
F
  0
LAYER
  5
3BD
330
2
100
AcDbSymbolTableRecord
100
AcDbLayerTableRecord
  2
SK2
 70
     0
 62
     7
  6
CONTINUOUS
370
    25
390
F
  0
LAYER
  5
3BE
330
2
100
AcDbSymbolTableRecord
100
AcDbLayerTableRecord
  2
SK3
 70
     0
 62
     1
  6
DASH
370
    35
390
F
  0
LAYER
  5
3BF
330
2
100
AcDbSymbolTableRecord
100
AcDbLayerTableRecord
  2
SK4
 70
     0
 62
     2
  6
LONGDASH_DASH
370
    25
390
F
  0
LAYER
  5
3C0
330
2
100
AcDbSymbolTableRecord
100
AcDbLayerTableRecord
  2
SK6
 70
     0
 62
     5
  6
CONTINUOUS
370
    -3
390
F
  0
LAYER
  5
3C1
330
2
100
AcDbSymbolTableRecord
100
AcDbLayerTableRecord
  2
INFTOTAL
 70
     0
 62
     9
  6
CONTINUOUS
370
    18
390
F
  0
ENDTAB
  0
TABLE
  2
STYLE
  5
3
330
0
100
AcDbSymbolTable
 70
     2
  0
STYLE
  5
17
330
3
100
AcDbSymbolTableRecord
100
AcDbTextStyleTableRecord
  2
STANDARD
 70
     0
 40
0.0
 41
1.0
 50
0.0
 71
     0
 42
0.2
  3
txt
  4

  0
STYLE
  5
37F
330
3
100
AcDbSymbolTableRecord
100
AcDbTextStyleTableRecord
  2
BMG_Text
 70
     0
 40
3.5
 41
1.0
 50
0.0
 71
     0
 42
0.0
  3
monos.ttf
  4

1001
ACAD
1000
Monospac821 BT
1071
       49
  0
ENDTAB
  0
TABLE
  2
VIEW
  5
5
330
0
100
AcDbSymbolTable
 70
     0
  0
ENDTAB
  0
TABLE
  2
UCS
  5
6
330
0
100
AcDbSymbolTable
 70
     0
  0
ENDTAB
  0
TABLE
  2
APPID
  5
8
330
0
100
AcDbSymbolTable
 70
     1
  0
APPID
  5
16
330
8
100
AcDbSymbolTableRecord
100
AcDbRegAppTableRecord
  2
ACAD
 70
     0
  0
ENDTAB
  0
TABLE
  2
DIMSTYLE
  5
9
330
0
100
AcDbSymbolTable
 70
     1
100
AcDbDimStyleTable
  0
DIMSTYLE
105
18
330
9
100
AcDbSymbolTableRecord
100
AcDbDimStyleTableRecord
  2
STANDARD
 70
     0
178
     0
340
17
  0
ENDTAB
  0
TABLE
  2
BLOCK_RECORD
  5
1
330
0
100
AcDbSymbolTable
 70
     0
  0
BLOCK_RECORD
  5
A
330
1
100
AcDbSymbolTableRecord
100
AcDbBlockTableRecord
  2
*MODEL_SPACE
340
368
  0
BLOCK_RECORD
  5
B
330
1
100
AcDbSymbolTableRecord
100
AcDbBlockTableRecord
  2
*PAPER_SPACE
340
369
  0
ENDTAB
  0
ENDSEC
  0
SECTION
  2
BLOCKS
  0
BLOCK
  5
D
330
A
100
AcDbEntity
  8
0
100
AcDbBlockBegin
  2
*MODEL_SPACE
 70
     0
 10
0.0
 20
0.0
 30
0.0
  3
*MODEL_SPACE
  1

  0
ENDBLK
  5
E
330
A
100
AcDbEntity
  8
0
100
AcDbBlockEnd
  0
BLOCK
  5
F
330
B
100
AcDbEntity
 67
     1
  8
0
100
AcDbBlockBegin
  2
*PAPER_SPACE
 70
     0
 10
0.0
 20
0.0
 30
0.0
  3
*PAPER_SPACE
  1

  0
ENDBLK
  5
10
330
B
100
AcDbEntity
 67
     1
  8
0
100
AcDbBlockEnd
  0
ENDSEC
  0
SECTION
  2
ENTITIES
  0
ARC
  5
29
330
A
100
AcDbEntity
  8
1
  6
CONTINUOUS
370
    50
100
AcDbCircle
 10
121.744755553
 20
125.3955176614
 30
0.0
 40
5.0
100
AcDbArc
 50
90.0
 51
109.9622823937
  0
ARC
  5
2A
330
A
100
AcDbEntity
  8
1
  6
CONTINUOUS
370
    50
100
AcDbCircle
 10
121.744755553
 20
205.3955176614
 30
0.0
 40
5.0
100
AcDbArc
 50
210.0222222201
 51
270.0
  0
ARC
  5
2B
330
A
100
AcDbEntity
  8
1
  6
CONTINUOUS
370
    50
100
AcDbCircle
 10
184.8909079757
 20
133.3955176614
 30
0.0
 40
3.0
100
AcDbArc
 50
270.0
 51
300.0
  0
ARC
  5
2C
330
A
100
AcDbEntity
  8
1
  6
CONTINUOUS
370
    50
100
AcDbCircle
 10
184.8909079757
 20
197.3955176614
 30
0.0
 40
3.0
100
AcDbArc
 50
60.0
 51
90.0
  0
ARC
  5
2D
330
A
100
AcDbEntity
  8
1
  6
CONTINUOUS
370
    50
100
AcDbCircle
 10
98.994755553
 20
130.2705176614
 30
0.0
 40
0.5
100
AcDbArc
 50
66.4218215218
 51
90.0
  0
ARC
  5
2E
330
A
100
AcDbEntity
  8
1
  6
CONTINUOUS
370
    50
100
AcDbCircle
 10
98.994755553
 20
200.5205176614
 30
0.0
 40
0.5
100
AcDbArc
 50
270.0
 51
293.5781784782001
  0
LINE
  5
2F
330
A
100
AcDbEntity
  8
1
  6
CONTINUOUS
370
    50
100
AcDbLine
 10
121.744755553
 20
130.3955176614
 30
0.0
 11
184.8909079757
 21
130.3955176614
 31
0.0
  0
LINE
  5
30
330
A
100
AcDbEntity
  8
1
  6
CONTINUOUS
370
    50
100
AcDbLine
 10
184.8909079757
 20
200.3955176614
 30
0.0
 11
121.744755553
 21
200.3955176614
 31
0.0
  0
LINE
  5
31
330
A
100
AcDbEntity
  8
1
  6
CONTINUOUS
370
    50
100
AcDbLine
 10
97.694755553
 20
200.3205322448
 30
0.0
 11
-1.9799379584
 21
185.7845021907
 31
0.0
  0
LINE
  5
32
330
A
100
AcDbEntity
  8
1
  6
CONTINUOUS
370
    50
100
AcDbLine
 10
-1.9799379584
 20
145.0065331321
 30
0.0
 11
97.694755553
 21
130.4705030779
 31
0.0
  0
LINE
  5
33
330
A
100
AcDbEntity
  8
1
  6
CONTINUOUS
370
    50
100
AcDbLine
 10
97.694755553
 20
130.4705030779
 30
0.0
 11
97.8483089436
 21
130.624071052
 31
0.0
  0
LINE
  5
34
330
A
100
AcDbEntity
  8
1
  6
CONTINUOUS
370
    50
100
AcDbLine
 10
97.8483089436
 20
200.1669642708
 30
0.0
 11
97.694755553
 21
200.3205322448
 31
0.0
  0
ARC
  5
35
330
A
100
AcDbEntity
  8
1
  6
CONTINUOUS
370
    50
100
AcDbCircle
 10
98.2018623341
 20
130.2705176614
 30
0.0
 40
0.5
100
AcDbArc
 50
90.0
 51
135.0
  0
ARC
  5
36
330
A
100
AcDbEntity
  8
1
  6
CONTINUOUS
370
    50
100
AcDbCircle
 10
98.2018623341
 20
200.5205176614
 30
0.0
 40
0.5
100
AcDbArc
 50
225.0
 51
270.0
  0
LINE
  5
37
330
A
100
AcDbEntity
  8
1
  6
CONTINUOUS
370
    50
100
AcDbLine
 10
98.2018623341
 20
130.7705176614
 30
0.0
 11
98.994755553
 21
130.7705176614
 31
0.0
  0
LINE
  5
38
330
A
100
AcDbEntity
  8
1
  6
CONTINUOUS
370
    50
100
AcDbLine
 10
98.994755553
 20
200.0205176614
 30
0.0
 11
98.2018623341
 21
200.0205176614
 31
0.0
  0
LINE
  5
39
330
A
100
AcDbEntity
  8
1
  6
CONTINUOUS
370
    50
100
AcDbLine
 10
186.3909079757
 20
130.79744145
 30
0.0
 11
196.194755553
 21
136.4576954879
 31
0.0
  0
LINE
  5
3A
330
A
100
AcDbEntity
  8
1
  6
CONTINUOUS
370
    50
100
AcDbLine
 10
196.194755553
 20
194.3333398349
 30
0.0
 11
186.3909079757
 21
199.9935938727
 31
0.0
  0
ARC
  5
3B
330
A
100
AcDbEntity
  8
1
  6
CONTINUOUS
370
    50
100
AcDbCircle
 10
194.694755553
 20
139.0557716992
 30
0.0
 40
3.0
100
AcDbArc
 50
300.0
 51
0.0
  0
ARC
  5
3C
330
A
100
AcDbEntity
  8
1
  6
CONTINUOUS
370
    50
100
AcDbCircle
 10
194.694755553
 20
191.7352636235
 30
0.0
 40
3.0
100
AcDbArc
 50
0.0
 51
60.0
  0
ARC
  5
3D
330
A
100
AcDbEntity
  8
1
  6
CONTINUOUS
370
    50
100
AcDbCircle
 10
-1.655244447
 20
183.5580534211
 30
0.0
 40
2.25
100
AcDbArc
 50
98.2972222222
 51
180.0
  0
ARC
  5
3E
330
A
100
AcDbEntity
  8
1
  6
CONTINUOUS
370
    50
100
AcDbCircle
 10
-1.655244447
 20
147.2329819017
 30
0.0
 40
2.25
100
AcDbArc
 50
180.0
 51
261.7027777778
  0
LINE
  5
3F
330
A
100
AcDbEntity
  8
1
  6
CONTINUOUS
370
    50
100
AcDbLine
 10
110.719755553
 20
195.2455176614
 30
0.0
 11
110.719755553
 21
120.7487421827
 31
0.0
  0
LINE
  5
40
330
A
100
AcDbEntity
  8
1
  6
CONTINUOUS
370
    50
100
AcDbLine
 10
112.0279170604
 20
195.2455176614
 30
0.0
 11
110.719755553
 21
195.2455176614
 31
0.0
  0
LINE
  5
41
330
A
100
AcDbEntity
  8
1
  6
CONTINUOUS
370
    50
100
AcDbLine
 10
112.0279170604
 20
195.2455176614
 30
0.0
 11
112.0279170604
 21
118.5819508671
 31
0.0
  0
LINE
  5
42
330
A
100
AcDbEntity
  8
1
  6
CONTINUOUS
370
    50
100
AcDbLine
 10
111.5548456329
 20
119.2454844167
 30
0.0
 11
112.0279170604
 21
118.5819508671
 31
0.0
  0
LWPOLYLINE
  5
43
330
A
100
AcDbEntity
  8
1
  6
CONTINUOUS
370
    50
100
AcDbPolyline
 90
        3
 70
   128
 43
0.0
 10
110.719755553
 20
120.7487421827
 10
111.4238370307
 20
119.4810734108
 10
111.5548456329
 20
119.2454844167
  0
LINE
  5
48
330
A
100
AcDbEntity
  8
1
  6
CONTINUOUS
370
    50
100
AcDbLine
 10
106.869755553
 20
195.2455176614
 30
0.0
 11
105.5615940455
 21
195.2455176614
 31
0.0
  0
LINE
  5
49
330
A
100
AcDbEntity
  8
1
  6
CONTINUOUS
370
    50
100
AcDbLine
 10
106.869755553
 20
120.7487421827
 30
0.0
 11
106.869755553
 21
195.2455176614
 31
0.0
  0
LWPOLYLINE
  5
4A
330
A
100
AcDbEntity
  8
1
  6
CONTINUOUS
370
    50
100
AcDbPolyline
 90
        3
 70
   128
 43
0.0
 10
106.034665473
 20
119.2454844167
 10
106.2158256238
 20
119.5712826709
 10
106.869755553
 20
120.7487421827
  0
LINE
  5
4F
330
A
100
AcDbEntity
  8
1
  6
CONTINUOUS
370
    50
100
AcDbLine
 10
105.5615940455
 20
118.5819508671
 30
0.0
 11
106.034665473
 21
119.2454844167
 31
0.0
  0
LINE
  5
50
330
A
100
AcDbEntity
  8
1
  6
CONTINUOUS
370
    50
100
AcDbLine
 10
105.5615940455
 20
118.5819508671
 30
0.0
 11
105.5615940455
 21
195.2455176614
 31
0.0
  0
LINE
  5
51
330
A
100
AcDbEntity
  8
1
  6
CONTINUOUS
370
    50
100
AcDbLine
 10
100.7312220033
 20
118.5819508671
 30
0.0
 11
105.5615940455
 21
118.5819508671
 31
0.0
  0
LINE
  5
52
330
A
100
AcDbEntity
  8
1
  6
CONTINUOUS
370
    50
100
AcDbLine
 10
99.694755553
 20
118.8936561395
 30
0.0
 11
100.7312220033
 21
118.5819508671
 31
0.0
  0
LINE
  5
53
330
A
100
AcDbEntity
  8
1
  6
CONTINUOUS
370
    50
100
AcDbLine
 10
99.694755553
 20
195.2455176614
 30
0.0
 11
99.694755553
 21
118.8936561395
 31
0.0
  0
LINE
  5
54
330
A
100
AcDbEntity
  8
1
  6
CONTINUOUS
370
    50
100
AcDbLine
 10
105.5615940455
 20
195.2455176614
 30
0.0
 11
99.694755553
 21
195.2455176614
 31
0.0
  0
LINE
  5
55
330
A
100
AcDbEntity
  8
1
  6
CONTINUOUS
370
    50
100
AcDbLine
 10
116.244755553
 20
195.2455176614
 30
0.0
 11
112.0279170604
 21
195.2455176614
 31
0.0
  0
LINE
  5
56
330
A
100
AcDbEntity
  8
1
  6
CONTINUOUS
370
    50
100
AcDbLine
 10
116.244755553
 20
118.5819508671
 30
0.0
 11
116.244755553
 21
195.2455176614
 31
0.0
  0
LINE
  5
57
330
A
100
AcDbEntity
  8
1
  6
CONTINUOUS
370
    50
100
AcDbLine
 10
112.0279170604
 20
118.5819508671
 30
0.0
 11
116.244755553
 21
118.5819508671
 31
0.0
  0
LINE
  5
58
330
A
100
AcDbEntity
  8
1
  6
CONTINUOUS
370
    50
100
AcDbLine
 10
99.694755553
 20
118.8936561395
 30
0.0
 11
99.194755553
 21
119.5790563729
 31
0.0
  0
LINE
  5
59
330
A
100
AcDbEntity
  8
1
  6
CONTINUOUS
370
    50
100
AcDbLine
 10
99.194755553
 20
119.5790563729
 30
0.0
 11
99.194755553
 21
195.2455176614
 31
0.0
  0
LINE
  5
5A
330
A
100
AcDbEntity
  8
1
  6
CONTINUOUS
370
    50
100
AcDbLine
 10
99.194755553
 20
195.2455176614
 30
0.0
 11
99.694755553
 21
195.2455176614
 31
0.0
  0
LINE
  5
5B
330
A
100
AcDbEntity
  8
1
  6
CONTINUOUS
370
    50
100
AcDbLine
 10
116.244755553
 20
195.2455176614
 30
0.0
 11
116.744755553
 21
195.2455176614
 31
0.0
  0
LINE
  5
5C
330
A
100
AcDbEntity
  8
1
  6
CONTINUOUS
370
    50
100
AcDbLine
 10
116.744755553
 20
195.2455176614
 30
0.0
 11
116.744755553
 21
118.9864308423
 31
0.0
  0
LINE
  5
5D
330
A
100
AcDbEntity
  8
1
  6
CONTINUOUS
370
    50
100
AcDbLine
 10
116.744755553
 20
118.9864308423
 30
0.0
 11
116.244755553
 21
118.5819508671
 31
0.0
  0
ARC
  5
5E
330
A
100
AcDbEntity
  8
1
  6
CONTINUOUS
370
    50
100
AcDbCircle
 10
110.209862627
 20
121.2378345807
 30
0.0
 40
0.5100127724
100
AcDbArc
 50
358.757866421
 51
88.88854067030002
  0
LINE
  5
5F
330
A
100
AcDbEntity
  8
1
  6
CONTINUOUS
370
    50
100
AcDbLine
 10
110.219755553
 20
195.2455176614
 30
0.0
 11
110.219755553
 21
121.7477513955
 31
0.0
  0
LINE
  5
60
330
A
100
AcDbEntity
  8
1
  6
CONTINUOUS
370
    50
100
AcDbLine
 10
110.219755553
 20
195.2455176614
 30
0.0
 11
110.719755553
 21
195.2455176614
 31
0.0
  0
ARC
  5
61
330
A
100
AcDbEntity
  8
1
  6
CONTINUOUS
370
    50
100
AcDbCircle
 10
107.3812370703
 20
121.2363099408
 30
0.0
 40
0.5115703146
100
AcDbArc
 50
91.2860357731
 51
181.0675571368
  0
LINE
  5
62
330
A
100
AcDbEntity
  8
1
  6
CONTINUOUS
370
    50
100
AcDbLine
 10
106.869755553
 20
195.2455176614
 30
0.0
 11
107.369755553
 21
195.2455176614
 31
0.0
  0
LINE
  5
63
330
A
100
AcDbEntity
  8
1
  6
CONTINUOUS
370
    50
100
AcDbLine
 10
107.369755553
 20
195.2455176614
 30
0.0
 11
107.369755553
 21
121.7477513955
 31
0.0
  0
LINE
  5
64
330
A
100
AcDbEntity
  8
1
  6
CONTINUOUS
370
    50
100
AcDbLine
 10
110.219755553
 20
121.7477513955
 30
0.0
 11
107.369755553
 21
121.7477513955
 31
0.0
  0
LINE
  5
65
330
A
100
AcDbEntity
  8
1
  6
CONTINUOUS
370
    50
100
AcDbLine
 10
107.369755553
 20
195.2455176614
 30
0.0
 11
110.219755553
 21
195.2455176614
 31
0.0
  0
LINE
  5
66
330
A
100
AcDbEntity
  8
1
  6
CONTINUOUS
370
    50
100
AcDbLine
 10
116.7804274197
 20
202.8955176614
 30
0.0
 11
116.744755553
 21
203.3682302186
 31
0.0
  0
LINE
  5
67
330
A
100
AcDbEntity
  8
1
  6
CONTINUOUS
370
    50
100
AcDbLine
 10
116.7804274197
 20
202.8955176614
 30
0.0
 11
117.414628534
 21
202.8955176614
 31
0.0
  0
LINE
  5
68
330
A
100
AcDbEntity
  8
1
  6
CONTINUOUS
370
    50
100
AcDbLine
 10
117.5280631172
 20
130.0955176614
 30
0.0
 11
120.038883342
 21
130.0955176614
 31
0.0
  0
LINE
  5
69
330
A
100
AcDbEntity
  8
1
  6
CONTINUOUS
370
    50
100
AcDbLine
 10
117.0529472179
 20
129.3455176614
 30
0.0
 11
117.5280631172
 21
130.0955176614
 31
0.0
  0
LINE
  5
6A
330
A
100
AcDbEntity
  8
1
  6
CONTINUOUS
370
    50
100
AcDbLine
 10
117.044755553
 20
129.3217360032
 30
0.0
 11
117.0529472179
 21
129.3455176614
 31
0.0
  0
LWPOLYLINE
  5
6B
330
A
100
AcDbEntity
  8
1
  6
CONTINUOUS
370
    50
100
AcDbPolyline
 90
        3
 70
   128
 43
0.0
 10
116.744755553
 20
127.5157407349
 10
116.7549157826
 20
127.8523176832
 10
117.044755553
 20
129.3217360032
  0
ARC
  5
70
330
A
100
AcDbEntity
  8
1
  6
CONTINUOUS
370
    50
100
AcDbCircle
 10
174.1947555529
 20
165.3955176614
 30
0.0
 40
11.0
100
AcDbArc
 50
346.5018587045
 51
13.4981412955
  0
CIRCLE
  5
71
330
A
100
AcDbEntity
  8
1
  6
CONTINUOUS
370
    50
100
AcDbCircle
 10
146.194755553
 20
165.3955176614
 30
0.0
 40
11.0
  0
ARC
  5
72
330
A
100
AcDbEntity
  8
1
  6
CONTINUOUS
370
    50
100
AcDbCircle
 10
174.194755553
 20
165.3955176614
 30
0.0
 40
11.0
100
AcDbArc
 50
13.4981412955
 51
346.5018587045
  0
LINE
  5
73
330
A
100
AcDbEntity
  8
1
  6
CONTINUOUS
370
    50
100
AcDbLine
 10
97.694755553
 20
200.3205322448
 30
0.0
 11
97.694755553
 21
130.4705030779
 31
0.0
  0
CIRCLE
  5
74
330
A
100
AcDbEntity
  8
1
  6
CONTINUOUS
370
    50
100
AcDbCircle
 10
174.194755553
 20
165.3955176614
 30
0.0
 40
9.0
  0
CIRCLE
  5
75
330
A
100
AcDbEntity
  8
1
  6
CONTINUOUS
370
    50
100
AcDbCircle
 10
146.194755553
 20
165.3955176614
 30
0.0
 40
9.0
  0
LINE
  5
76
330
A
100
AcDbEntity
  8
1
  6
CONTINUOUS
370
    50
100
AcDbLine
 10
99.694755553
 20
203.906595613
 30
0.0
 11
99.194755553
 21
203.2720027808
 31
0.0
  0
LINE
  5
77
330
A
100
AcDbEntity
  8
1
  6
CONTINUOUS
370
    50
100
AcDbLine
 10
99.694755553
 20
203.906595613
 30
0.0
 11
105.5615940455
 21
203.906595613
 31
0.0
  0
LINE
  5
78
330
A
100
AcDbEntity
  8
1
  6
CONTINUOUS
370
    50
100
AcDbLine
 10
105.5615940455
 20
203.906595613
 30
0.0
 11
106.869755553
 21
200.996564846
 31
0.0
  0
LINE
  5
79
330
A
100
AcDbEntity
  8
1
  6
CONTINUOUS
370
    50
100
AcDbLine
 10
106.869755553
 20
200.3951962313
 30
0.0
 11
106.869755553
 21
200.996564846
 31
0.0
  0
ARC
  5
7A
330
A
100
AcDbEntity
  8
1
  6
CONTINUOUS
370
    50
100
AcDbCircle
 10
107.4665010983
 20
200.3280650128
 30
0.0
 40
0.6005096556
100
AcDbArc
 50
173.581465032
 51
260.7289175416001
  0
LINE
  5
7B
330
A
100
AcDbEntity
  8
1
  6
CONTINUOUS
370
    50
100
AcDbLine
 10
110.219755553
 20
199.7353997229
 30
0.0
 11
107.369755553
 21
199.7353997229
 31
0.0
  0
ARC
  5
7C
330
A
100
AcDbEntity
  8
1
  6
CONTINUOUS
370
    50
100
AcDbCircle
 10
110.1546816304
 20
200.3040639592
 30
0.0
 40
0.5723754266
100
AcDbArc
 50
276.5281284846
 51
9.161488941200002
  0
LINE
  5
7D
330
A
100
AcDbEntity
  8
1
  6
CONTINUOUS
370
    50
100
AcDbLine
 10
110.719755553
 20
200.996564846
 30
0.0
 11
110.719755553
 21
200.3951962313
 31
0.0
  0
LWPOLYLINE
  5
7E
330
A
100
AcDbEntity
  8
1
  6
CONTINUOUS
370
    50
100
AcDbPolyline
 90
        3
 70
   128
 43
0.0
 10
110.719755553
 20
200.996564846
 10
110.8080551033
 20
201.195920259
 10
112.0279170604
 20
203.906595613
  0
LINE
  5
83
330
A
100
AcDbEntity
  8
1
  6
CONTINUOUS
370
    50
100
AcDbLine
 10
112.0279170604
 20
203.906595613
 30
0.0
 11
116.244755553
 21
203.906595613
 31
0.0
  0
LINE
  5
84
330
A
100
AcDbEntity
  8
1
  6
CONTINUOUS
370
    50
100
AcDbLine
 10
116.744755553
 20
203.2720027808
 30
0.0
 11
116.244755553
 21
203.906595613
 31
0.0
  0
LINE
  5
85
330
A
100
AcDbEntity
  8
1
  6
CONTINUOUS
370
    50
100
AcDbLine
 10
116.744755553
 20
203.2720027808
 30
0.0
 11
116.744755553
 21
195.2455176614
 31
0.0
  0
LINE
  5
86
330
A
100
AcDbEntity
  8
1
  6
CONTINUOUS
370
    50
100
AcDbLine
 10
99.194755553
 20
203.2720027808
 30
0.0
 11
99.194755553
 21
195.2455176614
 31
0.0
  0
LINE
  5
87
330
A
100
AcDbEntity
  8
1
  6
CONTINUOUS
370
    50
100
AcDbLine
 10
107.369755553
 20
209.0432839272
 30
0.0
 11
107.369755553
 21
199.7353997229
 31
0.0
  0
ARC
  5
88
330
A
100
AcDbEntity
  8
1
  6
CONTINUOUS
370
    50
100
AcDbCircle
 10
107.3789927262
 20
209.5525713879
 30
0.0
 40
0.5093712232
100
AcDbArc
 50
178.6854921834
 51
268.9609148856
  0
LINE
  5
89
330
A
100
AcDbEntity
  8
1
  6
CONTINUOUS
370
    50
100
AcDbLine
 10
110.219755553
 20
209.0432839272
 30
0.0
 11
110.219755553
 21
199.7353997229
 31
0.0
  0
LINE
  5
8A
330
A
100
AcDbEntity
  8
1
  6
CONTINUOUS
370
    50
100
AcDbLine
 10
110.219755553
 20
209.0432839272
 30
0.0
 11
107.369755553
 21
209.0432839272
 31
0.0
  0
ARC
  5
8B
330
A
100
AcDbEntity
  8
1
  6
CONTINUOUS
370
    50
100
AcDbCircle
 10
110.2121963413
 20
209.5509609757
 30
0.0
 40
0.5077333229
100
AcDbArc
 50
270.8530598831
 51
1.5005330428
  0
LINE
  5
8C
330
A
100
AcDbEntity
  8
1
  6
CONTINUOUS
370
    50
100
AcDbLine
 10
105.5615940455
 20
203.906595613
 30
0.0
 11
105.5615940455
 21
212.1662766978
 31
0.0
  0
LINE
  5
8D
330
A
100
AcDbEntity
  8
1
  6
CONTINUOUS
370
    50
100
AcDbLine
 10
105.9467765538
 20
211.703550455
 30
0.0
 11
105.5615940455
 21
212.1662766978
 31
0.0
  0
LINE
  5
8E
330
A
100
AcDbEntity
  8
1
  6
CONTINUOUS
370
    50
100
AcDbLine
 10
105.9467765538
 20
211.703550455
 30
0.0
 11
106.869755553
 21
210.0422931401
 31
0.0
  0
LINE
  5
8F
330
A
100
AcDbEntity
  8
1
  6
CONTINUOUS
370
    50
100
AcDbLine
 10
106.869755553
 20
200.996564846
 30
0.0
 11
106.869755553
 21
210.0422931401
 31
0.0
  0
LINE
  5
90
330
A
100
AcDbEntity
  8
1
  6
CONTINUOUS
370
    50
100
AcDbLine
 10
110.719755553
 20
210.0422931401
 30
0.0
 11
111.6427345522
 21
211.703550455
 31
0.0
  0
LINE
  5
91
330
A
100
AcDbEntity
  8
1
  6
CONTINUOUS
370
    50
100
AcDbLine
 10
112.0279170604
 20
212.1662766978
 30
0.0
 11
111.6427345522
 21
211.703550455
 31
0.0
  0
LINE
  5
92
330
A
100
AcDbEntity
  8
1
  6
CONTINUOUS
370
    50
100
AcDbLine
 10
112.0279170604
 20
212.1662766978
 30
0.0
 11
112.0279170604
 21
203.906595613
 31
0.0
  0
LINE
  5
93
330
A
100
AcDbEntity
  8
1
  6
CONTINUOUS
370
    50
100
AcDbLine
 10
110.719755553
 20
210.0422931401
 30
0.0
 11
110.719755553
 21
200.996564846
 31
0.0
  0
LINE
  5
94
330
A
100
AcDbEntity
  8
1
  6
CONTINUOUS
370
    50
100
AcDbLine
 10
116.244755553
 20
203.906595613
 30
0.0
 11
116.244755553
 21
212.1662766978
 31
0.0
  0
LINE
  5
95
330
A
100
AcDbEntity
  8
1
  6
CONTINUOUS
370
    50
100
AcDbLine
 10
116.244755553
 20
212.1662766978
 30
0.0
 11
116.744755553
 21
211.8200644254
 31
0.0
  0
LINE
  5
96
330
A
100
AcDbEntity
  8
1
  6
CONTINUOUS
370
    50
100
AcDbLine
 10
116.744755553
 20
211.8200644254
 30
0.0
 11
116.744755553
 21
203.2720027808
 31
0.0
  0
LINE
  5
97
330
A
100
AcDbEntity
  8
1
  6
CONTINUOUS
370
    50
100
AcDbLine
 10
99.694755553
 20
211.8973791832
 30
0.0
 11
99.694755553
 21
203.906595613
 31
0.0
  0
LINE
  5
98
330
A
100
AcDbEntity
  8
1
  6
CONTINUOUS
370
    50
100
AcDbLine
 10
99.194755553
 20
211.2119789499
 30
0.0
 11
99.694755553
 21
211.8973791832
 31
0.0
  0
LINE
  5
99
330
A
100
AcDbEntity
  8
1
  6
CONTINUOUS
370
    50
100
AcDbLine
 10
99.194755553
 20
203.2720027808
 30
0.0
 11
99.194755553
 21
211.2119789499
 31
0.0
  0
LINE
  5
9A
330
A
100
AcDbEntity
  8
1
  6
CONTINUOUS
370
    50
100
AcDbLine
 10
116.244755553
 20
212.1662766978
 30
0.0
 11
112.0279170604
 21
212.1662766978
 31
0.0
  0
LINE
  5
9B
330
A
100
AcDbEntity
  8
1
  6
CONTINUOUS
370
    50
100
AcDbLine
 10
105.5615940455
 20
212.1662766978
 30
0.0
 11
100.5837993581
 21
212.1662766978
 31
0.0
  0
LINE
  5
9C
330
A
100
AcDbEntity
  8
1
  6
CONTINUOUS
370
    50
100
AcDbLine
 10
99.694755553
 20
211.8973791832
 30
0.0
 11
100.5837993581
 21
212.1662766978
 31
0.0
  0
LINE
  5
9D
330
A
100
AcDbEntity
  8
1
  6
CONTINUOUS
370
    50
100
AcDbLine
 10
197.694755553
 20
139.0557717126
 30
0.0
 11
197.694755553
 21
191.7352636235
 31
0.0
  0
LINE
  5
9E
330
A
100
AcDbEntity
  8
1
  6
CONTINUOUS
370
    50
100
AcDbLine
 10
-3.905244447
 20
183.5580534186
 30
0.0
 11
-3.905244447
 21
147.2329819017
 31
0.0
  0
LINE
  5
9F
330
A
100
AcDbEntity
  8
1
  6
CONTINUOUS
370
    50
100
AcDbLine
 10
139.2617428511
 20
159.6567604026
 30
0.0
 11
139.2617428511
 21
171.1342749202
 31
0.0
  0
LINE
  5
A0
330
A
100
AcDbEntity
  8
1
  6
CONTINUOUS
370
    50
100
AcDbLine
 10
139.694755553
 20
159.1705678624
 30
0.0
 11
139.694755553
 21
171.6204674604
 31
0.0
  0
LINE
  5
A1
330
A
100
AcDbEntity
  8
1
  6
CONTINUOUS
370
    50
100
AcDbLine
 10
121.744755553
 20
130.3955176614
 30
0.0
 11
121.744755553
 21
200.3955176614
 31
0.0
  0
LINE
  5
A2
330
A
100
AcDbEntity
  8
1
  6
CONTINUOUS
370
    50
100
AcDbLine
 10
184.8909079757
 20
130.3955176614
 30
0.0
 11
184.8909079757
 21
162.8279656463
 31
0.0
  0
LINE
  5
A3
330
A
100
AcDbEntity
  8
1
  6
CONTINUOUS
370
    50
100
AcDbLine
 10
184.8909079757
 20
167.9630696765
 30
0.0
 11
184.8909079757
 21
200.3955176614
 31
0.0
  0
LINE
  5
A4
330
A
100
AcDbEntity
  8
1
  6
CONTINUOUS
370
    50
100
AcDbLine
 10
186.3909079757
 20
130.79744145
 30
0.0
 11
186.3909079757
 21
199.9935938727
 31
0.0
  0
LINE
  5
A5
330
A
100
AcDbEntity
  8
1
  6
CONTINUOUS
370
    50
100
AcDbLine
 10
98.994755553
 20
130.7705176614
 30
0.0
 11
98.994755553
 21
200.0205176614
 31
0.0
  0
LINE
  5
A6
330
A
100
AcDbEntity
  8
1
  6
CONTINUOUS
370
    50
100
AcDbLine
 10
-1.9799379584
 20
185.7845021907
 30
0.0
 11
-1.9799379584
 21
145.0065331321
 31
0.0
  0
LINE
  5
A7
330
A
100
AcDbEntity
  8
1
  6
CONTINUOUS
370
    50
100
AcDbLine
 10
97.8483089436
 20
130.624071052
 30
0.0
 11
97.8483089436
 21
200.1669642708
 31
0.0
  0
LINE
  5
A8
330
A
100
AcDbEntity
  8
1
  6
CONTINUOUS
370
    50
100
AcDbLine
 10
98.2018623341
 20
130.7705176614
 30
0.0
 11
98.2018623341
 21
200.0205176614
 31
0.0
  0
LINE
  5
A9
330
A
100
AcDbEntity
  8
1
  6
CONTINUOUS
370
    50
100
AcDbLine
 10
196.194755553
 20
136.4576954879
 30
0.0
 11
196.194755553
 21
194.3333398349
 31
0.0
  0
LWPOLYLINE
  5
AA
330
A
100
AcDbEntity
  8
1
  6
CONTINUOUS
370
    50
100
AcDbPolyline
 90
       25
 70
   128
 43
0.0
 10
115.9173081625
 20
151.7301476428
 10
115.7462823994
 20
151.0736816691
 10
115.4772034941
 20
150.4619527667
 10
115.1284087294
 20
149.9366492493
 10
114.723667892
 20
149.5335696836
 10
114.2905634011
 20
149.2801832757
 10
113.8586106121
 20
149.1937578907
 10
113.4572463937
 20
149.2801832757
 10
113.1138230541
 20
149.5335696836
 10
112.8517443264
 20
149.9366492493
 10
112.6888704427
 20
150.4619527667
 10
112.636300989
 20
151.0736816691
 10
112.6976184868
 20
151.7301476428
 10
112.8686442499
 20
152.3866136165
 10
113.1377231552
 20
152.9983425189
 10
113.4865179199
 20
153.5236460363
 10
113.8912587573
 20
153.926725602
 10
114.3243632482
 20
154.1801120099
 10
114.7563160372
 20
154.2665373949
 10
115.1576802556
 20
154.1801120099
 10
115.5011035952
 20
153.926725602
 10
115.7631823229
 20
153.5236460363
 10
115.9260562066
 20
152.9983425189
 10
115.9786256603
 20
152.3866136165
 10
115.9173081625
 20
151.7301476428
  0
LWPOLYLINE
  5
C5
330
A
100
AcDbEntity
  8
1
  6
CONTINUOUS
370
    50
100
AcDbPolyline
 90
        9
 70
   128
 43
0.0
 10
106.2710934341
 20
151.8992411894
 10
105.4503333224
 20
152.393128638
 10
105.0705471279
 20
152.819842659
 10
104.8886689134
 20
153.2423403426
 10
104.8749221752
 20
153.697826362
 10
105.0112507824
 20
154.0832224464
 10
105.3650658427
 20
154.5218585161
 10
106.0582950635
 20
154.9543286435
 10
106.2710934341
 20
155.0351963242
  0
LWPOLYLINE
  5
D0
330
A
100
AcDbEntity
  8
1
  6
CONTINUOUS
370
    50
100
AcDbPolyline
 90
        9
 70
   128
 43
0.0
 10
106.2710934341
 20
151.8992411894
 10
106.4586897856
 20
151.7020544285
 10
106.6574542939
 20
151.5478796061
 10
106.8617885324
 20
151.4410592299
 10
107.065937197
 20
151.3846020162
 10
107.2641502105
 20
151.380098146
 10
107.4508446798
 20
151.427674476
 10
107.6207621449
 20
151.5259909652
 10
107.7691166887
 20
151.6722784187
  0
ARC
  5
DB
330
A
100
AcDbEntity
  8
1
  6
CONTINUOUS
370
    50
100
AcDbCircle
 10
94.5535447955
 20
152.8566188838
 30
0.0
 40
13.2685343126
100
AcDbArc
 50
354.8790017457
 51
5.120998254300001
  0
LWPOLYLINE
  5
DC
330
A
100
AcDbEntity
  8
1
  6
CONTINUOUS
370
    50
100
AcDbPolyline
 90
        9
 70
   128
 43
0.0
 10
107.7691166887
 20
154.0409593488
 10
107.6207621449
 20
154.3081865346
 10
107.4508446798
 20
154.5450210104
 10
107.2641502105
 20
154.7447920662
 10
107.065937197
 20
154.9018729251
 10
106.8617885324
 20
155.0118392276
 10
106.6574542939
 20
155.0715936488
 10
106.4586897856
 20
155.0794531382
 10
106.2710934341
 20
155.0351963242
  0
LWPOLYLINE
  5
E7
330
A
100
AcDbEntity
  8
1
  6
CONTINUOUS
370
    50
100
AcDbPolyline
 90
       23
 70
   128
 43
0.0
 10
115.2247003952
 20
151.840070798
 10
115.0698928782
 20
151.2629071453
 10
114.8222876706
 20
150.7325018592
 10
114.5019442738
 20
150.2918252216
 10
114.1348150046
 20
149.9765782328
 10
113.7506424932
 20
149.812300329
 10
113.3805501114
 20
149.812300329
 10
113.0545205432
 20
149.9765782328
 10
112.7989667651
 20
150.2918252216
 10
112.6345922244
 20
150.7325018592
 10
112.5747135689
 20
151.2629071453
 10
112.624181811
 20
151.840070798
 10
112.778989328
 20
152.4172344507
 10
113.0265945356
 20
152.9476397368
 10
113.3469379324
 20
153.3883163744
 10
113.7140672015
 20
153.7035633632
 10
114.098239713
 20
153.867841267
 10
114.4683320948
 20
153.867841267
 10
114.794361663
 20
153.7035633632
 10
115.0499154411
 20
153.3883163744
 10
115.2142899818
 20
152.9476397368
 10
115.2741686373
 20
152.4172344507
 10
115.2247003952
 20
151.840070798
  0
ARC
  5
100
330
A
100
AcDbEntity
  8
1
  6
CONTINUOUS
370
    50
100
AcDbCircle
 10
97.2509869543
 20
139.8188846627
 30
0.0
 40
17.6889361321
100
AcDbArc
 50
53.5147162494
 51
59.3408807134
  0
ARC
  5
101
330
A
100
AcDbEntity
  8
1
  6
CONTINUOUS
370
    50
100
AcDbCircle
 10
108.7396209763
 20
163.1350873614
 30
0.0
 40
11.5038196886
100
AcDbArc
 50
257.6089186629
 51
265.1605663873
  0
LWPOLYLINE
  5
102
330
A
100
AcDbEntity
  8
1
  6
CONTINUOUS
370
    50
100
AcDbPolyline
 90
       23
 70
   128
 43
0.0
 10
106.0321670778
 20
154.4782265227
 10
105.8773595607
 20
153.90106287
 10
105.6297543531
 20
153.3706575839
 10
105.3094109564
 20
152.9299809463
 10
104.9422816872
 20
152.6147339575
 10
104.5581091757
 20
152.4504560537
 10
104.188016794
 20
152.4504560537
 10
103.8619872257
 20
152.6147339575
 10
103.6064334477
 20
152.9299809463
 10
103.442058907
 20
153.3706575839
 10
103.3821802514
 20
153.90106287
 10
103.4316484936
 20
154.4782265227
 10
103.5864560106
 20
155.0553901754
 10
103.8340612182
 20
155.5857954615
 10
104.154404615
 20
156.0264720991
 10
104.5215338841
 20
156.3417190879
 10
104.9057063956
 20
156.5059969917
 10
105.2757987773
 20
156.5059969917
 10
105.6018283456
 20
156.3417190879
 10
105.8573821237
 20
156.0264720991
 10
106.0217566644
 20
155.5857954615
 10
106.0816353199
 20
155.0553901754
 10
106.0321670778
 20
154.4782265227
  0
LINE
  5
11B
330
A
100
AcDbEntity
  8
1
  6
CONTINUOUS
370
    50
100
AcDbLine
 10
99.494755553
 20
130.0955176614
 30
0.0
 11
99.494755553
 21
201.0955176614
 31
0.0
  0
ARC
  5
11C
330
A
100
AcDbEntity
  8
1
  6
CONTINUOUS
370
    50
100
AcDbCircle
 10
184.7868738262
 20
154.8003866537
 30
0.0
 40
1.8003776673
100
AcDbArc
 50
273.3126604467
 51
332.9920029247
  0
ARC
  5
11D
330
A
100
AcDbEntity
  8
1
  6
CONTINUOUS
370
    50
100
AcDbCircle
 10
184.7868738262
 20
180.5860070352
 30
0.0
 40
1.8003776673
100
AcDbArc
 50
27.0079970752
 51
86.6873395533
  0
LINE
  5
11E
330
A
100
AcDbEntity
  8
1
  6
CONTINUOUS
370
    50
100
AcDbLine
 10
184.8909079757
 20
182.383376402
 30
0.0
 11
130.694755553
 21
182.383376402
 31
0.0
  0
LINE
  5
11F
330
A
100
AcDbEntity
  8
1
  6
CONTINUOUS
370
    50
100
AcDbLine
 10
184.8909079757
 20
153.0030172869
 30
0.0
 11
130.694755553
 21
153.0030172869
 31
0.0
  0
ARC
  5
120
330
A
100
AcDbEntity
  8
1
  6
CONTINUOUS
370
    50
100
AcDbCircle
 10
162.1883922603
 20
167.6931968444
 30
0.0
 40
34.7512665738
100
AcDbArc
 50
154.9933421848
 51
205.0066578152
  0
LWPOLYLINE
  5
121
330
A
100
AcDbEntity
  8
1
  6
CONTINUOUS
370
    50
100
AcDbPolyline
 90
       12
 70
   128
 43
0.0
 10
186.3909079757
 20
181.4035852836
 10
188.6998701197
 20
177.5917642603
 10
189.6649774401
 20
175.5294496375
 10
190.4410564022
 20
173.3902387908
 10
191.0917933978
 20
170.6058397436
 10
191.3239206765
 20
167.6933968444
 10
191.2320109017
 20
165.8664331543
 10
190.9625230579
 20
164.0567995135
 10
190.5069602442
 20
162.2154457836
 10
189.8921362437
 20
160.4201944471
 10
188.341783548
 20
157.1240614188
 10
186.3909079757
 20
153.9828084053
  0
LWPOLYLINE
  5
12F
330
A
100
AcDbEntity
  8
1
  6
CONTINUOUS
370
    50
100
AcDbPolyline
 90
       25
 70
   128
 43
0.0
 10
106.2721750699
 20
154.4804249858
 10
106.1077272208
 20
153.8492077035
 10
105.8489975042
 20
153.2610068358
 10
105.5136179227
 20
152.7559072998
 10
105.1244440406
 20
152.3683307942
 10
104.7079974148
 20
152.1246900174
 10
104.2926581946
 20
152.0415886857
 10
103.9067310615
 20
152.1246900174
 10
103.5765163119
 20
152.3683307942
 10
103.3245175352
 20
152.7559072998
 10
103.1679080316
 20
153.2610068358
 10
103.11736048
 20
153.8492077035
 10
103.1763196125
 20
154.4804249858
 10
103.3407674617
 20
155.1116422682
 10
103.5994971783
 20
155.6998431359
 10
103.9348767598
 20
156.2049426718
 10
104.3240506419
 20
156.5925191774
 10
104.7404972677
 20
156.8361599542
 10
105.1558364879
 20
156.9192612859
 10
105.541763621
 20
156.8361599542
 10
105.8719783706
 20
156.5925191774
 10
106.1239771473
 20
156.2049426718
 10
106.2805866508
 20
155.6998431359
 10
106.3311342024
 20
155.1116422682
 10
106.2721750699
 20
154.4804249858
  0
LWPOLYLINE
  5
14A
330
A
100
AcDbEntity
  8
1
  6
CONTINUOUS
370
    50
100
AcDbPolyline
 90
       25
 70
   128
 43
0.0
 10
106.2798355144
 20
154.4782265227
 10
106.1153876652
 20
153.8470092404
 10
105.8566579486
 20
153.2588083726
 10
105.5212783671
 20
152.7537088367
 10
105.132104485
 20
152.3661323311
 10
104.7156578592
 20
152.1224915543
 10
104.300318639
 20
152.0393902226
 10
103.9143915059
 20
152.1224915543
 10
103.5841767563
 20
152.3661323311
 10
103.3321779796
 20
152.7537088367
 10
103.1755684761
 20
153.2588083726
 10
103.1250209245
 20
153.8470092404
 10
103.183980057
 20
154.4782265227
 10
103.3484279061
 20
155.1094438051
 10
103.6071576227
 20
155.6976446728
 10
103.9425372042
 20
156.2027442087
 10
104.3317110863
 20
156.5903207143
 10
104.7481577121
 20
156.8339614911
 10
105.1634969323
 20
156.9170628228
 10
105.5494240654
 20
156.8339614911
 10
105.879638815
 20
156.5903207143
 10
106.1316375917
 20
156.2027442087
 10
106.2882470953
 20
155.6976446728
 10
106.3387946469
 20
155.1094438051
 10
106.2798355144
 20
154.4782265227
  0
LWPOLYLINE
  5
165
330
A
100
AcDbEntity
  8
1
  6
CONTINUOUS
370
    50
100
AcDbPolyline
 90
       23
 70
   128
 43
0.0
 10
106.0245066333
 20
154.4804249858
 10
105.8696991163
 20
153.9032613331
 10
105.6220939087
 20
153.372856047
 10
105.3017505119
 20
152.9321794094
 10
104.9346212428
 20
152.6169324206
 10
104.5504487313
 20
152.4526545168
 10
104.1803563496
 20
152.4526545168
 10
103.8543267813
 20
152.6169324206
 10
103.5987730032
 20
152.9321794094
 10
103.4343984625
 20
153.372856047
 10
103.374519807
 20
153.9032613331
 10
103.4239880491
 20
154.4804249858
 10
103.5787955662
 20
155.0575886385
 10
103.8264007738
 20
155.5879939246
 10
104.1467441705
 20
156.0286705622
 10
104.5138734397
 20
156.343917551
 10
104.8980459512
 20
156.5081954548
 10
105.2681383329
 20
156.5081954548
 10
105.5941679012
 20
156.343917551
 10
105.8497216792
 20
156.0286705622
 10
106.0140962199
 20
155.5879939246
 10
106.0739748755
 20
155.0575886385
 10
106.0245066333
 20
154.4804249858
  0
LWPOLYLINE
  5
17E
330
A
100
AcDbEntity
  8
1
  6
CONTINUOUS
370
    50
100
AcDbPolyline
 90
       22
 70
   128
 43
0.0
 10
82.4080308973
 20
161.2580931769
 10
81.9618436304
 20
160.7429102975
 10
81.0810418267
 20
160.2510437461
 10
79.4979184994
 20
159.9003151223
 10
78.6700500705
 20
159.8928737837
 10
77.827914447
 20
160.0179750323
 10
76.9657122035
 20
160.3498590465
 10
76.4070412298
 20
160.7916190671
 10
76.1104338574
 20
161.2672023212
 10
76.0125146407
 20
161.8216596844
 10
76.1166150677
 20
162.3246549886
 10
76.3806333878
 20
162.7790865463
 10
76.9287890757
 20
163.2722382342
 10
77.8615870807
 20
163.6805633398
 10
79.3174251858
 20
163.8201692474
 10
80.7986291967
 20
163.5196656742
 10
81.7226050637
 20
163.0506981957
 10
82.2305164523
 20
162.587314585
 10
82.4707345336
 20
162.1786904891
 10
82.5458753347
 20
161.8003556863
 10
82.4826833163
 20
161.4246608816
 10
82.4080308973
 20
161.2580931769
  0
LINE
  5
196
330
A
100
AcDbEntity
  8
1
  6
CONTINUOUS
370
    50
100
AcDbLine
 10
196.8287301492
 20
181.3955176614
 30
0.0
 11
196.8287301492
 21
149.3955176614
 31
0.0
  0
ARC
  5
197
330
A
100
AcDbEntity
  8
1
  6
CONTINUOUS
370
    50
100
AcDbCircle
 10
174.194755553
 20
165.3955176614
 30
0.0
 40
11.0
100
AcDbArc
 50
88.7534004311
 51
90.0
  0
ARC
  5
198
330
A
100
AcDbEntity
  8
1
  6
CONTINUOUS
370
    50
100
AcDbCircle
 10
174.194755553
 20
165.3955176614
 30
0.0
 40
11.0
100
AcDbArc
 50
8.3195179018
 51
17.8190852683
  0
ARC
  5
199
330
A
100
AcDbEntity
  8
1
  6
CONTINUOUS
370
    50
100
AcDbCircle
 10
174.194755553
 20
165.3955176614
 30
0.0
 40
11.0
100
AcDbArc
 50
338.081981206
 51
350.313906401
  0
ARC
  5
19A
330
A
100
AcDbEntity
  8
1
  6
CONTINUOUS
370
    50
100
AcDbCircle
 10
174.194755553
 20
165.3955176614
 30
0.0
 40
11.0
100
AcDbArc
 50
90.0
 51
90.4382823675
  0
LINE
  5
19B
330
A
100
AcDbEntity
  8
1
  6
CONTINUOUS
370
    50
100
AcDbLine
 10
139.2617428511
 20
156.8554160885
 30
0.0
 11
139.2617428511
 21
149.1455176614
 31
0.0
  0
LINE
  5
19C
330
A
100
AcDbEntity
  8
1
  6
CONTINUOUS
370
    50
100
AcDbLine
 10
139.2617428511
 20
156.8618306056
 30
0.0
 11
139.2617428511
 21
159.6567604026
 31
0.0
  0
LINE
  5
19D
330
A
100
AcDbEntity
  8
1
  6
CONTINUOUS
370
    50
100
AcDbLine
 10
139.2617428511
 20
171.1342749202
 30
0.0
 11
139.2617428511
 21
173.9356192343
 31
0.0
  0
LINE
  5
19E
330
A
100
AcDbEntity
  8
1
  6
CONTINUOUS
370
    50
100
AcDbLine
 10
139.2617428511
 20
181.6455176614
 30
0.0
 11
139.2617428511
 21
173.9356192343
 31
0.0
  0
LINE
  5
19F
330
A
100
AcDbEntity
  8
1
  6
CONTINUOUS
370
    50
100
AcDbLine
 10
132.494755553
 20
149.1455176614
 30
0.0
 11
132.494755553
 21
181.6455176614
 31
0.0
  0
LINE
  5
1A0
330
A
100
AcDbEntity
  8
1
  6
CONTINUOUS
370
    50
100
AcDbLine
 10
131.694755553
 20
149.9455176614
 30
0.0
 11
131.694755553
 21
180.8455176614
 31
0.0
  0
LINE
  5
1A1
330
A
100
AcDbEntity
  8
1
  6
CONTINUOUS
370
    50
100
AcDbLine
 10
139.694755553
 20
156.5213979867
 30
0.0
 11
139.694755553
 21
149.3955176614
 31
0.0
  0
LINE
  5
1A2
330
A
100
AcDbEntity
  8
1
  6
CONTINUOUS
370
    50
100
AcDbLine
 10
139.694755553
 20
156.5091458302
 30
0.0
 11
139.694755553
 21
159.1705678624
 31
0.0
  0
LINE
  5
1A3
330
A
100
AcDbEntity
  8
1
  6
CONTINUOUS
370
    50
100
AcDbLine
 10
139.694755553
 20
171.6204674604
 30
0.0
 11
139.694755553
 21
174.269637336
 31
0.0
  0
LINE
  5
1A4
330
A
100
AcDbEntity
  8
1
  6
CONTINUOUS
370
    50
100
AcDbLine
 10
139.694755553
 20
181.3955176614
 30
0.0
 11
139.694755553
 21
174.269637336
 31
0.0
  0
LINE
  5
1A5
330
A
100
AcDbEntity
  8
1
  6
CONTINUOUS
370
    50
100
AcDbLine
 10
99.194755553
 20
129.3455176614
 30
0.0
 11
101.394755553
 21
129.3455176614
 31
0.0
  0
LINE
  5
1A6
330
A
100
AcDbEntity
  8
1
  6
CONTINUOUS
370
    50
100
AcDbLine
 10
101.394755553
 20
203.6455176614
 30
0.0
 11
99.194755553
 21
203.6455176614
 31
0.0
  0
LINE
  5
1A7
330
A
100
AcDbEntity
  8
1
  6
CONTINUOUS
370
    50
100
AcDbLine
 10
130.0796376384
 20
154.8330176614
 30
0.0
 11
130.0796376384
 21
175.9580176614
 31
0.0
  0
LINE
  5
1A8
330
A
100
AcDbEntity
  8
1
  6
CONTINUOUS
370
    50
100
AcDbLine
 10
-1.905244447
 20
152.8955176614
 30
0.0
 11
-1.905244447
 21
177.8955176614
 31
0.0
  0
LINE
  5
1A9
330
A
100
AcDbEntity
  8
1
  6
CONTINUOUS
370
    50
100
AcDbLine
 10
101.0840953812
 20
130.0955176614
 30
0.0
 11
99.194755553
 21
130.0955176614
 31
0.0
  0
LINE
  5
1AA
330
A
100
AcDbEntity
  8
1
  6
CONTINUOUS
370
    50
100
AcDbLine
 10
99.194755553
 20
202.8955176614
 30
0.0
 11
101.0840953812
 21
202.8955176614
 31
0.0
  0
LINE
  5
1AB
330
A
100
AcDbEntity
  8
1
  6
CONTINUOUS
370
    50
100
AcDbLine
 10
100.5837993581
 20
212.1662766978
 30
0.0
 11
101.394755553
 21
211.703550455
 31
0.0
  0
LINE
  5
1AC
330
A
100
AcDbEntity
  8
1
  6
CONTINUOUS
370
    50
100
AcDbLine
 10
101.394755553
 20
119.2454844167
 30
0.0
 11
100.7312220033
 21
118.5819508671
 31
0.0
  0
LINE
  5
1AD
330
A
100
AcDbEntity
  8
1
  6
CONTINUOUS
370
    50
100
AcDbLine
 10
116.744755553
 20
119.2454844167
 30
0.0
 11
111.5548456329
 21
119.2454844167
 31
0.0
  0
LINE
  5
1AE
330
A
100
AcDbEntity
  8
1
  6
CONTINUOUS
370
    50
100
AcDbLine
 10
106.034665473
 20
119.2454844167
 30
0.0
 11
101.394755553
 21
119.2454844167
 31
0.0
  0
LINE
  5
1AF
330
A
100
AcDbEntity
  8
1
  6
CONTINUOUS
370
    50
100
AcDbLine
 10
101.394755553
 20
119.2454844167
 30
0.0
 11
101.394755553
 21
129.3455176614
 31
0.0
  0
LINE
  5
1B0
330
A
100
AcDbEntity
  8
1
  6
CONTINUOUS
370
    50
100
AcDbLine
 10
117.5280631172
 20
130.0955176614
 30
0.0
 11
117.044755553
 21
130.0955176614
 31
0.0
  0
LINE
  5
1B1
330
A
100
AcDbEntity
  8
1
  6
CONTINUOUS
370
    50
100
AcDbLine
 10
117.044755553
 20
129.3455176614
 30
0.0
 11
117.044755553
 21
130.0955176614
 31
0.0
  0
LINE
  5
1B2
330
A
100
AcDbEntity
  8
1
  6
CONTINUOUS
370
    50
100
AcDbLine
 10
101.394755553
 20
129.3455176614
 30
0.0
 11
117.044755553
 21
129.3455176614
 31
0.0
  0
LINE
  5
1B3
330
A
100
AcDbEntity
  8
1
  6
CONTINUOUS
370
    50
100
AcDbLine
 10
117.044755553
 20
130.0955176614
 30
0.0
 11
101.0840953812
 21
130.0955176614
 31
0.0
  0
LINE
  5
1B4
330
A
100
AcDbEntity
  8
1
  6
CONTINUOUS
370
    50
100
AcDbLine
 10
101.394755553
 20
129.3455176614
 30
0.0
 11
101.0840953812
 21
130.0955176614
 31
0.0
  0
LINE
  5
1B5
330
A
100
AcDbEntity
  8
1
  6
CONTINUOUS
370
    50
100
AcDbLine
 10
117.044755553
 20
129.3455176614
 30
0.0
 11
117.0529472179
 21
129.3455176614
 31
0.0
  0
LINE
  5
1B6
330
A
100
AcDbEntity
  8
1
  6
CONTINUOUS
370
    50
100
AcDbLine
 10
117.044755553
 20
129.3217360032
 30
0.0
 11
117.044755553
 21
129.3455176614
 31
0.0
  0
LINE
  5
1B7
330
A
100
AcDbEntity
  8
1
  6
CONTINUOUS
370
    50
100
AcDbLine
 10
101.394755553
 20
211.703550455
 30
0.0
 11
105.9467765538
 21
211.703550455
 31
0.0
  0
LINE
  5
1B8
330
A
100
AcDbEntity
  8
1
  6
CONTINUOUS
370
    50
100
AcDbLine
 10
111.6427345522
 20
211.703550455
 30
0.0
 11
116.744755553
 21
211.703550455
 31
0.0
  0
LINE
  5
1B9
330
A
100
AcDbEntity
  8
1
  6
CONTINUOUS
370
    50
100
AcDbLine
 10
101.394755553
 20
211.703550455
 30
0.0
 11
101.394755553
 21
203.6455176614
 31
0.0
  0
LINE
  5
1BA
330
A
100
AcDbEntity
  8
1
  6
CONTINUOUS
370
    50
100
AcDbLine
 10
116.744755553
 20
203.6455176614
 30
0.0
 11
101.394755553
 21
203.6455176614
 31
0.0
  0
LINE
  5
1BB
330
A
100
AcDbEntity
  8
1
  6
CONTINUOUS
370
    50
100
AcDbLine
 10
101.0840953812
 20
202.8955176614
 30
0.0
 11
116.7804274197
 21
202.8955176614
 31
0.0
  0
LINE
  5
1BC
330
A
100
AcDbEntity
  8
1
  6
CONTINUOUS
370
    50
100
AcDbLine
 10
101.394755553
 20
203.6455176614
 30
0.0
 11
101.0840953812
 21
202.8955176614
 31
0.0
  0
LINE
  5
1BD
330
A
100
AcDbEntity
  8
1
  6
CONTINUOUS
370
    50
100
AcDbLine
 10
7.844755553
 20
177.8955176614
 30
0.0
 11
7.844755553
 21
152.8955176614
 31
0.0
  0
LINE
  5
1BE
330
A
100
AcDbEntity
  8
1
  6
CONTINUOUS
370
    50
100
AcDbLine
 10
8.9633716995
 20
175.9580176614
 30
0.0
 11
8.9633716995
 21
154.8330176614
 31
0.0
  0
LINE
  5
1BF
330
A
100
AcDbEntity
  8
1
  6
CONTINUOUS
370
    50
100
AcDbLine
 10
45.094705553
 20
153.3955176614
 30
0.0
 11
45.094705553
 21
177.3955176614
 31
0.0
  0
LINE
  5
1C0
330
A
100
AcDbEntity
  8
1
  6
CONTINUOUS
370
    50
100
AcDbLine
 10
45.094805553
 20
153.3955176614
 30
0.0
 11
45.094805553
 21
177.3955176614
 31
0.0
  0
LWPOLYLINE
  5
1C1
330
A
100
AcDbEntity
  8
1
  6
CONTINUOUS
370
    50
100
AcDbPolyline
 90
       22
 70
   128
 43
0.0
 10
82.4080308973
 20
169.5329421459
 10
81.9618436304
 20
170.0481250253
 10
81.0810418267
 20
170.5399915767
 10
79.4979184994
 20
170.8907202005
 10
78.6700500705
 20
170.898161539
 10
77.827914447
 20
170.7730602904
 10
76.9657122035
 20
170.4411762762
 10
76.4070412298
 20
169.9994162557
 10
76.1104338574
 20
169.5238330015
 10
76.0125146407
 20
168.9693756384
 10
76.1166150677
 20
168.4663803341
 10
76.3806333878
 20
168.0119487764
 10
76.9287890757
 20
167.5187970885
 10
77.8615870807
 20
167.1104719829
 10
79.3174251858
 20
166.9708660754
 10
80.7986291967
 20
167.2713696485
 10
81.7226050637
 20
167.740337127
 10
82.2305164523
 20
168.2037207377
 10
82.4707345336
 20
168.6123448336
 10
82.5458753347
 20
168.9906796365
 10
82.4826833163
 20
169.3663744411
 10
82.4080308973
 20
169.5329421459
  0
LINE
  5
1D9
330
A
100
AcDbEntity
  8
1
  6
CONTINUOUS
370
    50
100
AcDbLine
 10
103.8160846715
 20
198.4955176614
 30
0.0
 11
113.7734264344
 21
198.4955176614
 31
0.0
  0
LINE
  5
1DA
330
A
100
AcDbEntity
  8
1
  6
CONTINUOUS
370
    50
100
AcDbLine
 10
113.494755553
 20
198.1955176614
 30
0.0
 11
104.094755553
 21
198.1955176614
 31
0.0
  0
LWPOLYLINE
  5
1DB
330
A
100
AcDbEntity
  8
1
  6
CONTINUOUS
370
    50
100
AcDbPolyline
 90
       23
 70
   128
 43
0.0
 10
106.0245066333
 20
176.3106103369
 10
105.8696991163
 20
176.8877739896
 10
105.6220939087
 20
177.4181792757
 10
105.3017505119
 20
177.8588559133
 10
104.9346212428
 20
178.1741029021
 10
104.5504487313
 20
178.3383808059
 10
104.1803563496
 20
178.3383808059
 10
103.8543267813
 20
178.1741029021
 10
103.5987730032
 20
177.8588559133
 10
103.4343984625
 20
177.4181792757
 10
103.374519807
 20
176.8877739896
 10
103.4239880491
 20
176.3106103369
 10
103.5787955662
 20
175.7334466842
 10
103.8264007738
 20
175.2030413981
 10
104.1467441705
 20
174.7623647605
 10
104.5138734397
 20
174.4471177717
 10
104.8980459512
 20
174.2828398679
 10
105.2681383329
 20
174.2828398679
 10
105.5941679012
 20
174.4471177717
 10
105.8497216792
 20
174.7623647605
 10
106.0140962199
 20
175.2030413981
 10
106.0739748755
 20
175.7334466842
 10
106.0245066333
 20
176.3106103369
  0
LINE
  5
1F4
330
A
100
AcDbEntity
  8
1
  6
CONTINUOUS
370
    50
100
AcDbLine
 10
117.044755553
 20
130.0955176614
 30
0.0
 11
117.044755553
 21
129.3455176614
 31
0.0
  0
LINE
  5
1F5
330
A
100
AcDbEntity
  8
1
  6
CONTINUOUS
370
    50
100
AcDbLine
 10
107.369755553
 20
121.7477513955
 30
0.0
 11
107.369755553
 21
209.0432839272
 31
0.0
  0
LINE
  5
1F6
330
A
100
AcDbEntity
  8
1
  6
CONTINUOUS
370
    50
100
AcDbLine
 10
106.869755553
 20
195.2455176614
 30
0.0
 11
106.869755553
 21
200.3951962313
 31
0.0
  0
LINE
  5
1F7
330
A
100
AcDbEntity
  8
1
  6
CONTINUOUS
370
    50
100
AcDbLine
 10
110.219755553
 20
121.7477513955
 30
0.0
 11
110.219755553
 21
209.0432839272
 31
0.0
  0
LINE
  5
1F8
330
A
100
AcDbEntity
  8
1
  6
CONTINUOUS
370
    50
100
AcDbLine
 10
110.719755553
 20
195.2455176614
 30
0.0
 11
110.719755553
 21
200.3951962313
 31
0.0
  0
LINE
  5
1F9
330
A
100
AcDbEntity
  8
1
  6
CONTINUOUS
370
    50
100
AcDbLine
 10
105.5615940455
 20
203.906595613
 30
0.0
 11
105.5615940455
 21
195.2455176614
 31
0.0
  0
LINE
  5
1FA
330
A
100
AcDbEntity
  8
1
  6
CONTINUOUS
370
    50
100
AcDbLine
 10
116.244755553
 20
203.906595613
 30
0.0
 11
116.244755553
 21
195.2455176614
 31
0.0
  0
LINE
  5
1FB
330
A
100
AcDbEntity
  8
1
  6
CONTINUOUS
370
    50
100
AcDbLine
 10
112.0279170604
 20
195.2455176614
 30
0.0
 11
112.0279170604
 21
203.906595613
 31
0.0
  0
LINE
  5
1FC
330
A
100
AcDbEntity
  8
1
  6
CONTINUOUS
370
    50
100
AcDbLine
 10
99.694755553
 20
195.2455176614
 30
0.0
 11
99.694755553
 21
203.906595613
 31
0.0
  0
LWPOLYLINE
  5
1FD
330
A
100
AcDbEntity
  8
1
  6
CONTINUOUS
370
    50
100
AcDbPolyline
 90
       25
 70
   128
 43
0.0
 10
106.2721750699
 20
176.3106103369
 10
106.1077272208
 20
176.9418276193
 10
105.8489975042
 20
177.530028487
 10
105.5136179227
 20
178.0351280229
 10
105.1244440406
 20
178.4227045285
 10
104.7079974148
 20
178.6663453053
 10
104.2926581946
 20
178.749446637
 10
103.9067310615
 20
178.6663453053
 10
103.5765163119
 20
178.4227045285
 10
103.3245175352
 20
178.0351280229
 10
103.1679080316
 20
177.530028487
 10
103.11736048
 20
176.9418276193
 10
103.1763196125
 20
176.3106103369
 10
103.3407674617
 20
175.6793930546
 10
103.5994971783
 20
175.0911921869
 10
103.9348767598
 20
174.5860926509
 10
104.3240506419
 20
174.1985161453
 10
104.7404972677
 20
173.9548753685
 10
105.1558364879
 20
173.8717740368
 10
105.541763621
 20
173.9548753685
 10
105.8719783706
 20
174.1985161453
 10
106.1239771473
 20
174.5860926509
 10
106.2805866508
 20
175.0911921869
 10
106.3311342024
 20
175.6793930546
 10
106.2721750699
 20
176.3106103369
  0
LWPOLYLINE
  5
218
330
A
100
AcDbEntity
  8
1
  6
CONTINUOUS
370
    50
100
AcDbPolyline
 90
       25
 70
   128
 43
0.0
 10
106.2798355144
 20
176.3128088
 10
106.1153876652
 20
176.9440260824
 10
105.8566579486
 20
177.5322269501
 10
105.5212783671
 20
178.0373264861
 10
105.132104485
 20
178.4249029916
 10
104.7156578592
 20
178.6685437684
 10
104.300318639
 20
178.7516451002
 10
103.9143915059
 20
178.6685437684
 10
103.5841767563
 20
178.4249029916
 10
103.3321779796
 20
178.0373264861
 10
103.1755684761
 20
177.5322269501
 10
103.1250209245
 20
176.9440260824
 10
103.183980057
 20
176.3128088
 10
103.3484279061
 20
175.6815915177
 10
103.6071576227
 20
175.09339065
 10
103.9425372042
 20
174.588291114
 10
104.3317110863
 20
174.2007146085
 10
104.7481577121
 20
173.9570738317
 10
105.1634969323
 20
173.8739724999
 10
105.5494240654
 20
173.9570738317
 10
105.879638815
 20
174.2007146085
 10
106.1316375917
 20
174.588291114
 10
106.2882470953
 20
175.09339065
 10
106.3387946469
 20
175.6815915177
 10
106.2798355144
 20
176.3128088
  0
LWPOLYLINE
  5
233
330
A
100
AcDbEntity
  8
1
  6
CONTINUOUS
370
    50
100
AcDbPolyline
 90
       23
 70
   128
 43
0.0
 10
106.0321670778
 20
176.3128088
 10
105.8773595607
 20
176.8899724527
 10
105.6297543531
 20
177.4203777388
 10
105.3094109564
 20
177.8610543764
 10
104.9422816872
 20
178.1763013652
 10
104.5581091757
 20
178.340579269
 10
104.188016794
 20
178.340579269
 10
103.8619872257
 20
178.1763013652
 10
103.6064334477
 20
177.8610543764
 10
103.442058907
 20
177.4203777388
 10
103.3821802514
 20
176.8899724527
 10
103.4316484936
 20
176.3128088
 10
103.5864560106
 20
175.7356451473
 10
103.8340612182
 20
175.2052398612
 10
104.154404615
 20
174.7645632236
 10
104.5215338841
 20
174.4493162348
 10
104.9057063956
 20
174.285038331
 10
105.2757987773
 20
174.285038331
 10
105.6018283456
 20
174.4493162348
 10
105.8573821237
 20
174.7645632236
 10
106.0217566644
 20
175.2052398612
 10
106.0816353199
 20
175.7356451473
 10
106.0321670778
 20
176.3128088
  0
LWPOLYLINE
  5
24C
330
A
100
AcDbEntity
  8
1
  6
CONTINUOUS
370
    50
100
AcDbPolyline
 90
       23
 70
   128
 43
0.0
 10
115.2247003952
 20
178.9509645247
 10
115.0698928782
 20
179.5281281774
 10
114.8222876706
 20
180.0585334635
 10
114.5019442738
 20
180.4992101012
 10
114.1348150046
 20
180.81445709
 10
113.7506424932
 20
180.9787349937
 10
113.3805501114
 20
180.9787349937
 10
113.0545205432
 20
180.81445709
 10
112.7989667651
 20
180.4992101012
 10
112.6345922244
 20
180.0585334635
 10
112.5747135689
 20
179.5281281774
 10
112.624181811
 20
178.9509645247
 10
112.778989328
 20
178.373800872
 10
113.0265945356
 20
177.843395586
 10
113.3469379324
 20
177.4027189483
 10
113.7140672015
 20
177.0874719595
 10
114.098239713
 20
176.9231940557
 10
114.4683320948
 20
176.9231940557
 10
114.794361663
 20
177.0874719595
 10
115.0499154411
 20
177.4027189483
 10
115.2142899818
 20
177.843395586
 10
115.2741686373
 20
178.373800872
 10
115.2247003952
 20
178.9509645247
  0
ARC
  5
265
330
A
100
AcDbEntity
  8
1
  6
CONTINUOUS
370
    50
100
AcDbCircle
 10
91.5396060122
 20
177.934416439
 30
0.0
 40
16.2726666265
100
AcDbArc
 50
355.8262672738001
 51
4.1737327261
  0
ARC
  5
266
330
A
100
AcDbEntity
  8
1
  6
CONTINUOUS
370
    50
100
AcDbCircle
 10
108.5752756835
 20
168.7406768345
 30
0.0
 40
10.4093437955
100
AcDbArc
 50
94.4417599087
 51
102.7887550411
  0
LWPOLYLINE
  5
267
330
A
100
AcDbEntity
  8
1
  6
CONTINUOUS
370
    50
100
AcDbPolyline
 90
        9
 70
   128
 43
0.0
 10
106.2710934341
 20
175.7558389985
 10
105.4503333224
 20
176.1964422415
 10
105.0705471279
 20
176.6087102166
 10
104.8886689134
 20
177.0255508824
 10
104.8749221752
 20
177.4806363592
 10
105.0112507824
 20
177.8701692735
 10
105.3650658427
 20
178.3215620408
 10
106.0582950635
 20
178.792717449
 10
106.2710934341
 20
178.8917941334
  0
ARC
  5
272
330
A
100
AcDbEntity
  8
1
  6
CONTINUOUS
370
    50
100
AcDbCircle
 10
96.5286742553
 20
192.060463856
 30
0.0
 40
18.9935653103
100
AcDbArc
 50
300.8593681438
 51
306.2850348934
  0
LINE
  5
273
330
A
100
AcDbEntity
  8
1
  6
CONTINUOUS
370
    50
100
AcDbLine
 10
130.694755553
 20
153.0030172869
 30
0.0
 11
130.694755553
 21
182.383376402
 31
0.0
  0
LINE
  5
274
330
A
100
AcDbEntity
  8
1
  6
CONTINUOUS
370
    50
100
AcDbLine
 10
185.694755553
 20
175.791182606
 30
0.0
 11
185.694755553
 21
159.7134490872
 31
0.0
  0
LINE
  5
275
330
A
100
AcDbEntity
  8
1
  6
CONTINUOUS
370
    50
100
AcDbLine
 10
171.694755553
 20
159.7134490872
 30
0.0
 11
171.694755553
 21
175.791182606
 31
0.0
  0
LINE
  5
276
330
A
100
AcDbEntity
  8
1
  6
CONTINUOUS
370
    50
100
AcDbLine
 10
171.694755553
 20
175.791182606
 30
0.0
 11
171.694755553
 21
175.7919062844
 31
0.0
  0
LINE
  5
277
330
A
100
AcDbEntity
  8
1
  6
CONTINUOUS
370
    50
100
AcDbLine
 10
171.694755553
 20
175.791182606
 30
0.0
 11
185.694755553
 21
175.791182606
 31
0.0
  0
LINE
  5
278
330
A
100
AcDbEntity
  8
1
  6
CONTINUOUS
370
    50
100
AcDbLine
 10
185.694755553
 20
175.791182606
 30
0.0
 11
185.694755553
 21
175.7919062844
 31
0.0
  0
LINE
  5
279
330
A
100
AcDbEntity
  8
1
  6
CONTINUOUS
370
    50
100
AcDbLine
 10
171.694755553
 20
175.7919062844
 30
0.0
 11
185.694755553
 21
175.7919062844
 31
0.0
  0
LWPOLYLINE
  5
27A
330
A
100
AcDbEntity
  8
1
  6
CONTINUOUS
370
    50
100
AcDbPolyline
 90
        9
 70
   128
 43
0.0
 10
106.2710934341
 20
178.8917941334
 10
106.4586897856
 20
179.0889808943
 10
106.6574542939
 20
179.2431557166
 10
106.8617885324
 20
179.3499760928
 10
107.065937197
 20
179.4064333065
 10
107.2641502105
 20
179.4109371767
 10
107.4508446798
 20
179.3633608467
 10
107.6207621449
 20
179.2650443576
 10
107.7691166887
 20
179.118756904
  0
LWPOLYLINE
  5
285
330
A
100
AcDbEntity
  8
1
  6
CONTINUOUS
370
    50
100
AcDbPolyline
 90
        9
 70
   128
 43
0.0
 10
107.7691166887
 20
176.750075974
 10
107.6207621449
 20
176.4828487882
 10
107.4508446798
 20
176.2460143124
 10
107.2641502105
 20
176.0462432565
 10
107.065937197
 20
175.8891623976
 10
106.8617885324
 20
175.7791960951
 10
106.6574542939
 20
175.7194416739
 10
106.4586897856
 20
175.7115821846
 10
106.2710934341
 20
175.7558389985
  0
LINE
  5
290
330
A
100
AcDbEntity
  8
1
  6
CONTINUOUS
370
    50
100
AcDbLine
 10
185.694755553
 20
159.7134490872
 30
0.0
 11
171.694755553
 21
159.7134490872
 31
0.0
  0
LINE
  5
291
330
A
100
AcDbEntity
  8
1
  6
CONTINUOUS
370
    50
100
AcDbLine
 10
185.694755553
 20
159.7141727656
 30
0.0
 11
171.694755553
 21
159.7141727656
 31
0.0
  0
LWPOLYLINE
  5
292
330
A
100
AcDbEntity
  8
1
  6
CONTINUOUS
370
    50
100
AcDbPolyline
 90
       25
 70
   128
 43
0.0
 10
115.9173081625
 20
179.0608876799
 10
115.7462823994
 20
179.7173536536
 10
115.4772034941
 20
180.329082556
 10
115.1284087294
 20
180.8543860734
 10
114.723667892
 20
181.2574656392
 10
114.2905634011
 20
181.5108520471
 10
113.8586106121
 20
181.5972774321
 10
113.4572463937
 20
181.5108520471
 10
113.1138230541
 20
181.2574656392
 10
112.8517443264
 20
180.8543860734
 10
112.6888704427
 20
180.329082556
 10
112.636300989
 20
179.7173536536
 10
112.6976184868
 20
179.0608876799
 10
112.8686442499
 20
178.4044217063
 10
113.1377231552
 20
177.7926928039
 10
113.4865179199
 20
177.2673892865
 10
113.8912587573
 20
176.8643097207
 10
114.3243632482
 20
176.6109233128
 10
114.7563160372
 20
176.5244979278
 10
115.1576802556
 20
176.6109233128
 10
115.5011035952
 20
176.8643097207
 10
115.7631823229
 20
177.2673892865
 10
115.9260562066
 20
177.7926928039
 10
115.9786256603
 20
178.4044217063
 10
115.9173081625
 20
179.0608876799
  0
LINE
  5
2AD
330
A
100
AcDbEntity
  8
1
  6
CONTINUOUS
370
    50
100
AcDbLine
 10
113.5902437076
 20
149.2310285938
 30
0.0
 11
116.744755553
 21
148.3257184692
 31
0.0
  0
LINE
  5
2AE
330
A
100
AcDbEntity
  8
1
  6
CONTINUOUS
370
    50
100
AcDbLine
 10
116.744755553
 20
153.7356248142
 30
0.0
 11
115.0246829417
 21
154.2292666918
 31
0.0
  0
LINE
  5
2AF
330
A
100
AcDbEntity
  8
1
  6
CONTINUOUS
370
    50
100
AcDbLine
 10
99.194755553
 20
149.0539750925
 30
0.0
 11
107.379322012
 21
151.4028554406
 31
0.0
  0
LINE
  5
2B0
330
A
100
AcDbEntity
  8
1
  6
CONTINUOUS
370
    50
100
AcDbLine
 10
106.3231033336
 20
155.0531254218
 30
0.0
 11
99.194755553
 21
153.0073681908
 31
0.0
  0
LINE
  5
2B1
330
A
100
AcDbEntity
  8
1
  6
CONTINUOUS
370
    50
100
AcDbLine
 10
113.6312833231
 20
153.6888304837
 30
0.0
 11
113.3782957172
 21
153.4220838618
 31
0.0
  0
LINE
  5
2B2
330
A
100
AcDbEntity
  8
1
  6
CONTINUOUS
370
    50
100
AcDbLine
 10
112.6224708421
 20
150.7884465514
 30
0.0
 11
112.6955001443
 21
150.4281366708
 31
0.0
  0
LINE
  5
2B3
330
A
100
AcDbEntity
  8
1
  6
CONTINUOUS
370
    50
100
AcDbLine
 10
104.152615018
 20
152.4597072909
 30
0.0
 11
113.3451483355
 21
149.8215515661
 31
0.0
  0
LINE
  5
2B4
330
A
100
AcDbEntity
  8
1
  6
CONTINUOUS
370
    50
100
AcDbLine
 10
114.5037338707
 20
153.8585900299
 30
0.0
 11
105.3112005533
 21
156.4967457546
 31
0.0
  0
LINE
  5
2B5
330
A
100
AcDbEntity
  8
1
  6
CONTINUOUS
370
    50
100
AcDbLine
 10
99.494755553
 20
201.0955176614
 30
0.0
 11
99.194755553
 21
201.3955176614
 31
0.0
  0
ARC
  5
2B6
330
A
100
AcDbEntity
  8
1
  6
CONTINUOUS
370
    50
100
AcDbCircle
 10
98.994755553
 20
130.2705176614
 30
0.0
 40
0.5
100
AcDbArc
 50
0.0
 51
66.4218215218
  0
ARC
  5
2B7
330
A
100
AcDbEntity
  8
1
  6
CONTINUOUS
370
    50
100
AcDbCircle
 10
98.994755553
 20
200.5205176614
 30
0.0
 40
0.5
100
AcDbArc
 50
293.5781784782001
 51
0.0
  0
LINE
  5
2B8
330
A
100
AcDbEntity
  8
1
  6
CONTINUOUS
370
    50
100
AcDbLine
 10
77.6822173544
 20
160.0564196138
 30
0.0
 11
104.1449545736
 21
152.461905754
 31
0.0
  0
LINE
  5
2B9
330
A
100
AcDbEntity
  8
1
  6
CONTINUOUS
370
    50
100
AcDbLine
 10
105.3035401089
 20
156.4989442177
 30
0.0
 11
80.4723509961
 21
163.625221757
 31
0.0
  0
LINE
  5
2BA
330
A
100
AcDbEntity
  8
1
  6
CONTINUOUS
370
    50
100
AcDbLine
 10
197.694755553
 20
181.8955176614
 30
0.0
 11
196.8287301492
 21
181.3955176614
 31
0.0
  0
LINE
  5
2BB
330
A
100
AcDbEntity
  8
1
  6
CONTINUOUS
370
    50
100
AcDbLine
 10
196.8287301492
 20
149.3955176614
 30
0.0
 11
197.694755553
 21
148.8955176614
 31
0.0
  0
LINE
  5
2BC
330
A
100
AcDbEntity
  8
1
  6
CONTINUOUS
370
    50
100
AcDbLine
 10
139.2617428511
 20
181.6455176614
 30
0.0
 11
132.494755553
 21
181.6455176614
 31
0.0
  0
LINE
  5
2BD
330
A
100
AcDbEntity
  8
1
  6
CONTINUOUS
370
    50
100
AcDbLine
 10
132.494755553
 20
149.1455176614
 30
0.0
 11
139.2617428511
 21
149.1455176614
 31
0.0
  0
ARC
  5
2BE
330
A
100
AcDbEntity
  8
1
  6
CONTINUOUS
370
    50
100
AcDbCircle
 10
132.494755553
 20
180.8455176614
 30
0.0
 40
0.8
100
AcDbArc
 50
90.0
 51
180.0
  0
ARC
  5
2BF
330
A
100
AcDbEntity
  8
1
  6
CONTINUOUS
370
    50
100
AcDbCircle
 10
132.494755553
 20
149.9455176614
 30
0.0
 40
0.8
100
AcDbArc
 50
180.0
 51
270.0
  0
LINE
  5
2C0
330
A
100
AcDbEntity
  8
1
  6
CONTINUOUS
370
    50
100
AcDbLine
 10
196.8287301492
 20
181.3955176614
 30
0.0
 11
139.694755553
 21
181.3955176614
 31
0.0
  0
LINE
  5
2C1
330
A
100
AcDbEntity
  8
1
  6
CONTINUOUS
370
    50
100
AcDbLine
 10
139.694755553
 20
149.3955176614
 30
0.0
 11
196.8287301492
 21
149.3955176614
 31
0.0
  0
LINE
  5
2C2
330
A
100
AcDbEntity
  8
1
  6
CONTINUOUS
370
    50
100
AcDbLine
 10
131.694755553
 20
180.3955176614
 30
0.0
 11
130.0796376384
 21
175.9580176614
 31
0.0
  0
LINE
  5
2C3
330
A
100
AcDbEntity
  8
1
  6
CONTINUOUS
370
    50
100
AcDbLine
 10
130.0796376384
 20
154.8330176614
 30
0.0
 11
131.694755553
 21
150.3955176614
 31
0.0
  0
ARC
  5
2C4
330
A
100
AcDbEntity
  8
1
  6
CONTINUOUS
370
    50
100
AcDbCircle
 10
-1.905244447
 20
179.8955176614
 30
0.0
 40
2.0
100
AcDbArc
 50
180.0
 51
270.0
  0
ARC
  5
2C5
330
A
100
AcDbEntity
  8
1
  6
CONTINUOUS
370
    50
100
AcDbCircle
 10
-1.905244447
 20
150.8955176614
 30
0.0
 40
2.0
100
AcDbArc
 50
90.0
 51
180.0
  0
LINE
  5
2C6
330
A
100
AcDbEntity
  8
1
  6
CONTINUOUS
370
    50
100
AcDbLine
 10
139.2617428511
 20
149.1455176614
 30
0.0
 11
139.694755553
 21
149.3955176614
 31
0.0
  0
LINE
  5
2C7
330
A
100
AcDbEntity
  8
1
  6
CONTINUOUS
370
    50
100
AcDbLine
 10
139.694755553
 20
181.3955176614
 30
0.0
 11
139.2617428511
 21
181.6455176614
 31
0.0
  0
LINE
  5
2C8
330
A
100
AcDbEntity
  8
1
  6
CONTINUOUS
370
    50
100
AcDbLine
 10
7.844755553
 20
177.8955176614
 30
0.0
 11
-1.905244447
 21
177.8955176614
 31
0.0
  0
LINE
  5
2C9
330
A
100
AcDbEntity
  8
1
  6
CONTINUOUS
370
    50
100
AcDbLine
 10
-1.905244447
 20
152.8955176614
 30
0.0
 11
7.844755553
 21
152.8955176614
 31
0.0
  0
LINE
  5
2CA
330
A
100
AcDbEntity
  8
1
  6
CONTINUOUS
370
    50
100
AcDbLine
 10
7.844755553
 20
152.8955176614
 30
0.0
 11
8.9633716995
 21
154.8330176614
 31
0.0
  0
LINE
  5
2CB
330
A
100
AcDbEntity
  8
1
  6
CONTINUOUS
370
    50
100
AcDbLine
 10
8.9633716995
 20
175.9580176614
 30
0.0
 11
7.844755553
 21
177.8955176614
 31
0.0
  0
LINE
  5
2CC
330
A
100
AcDbEntity
  8
1
  6
CONTINUOUS
370
    50
100
AcDbLine
 10
130.0796376384
 20
175.9580176614
 30
0.0
 11
45.094805553
 21
175.9580176614
 31
0.0
  0
LINE
  5
2CD
330
A
100
AcDbEntity
  8
1
  6
CONTINUOUS
370
    50
100
AcDbLine
 10
45.094805553
 20
154.8330176614
 30
0.0
 11
130.0796376384
 21
154.8330176614
 31
0.0
  0
LINE
  5
2CE
330
A
100
AcDbEntity
  8
1
  6
CONTINUOUS
370
    50
100
AcDbLine
 10
45.094705553
 20
175.9580176614
 30
0.0
 11
8.9633716995
 21
175.9580176614
 31
0.0
  0
LINE
  5
2CF
330
A
100
AcDbEntity
  8
1
  6
CONTINUOUS
370
    50
100
AcDbLine
 10
8.9633716995
 20
154.8330176614
 30
0.0
 11
45.094705553
 21
154.8330176614
 31
0.0
  0
LINE
  5
2D0
330
A
100
AcDbEntity
  8
1
  6
CONTINUOUS
370
    50
100
AcDbLine
 10
113.794755553
 20
198.4955176614
 30
0.0
 11
113.794755553
 21
202.8955176614
 31
0.0
  0
LINE
  5
2D1
330
A
100
AcDbEntity
  8
1
  6
CONTINUOUS
370
    50
100
AcDbLine
 10
103.794755553
 20
202.8955176614
 30
0.0
 11
103.794755553
 21
198.4955176614
 31
0.0
  0
ARC
  5
2D2
330
A
100
AcDbEntity
  8
1
  6
CONTINUOUS
370
    50
100
AcDbCircle
 10
113.494755553
 20
198.4955176614
 30
0.0
 40
0.3
100
AcDbArc
 50
270.0
 51
0.0
  0
ARC
  5
2D3
330
A
100
AcDbEntity
  8
1
  6
CONTINUOUS
370
    50
100
AcDbCircle
 10
104.094755553
 20
198.4955176614
 30
0.0
 40
0.3
100
AcDbArc
 50
180.0
 51
270.0
  0
LINE
  5
2D4
330
A
100
AcDbEntity
  8
1
  6
CONTINUOUS
370
    50
100
AcDbLine
 10
107.0627047454
 20
198.1955176614
 30
0.0
 11
108.794755553
 21
197.1955176614
 31
0.0
  0
LINE
  5
2D5
330
A
100
AcDbEntity
  8
1
  6
CONTINUOUS
370
    50
100
AcDbLine
 10
108.794755553
 20
197.1955176614
 30
0.0
 11
110.5268063605
 21
198.1955176614
 31
0.0
  0
LINE
  5
2D6
330
A
100
AcDbEntity
  8
1
  6
CONTINUOUS
370
    50
100
AcDbLine
 10
80.4723509961
 20
167.1658135658
 30
0.0
 11
105.3035401089
 21
174.2920911051
 31
0.0
  0
LINE
  5
2D7
330
A
100
AcDbEntity
  8
1
  6
CONTINUOUS
370
    50
100
AcDbLine
 10
104.1449545736
 20
178.3291295688
 30
0.0
 11
77.6822173544
 21
170.7346157089
 31
0.0
  0
LINE
  5
2D8
330
A
100
AcDbEntity
  8
1
  6
CONTINUOUS
370
    50
100
AcDbLine
 10
105.3112005533
 20
174.2942895682
 30
0.0
 11
114.5037338707
 21
176.9324452929
 31
0.0
  0
LINE
  5
2D9
330
A
100
AcDbEntity
  8
1
  6
CONTINUOUS
370
    50
100
AcDbLine
 10
113.3451483355
 20
180.9694837566
 30
0.0
 11
104.152615018
 21
178.3313280319
 31
0.0
  0
LINE
  5
2DA
330
A
100
AcDbEntity
  8
1
  6
CONTINUOUS
370
    50
100
AcDbLine
 10
99.194755553
 20
177.7836671319
 30
0.0
 11
106.3233173912
 21
175.7378484687
 31
0.0
  0
LINE
  5
2DB
330
A
100
AcDbEntity
  8
1
  6
CONTINUOUS
370
    50
100
AcDbLine
 10
107.379322012
 20
179.3881798821
 30
0.0
 11
99.194755553
 21
181.7370602302
 31
0.0
  0
LINE
  5
2DC
330
A
100
AcDbEntity
  8
1
  6
CONTINUOUS
370
    50
100
AcDbLine
 10
115.0246829417
 20
176.561768631
 30
0.0
 11
116.744755553
 21
177.0554105085
 31
0.0
  0
LINE
  5
2DD
330
A
100
AcDbEntity
  8
1
  6
CONTINUOUS
370
    50
100
AcDbLine
 10
116.744755553
 20
182.4653168536
 30
0.0
 11
113.5902437076
 21
181.5600067289
 31
0.0
  0
LINE
  5
2DE
330
A
100
AcDbEntity
  8
1
  6
CONTINUOUS
370
    50
100
AcDbLine
 10
112.6955001443
 20
180.3628986519
 30
0.0
 11
112.6224708421
 21
180.0025887713
 31
0.0
  0
LINE
  5
2DF
330
A
100
AcDbEntity
  8
1
  6
CONTINUOUS
370
    50
100
AcDbLine
 10
113.3782957172
 20
177.3689514609
 30
0.0
 11
113.6312833231
 21
177.102204839
 31
0.0
  0
LINE
  5
2E0
330
A
100
AcDbEntity
  8
1
  6
CONTINUOUS
370
    50
100
AcDbLine
 10
121.744755553
 20
200.3955176614
 30
0.0
 11
121.744755553
 21
130.3955176614
 31
0.0
  0
LINE
  5
2E1
330
A
100
AcDbEntity
  8
1
  6
CONTINUOUS
370
    50
100
AcDbLine
 10
184.8909079757
 20
153.0030172869
 30
0.0
 11
184.8909079757
 21
130.3955176614
 31
0.0
  0
LINE
  5
2E2
330
A
100
AcDbEntity
  8
1
  6
CONTINUOUS
370
    50
100
AcDbLine
 10
184.8909079757
 20
200.3955176614
 30
0.0
 11
184.8909079757
 21
182.383376402
 31
0.0
  0
LINE
  5
2E3
330
A
100
AcDbEntity
  8
1
  6
CONTINUOUS
370
    50
100
AcDbLine
 10
186.3909079757
 20
153.9828084053
 30
0.0
 11
186.3909079757
 21
130.79744145
 31
0.0
  0
LINE
  5
2E4
330
A
100
AcDbEntity
  8
1
  6
CONTINUOUS
370
    50
100
AcDbLine
 10
186.3909079757
 20
199.9935938727
 30
0.0
 11
186.3909079757
 21
181.4035852836
 31
0.0
  0
LINE
  5
2E5
330
A
100
AcDbEntity
  8
1
  6
CONTINUOUS
370
    50
100
AcDbLine
 10
98.994755553
 20
200.0205176614
 30
0.0
 11
98.994755553
 21
130.7705176614
 31
0.0
  0
LINE
  5
2E6
330
A
100
AcDbEntity
  8
1
  6
CONTINUOUS
370
    50
100
AcDbLine
 10
-1.9799379584
 20
145.0065331321
 30
0.0
 11
-1.9799379584
 21
185.7845021907
 31
0.0
  0
LINE
  5
2E7
330
A
100
AcDbEntity
  8
1
  6
CONTINUOUS
370
    50
100
AcDbLine
 10
97.8483089436
 20
200.1669642708
 30
0.0
 11
97.8483089436
 21
130.624071052
 31
0.0
  0
LINE
  5
2E8
330
A
100
AcDbEntity
  8
1
  6
CONTINUOUS
370
    50
100
AcDbLine
 10
98.2018623341
 20
200.0205176614
 30
0.0
 11
98.2018623341
 21
130.7705176614
 31
0.0
  0
LINE
  5
2E9
330
A
100
AcDbEntity
  8
1
  6
CONTINUOUS
370
    50
100
AcDbLine
 10
196.194755553
 20
194.3333398349
 30
0.0
 11
196.194755553
 21
136.4576954879
 31
0.0
  0
LINE
  5
2EA
330
A
100
AcDbEntity
  8
1
  6
CONTINUOUS
370
    50
100
AcDbLine
 10
103.183980057
 20
176.3128088
 30
0.0
 11
103.3931094134
 21
175.5591669368
 31
0.0
  0
LINE
  5
2EB
330
A
100
AcDbEntity
  8
1
  6
CONTINUOUS
370
    50
100
AcDbLine
 10
103.3931094134
 20
175.5591669368
 30
0.0
 11
103.7332896825
 21
174.8792967901
 31
0.0
  0
LINE
  5
2EC
330
A
100
AcDbEntity
  8
1
  6
CONTINUOUS
370
    50
100
AcDbLine
 10
103.7332896825
 20
174.8792967901
 30
0.0
 11
104.1712216494
 21
174.3397487867
 31
0.0
  0
LINE
  5
2ED
330
A
100
AcDbEntity
  8
1
  6
CONTINUOUS
370
    50
100
AcDbLine
 10
104.1712216494
 20
174.3397487867
 30
0.0
 11
104.6640374817
 21
173.9933376446
 31
0.0
  0
LINE
  5
2EE
330
A
100
AcDbEntity
  8
1
  6
CONTINUOUS
370
    50
100
AcDbLine
 10
104.6640374817
 20
173.9933376446
 30
0.0
 11
105.1634969323
 21
173.8739724999
 31
0.0
  0
LINE
  5
2EF
330
A
100
AcDbEntity
  8
1
  6
CONTINUOUS
370
    50
100
AcDbLine
 10
105.1634969323
 20
173.8739724999
 30
0.0
 11
105.6207094302
 21
173.9933376446
 31
0.0
  0
LINE
  5
2F0
330
A
100
AcDbEntity
  8
1
  6
CONTINUOUS
370
    50
100
AcDbLine
 10
105.6207094302
 20
173.9933376446
 30
0.0
 11
105.9909198304
 21
174.3397487867
 31
0.0
  0
LINE
  5
2F1
330
A
100
AcDbEntity
  8
1
  6
CONTINUOUS
370
    50
100
AcDbLine
 10
105.9909198304
 20
174.3397487867
 30
0.0
 11
106.2378893597
 21
174.8792967901
 31
0.0
  0
LINE
  5
2F2
330
A
100
AcDbEntity
  8
1
  6
CONTINUOUS
370
    50
100
AcDbLine
 10
106.2378893597
 20
174.8792967901
 30
0.0
 11
106.3374429197
 21
175.5591669368
 31
0.0
  0
LINE
  5
2F3
330
A
100
AcDbEntity
  8
1
  6
CONTINUOUS
370
    50
100
AcDbLine
 10
106.3374429197
 20
175.5591669368
 30
0.0
 11
106.2798355144
 21
176.3128088
 31
0.0
  0
LINE
  5
2F4
330
A
100
AcDbEntity
  8
1
  6
CONTINUOUS
370
    50
100
AcDbLine
 10
106.2798355144
 20
176.3128088
 30
0.0
 11
106.0707061579
 21
177.0664506633
 31
0.0
  0
LINE
  5
2F5
330
A
100
AcDbEntity
  8
1
  6
CONTINUOUS
370
    50
100
AcDbLine
 10
106.0707061579
 20
177.0664506633
 30
0.0
 11
105.7305258888
 21
177.74632081
 31
0.0
  0
LINE
  5
2F6
330
A
100
AcDbEntity
  8
1
  6
CONTINUOUS
370
    50
100
AcDbLine
 10
105.7305258888
 20
177.74632081
 30
0.0
 11
105.292593922
 21
178.2858688133
 31
0.0
  0
LINE
  5
2F7
330
A
100
AcDbEntity
  8
1
  6
CONTINUOUS
370
    50
100
AcDbLine
 10
105.292593922
 20
178.2858688133
 30
0.0
 11
104.7997780896
 21
178.6322799554
 31
0.0
  0
LINE
  5
2F8
330
A
100
AcDbEntity
  8
1
  6
CONTINUOUS
370
    50
100
AcDbLine
 10
104.7997780896
 20
178.6322799554
 30
0.0
 11
104.300318639
 21
178.7516451002
 31
0.0
  0
LINE
  5
2F9
330
A
100
AcDbEntity
  8
1
  6
CONTINUOUS
370
    50
100
AcDbLine
 10
104.300318639
 20
178.7516451002
 30
0.0
 11
103.8431061411
 21
178.6322799554
 31
0.0
  0
LINE
  5
2FA
330
A
100
AcDbEntity
  8
1
  6
CONTINUOUS
370
    50
100
AcDbLine
 10
103.8431061411
 20
178.6322799554
 30
0.0
 11
103.4728957409
 21
178.2858688133
 31
0.0
  0
LINE
  5
2FB
330
A
100
AcDbEntity
  8
1
  6
CONTINUOUS
370
    50
100
AcDbLine
 10
103.4728957409
 20
178.2858688133
 30
0.0
 11
103.2259262116
 21
177.74632081
 31
0.0
  0
LINE
  5
2FC
330
A
100
AcDbEntity
  8
1
  6
CONTINUOUS
370
    50
100
AcDbLine
 10
103.2259262116
 20
177.74632081
 30
0.0
 11
103.1263726516
 21
177.0664506633
 31
0.0
  0
LINE
  5
2FD
330
A
100
AcDbEntity
  8
1
  6
CONTINUOUS
370
    50
100
AcDbLine
 10
103.1263726516
 20
177.0664506633
 30
0.0
 11
103.183980057
 21
176.3128088
 31
0.0
  0
LINE
  5
2FE
330
A
100
AcDbEntity
  8
1
  6
CONTINUOUS
370
    50
100
AcDbLine
 10
112.6829311516
 20
179.0389030489
 30
0.0
 11
112.6253237463
 21
179.7925449121
 31
0.0
  0
LINE
  5
2FF
330
A
100
AcDbEntity
  8
1
  6
CONTINUOUS
370
    50
100
AcDbLine
 10
112.6253237463
 20
179.7925449121
 30
0.0
 11
112.7248773063
 21
180.4724150589
 31
0.0
  0
LINE
  5
300
330
A
100
AcDbEntity
  8
1
  6
CONTINUOUS
370
    50
100
AcDbLine
 10
112.7248773063
 20
180.4724150589
 30
0.0
 11
112.9718468356
 21
181.0119630622
 31
0.0
  0
LINE
  5
301
330
A
100
AcDbEntity
  8
1
  6
CONTINUOUS
370
    50
100
AcDbLine
 10
112.9718468356
 20
181.0119630622
 30
0.0
 11
113.3420572358
 21
181.3583742043
 31
0.0
  0
LINE
  5
302
330
A
100
AcDbEntity
  8
1
  6
CONTINUOUS
370
    50
100
AcDbLine
 10
113.3420572358
 20
181.3583742043
 30
0.0
 11
113.7992697337
 21
181.477739349
 31
0.0
  0
LINE
  5
303
330
A
100
AcDbEntity
  8
1
  6
CONTINUOUS
370
    50
100
AcDbLine
 10
113.7992697337
 20
181.477739349
 30
0.0
 11
114.2987291843
 21
181.3583742043
 31
0.0
  0
LINE
  5
304
330
A
100
AcDbEntity
  8
1
  6
CONTINUOUS
370
    50
100
AcDbLine
 10
114.2987291843
 20
181.3583742043
 30
0.0
 11
114.7915450167
 21
181.0119630622
 31
0.0
  0
LINE
  5
305
330
A
100
AcDbEntity
  8
1
  6
CONTINUOUS
370
    50
100
AcDbLine
 10
114.7915450167
 20
181.0119630622
 30
0.0
 11
115.2294769835
 21
180.4724150589
 31
0.0
  0
LINE
  5
306
330
A
100
AcDbEntity
  8
1
  6
CONTINUOUS
370
    50
100
AcDbLine
 10
115.2294769835
 20
180.4724150589
 30
0.0
 11
115.5696572526
 21
179.7925449121
 31
0.0
  0
LINE
  5
307
330
A
100
AcDbEntity
  8
1
  6
CONTINUOUS
370
    50
100
AcDbLine
 10
115.5696572526
 20
179.7925449121
 30
0.0
 11
115.778786609
 21
179.0389030489
 31
0.0
  0
LINE
  5
308
330
A
100
AcDbEntity
  8
1
  6
CONTINUOUS
370
    50
100
AcDbLine
 10
115.778786609
 20
179.0389030489
 30
0.0
 11
115.8363940144
 21
178.2852611857
 31
0.0
  0
LINE
  5
309
330
A
100
AcDbEntity
  8
1
  6
CONTINUOUS
370
    50
100
AcDbLine
 10
115.8363940144
 20
178.2852611857
 30
0.0
 11
115.7368404544
 21
177.6053910389
 31
0.0
  0
LINE
  5
30A
330
A
100
AcDbEntity
  8
1
  6
CONTINUOUS
370
    50
100
AcDbLine
 10
115.7368404544
 20
177.6053910389
 30
0.0
 11
115.4898709251
 21
177.0658430356
 31
0.0
  0
LINE
  5
30B
330
A
100
AcDbEntity
  8
1
  6
CONTINUOUS
370
    50
100
AcDbLine
 10
115.4898709251
 20
177.0658430356
 30
0.0
 11
115.1196605249
 21
176.7194318935
 31
0.0
  0
LINE
  5
30C
330
A
100
AcDbEntity
  8
1
  6
CONTINUOUS
370
    50
100
AcDbLine
 10
115.1196605249
 20
176.7194318935
 30
0.0
 11
114.662448027
 21
176.6000667488
 31
0.0
  0
LINE
  5
30D
330
A
100
AcDbEntity
  8
1
  6
CONTINUOUS
370
    50
100
AcDbLine
 10
114.662448027
 20
176.6000667488
 30
0.0
 11
114.1629885764
 21
176.7194318935
 31
0.0
  0
LINE
  5
30E
330
A
100
AcDbEntity
  8
1
  6
CONTINUOUS
370
    50
100
AcDbLine
 10
114.1629885764
 20
176.7194318935
 30
0.0
 11
113.670172744
 21
177.0658430356
 31
0.0
  0
LINE
  5
30F
330
A
100
AcDbEntity
  8
1
  6
CONTINUOUS
370
    50
100
AcDbLine
 10
113.670172744
 20
177.0658430356
 30
0.0
 11
113.2322407772
 21
177.6053910389
 31
0.0
  0
LINE
  5
310
330
A
100
AcDbEntity
  8
1
  6
CONTINUOUS
370
    50
100
AcDbLine
 10
113.2322407772
 20
177.6053910389
 30
0.0
 11
112.8920605081
 21
178.2852611857
 31
0.0
  0
LINE
  5
311
330
A
100
AcDbEntity
  8
1
  6
CONTINUOUS
370
    50
100
AcDbLine
 10
112.8920605081
 20
178.2852611857
 30
0.0
 11
112.6829311516
 21
179.0389030489
 31
0.0
  0
LINE
  5
312
330
A
100
AcDbEntity
  8
1
  6
CONTINUOUS
370
    50
100
AcDbLine
 10
115.778786609
 20
151.7521322738
 30
0.0
 11
115.8363940144
 21
152.5057741371
 31
0.0
  0
LINE
  5
313
330
A
100
AcDbEntity
  8
1
  6
CONTINUOUS
370
    50
100
AcDbLine
 10
115.8363940144
 20
152.5057741371
 30
0.0
 11
115.7368404544
 21
153.1856442838
 31
0.0
  0
LINE
  5
314
330
A
100
AcDbEntity
  8
1
  6
CONTINUOUS
370
    50
100
AcDbLine
 10
115.7368404544
 20
153.1856442838
 30
0.0
 11
115.4898709251
 21
153.7251922871
 31
0.0
  0
LINE
  5
315
330
A
100
AcDbEntity
  8
1
  6
CONTINUOUS
370
    50
100
AcDbLine
 10
115.4898709251
 20
153.7251922871
 30
0.0
 11
115.1196605249
 21
154.0716034292
 31
0.0
  0
LINE
  5
316
330
A
100
AcDbEntity
  8
1
  6
CONTINUOUS
370
    50
100
AcDbLine
 10
115.1196605249
 20
154.0716034292
 30
0.0
 11
114.662448027
 21
154.190968574
 31
0.0
  0
LINE
  5
317
330
A
100
AcDbEntity
  8
1
  6
CONTINUOUS
370
    50
100
AcDbLine
 10
114.662448027
 20
154.190968574
 30
0.0
 11
114.1629885764
 21
154.0716034292
 31
0.0
  0
LINE
  5
318
330
A
100
AcDbEntity
  8
1
  6
CONTINUOUS
370
    50
100
AcDbLine
 10
114.1629885764
 20
154.0716034292
 30
0.0
 11
113.670172744
 21
153.7251922871
 31
0.0
  0
LINE
  5
319
330
A
100
AcDbEntity
  8
1
  6
CONTINUOUS
370
    50
100
AcDbLine
 10
113.670172744
 20
153.7251922871
 30
0.0
 11
113.2322407772
 21
153.1856442838
 31
0.0
  0
LINE
  5
31A
330
A
100
AcDbEntity
  8
1
  6
CONTINUOUS
370
    50
100
AcDbLine
 10
113.2322407772
 20
153.1856442838
 30
0.0
 11
112.8920605081
 21
152.5057741371
 31
0.0
  0
LINE
  5
31B
330
A
100
AcDbEntity
  8
1
  6
CONTINUOUS
370
    50
100
AcDbLine
 10
112.8920605081
 20
152.5057741371
 30
0.0
 11
112.6829311516
 21
151.7521322738
 31
0.0
  0
LINE
  5
31C
330
A
100
AcDbEntity
  8
1
  6
CONTINUOUS
370
    50
100
AcDbLine
 10
112.6829311516
 20
151.7521322738
 30
0.0
 11
112.6253237463
 21
150.9984904106
 31
0.0
  0
LINE
  5
31D
330
A
100
AcDbEntity
  8
1
  6
CONTINUOUS
370
    50
100
AcDbLine
 10
112.6253237463
 20
150.9984904106
 30
0.0
 11
112.7248773063
 21
150.3186202639
 31
0.0
  0
LINE
  5
31E
330
A
100
AcDbEntity
  8
1
  6
CONTINUOUS
370
    50
100
AcDbLine
 10
112.7248773063
 20
150.3186202639
 30
0.0
 11
112.9718468356
 21
149.7790722605
 31
0.0
  0
LINE
  5
31F
330
A
100
AcDbEntity
  8
1
  6
CONTINUOUS
370
    50
100
AcDbLine
 10
112.9718468356
 20
149.7790722605
 30
0.0
 11
113.3420572358
 21
149.4326611184
 31
0.0
  0
LINE
  5
320
330
A
100
AcDbEntity
  8
1
  6
CONTINUOUS
370
    50
100
AcDbLine
 10
113.3420572358
 20
149.4326611184
 30
0.0
 11
113.7992697337
 21
149.3132959737
 31
0.0
  0
LINE
  5
321
330
A
100
AcDbEntity
  8
1
  6
CONTINUOUS
370
    50
100
AcDbLine
 10
113.7992697337
 20
149.3132959737
 30
0.0
 11
114.2987291843
 21
149.4326611184
 31
0.0
  0
LINE
  5
322
330
A
100
AcDbEntity
  8
1
  6
CONTINUOUS
370
    50
100
AcDbLine
 10
114.2987291843
 20
149.4326611184
 30
0.0
 11
114.7915450167
 21
149.7790722605
 31
0.0
  0
LINE
  5
323
330
A
100
AcDbEntity
  8
1
  6
CONTINUOUS
370
    50
100
AcDbLine
 10
114.7915450167
 20
149.7790722605
 30
0.0
 11
115.2294769835
 21
150.3186202639
 31
0.0
  0
LINE
  5
324
330
A
100
AcDbEntity
  8
1
  6
CONTINUOUS
370
    50
100
AcDbLine
 10
115.2294769835
 20
150.3186202639
 30
0.0
 11
115.5696572526
 21
150.9984904106
 31
0.0
  0
LINE
  5
325
330
A
100
AcDbEntity
  8
1
  6
CONTINUOUS
370
    50
100
AcDbLine
 10
115.5696572526
 20
150.9984904106
 30
0.0
 11
115.778786609
 21
151.7521322738
 31
0.0
  0
LINE
  5
326
330
A
100
AcDbEntity
  8
1
  6
CONTINUOUS
370
    50
100
AcDbLine
 10
106.2798355144
 20
154.4782265227
 30
0.0
 11
106.0707061579
 21
153.7245846595
 31
0.0
  0
LINE
  5
327
330
A
100
AcDbEntity
  8
1
  6
CONTINUOUS
370
    50
100
AcDbLine
 10
106.0707061579
 20
153.7245846595
 30
0.0
 11
105.7305258888
 21
153.0447145127
 31
0.0
  0
LINE
  5
328
330
A
100
AcDbEntity
  8
1
  6
CONTINUOUS
370
    50
100
AcDbLine
 10
105.7305258888
 20
153.0447145127
 30
0.0
 11
105.292593922
 21
152.5051665094
 31
0.0
  0
LINE
  5
329
330
A
100
AcDbEntity
  8
1
  6
CONTINUOUS
370
    50
100
AcDbLine
 10
105.292593922
 20
152.5051665094
 30
0.0
 11
104.7997780896
 21
152.1587553673
 31
0.0
  0
LINE
  5
32A
330
A
100
AcDbEntity
  8
1
  6
CONTINUOUS
370
    50
100
AcDbLine
 10
104.7997780896
 20
152.1587553673
 30
0.0
 11
104.300318639
 21
152.0393902226
 31
0.0
  0
LINE
  5
32B
330
A
100
AcDbEntity
  8
1
  6
CONTINUOUS
370
    50
100
AcDbLine
 10
104.300318639
 20
152.0393902226
 30
0.0
 11
103.8431061411
 21
152.1587553673
 31
0.0
  0
LINE
  5
32C
330
A
100
AcDbEntity
  8
1
  6
CONTINUOUS
370
    50
100
AcDbLine
 10
103.8431061411
 20
152.1587553673
 30
0.0
 11
103.4728957409
 21
152.5051665094
 31
0.0
  0
LINE
  5
32D
330
A
100
AcDbEntity
  8
1
  6
CONTINUOUS
370
    50
100
AcDbLine
 10
103.4728957409
 20
152.5051665094
 30
0.0
 11
103.2259262116
 21
153.0447145127
 31
0.0
  0
LINE
  5
32E
330
A
100
AcDbEntity
  8
1
  6
CONTINUOUS
370
    50
100
AcDbLine
 10
103.2259262116
 20
153.0447145127
 30
0.0
 11
103.1263726516
 21
153.7245846595
 31
0.0
  0
LINE
  5
32F
330
A
100
AcDbEntity
  8
1
  6
CONTINUOUS
370
    50
100
AcDbLine
 10
103.1263726516
 20
153.7245846595
 30
0.0
 11
103.183980057
 21
154.4782265227
 31
0.0
  0
LINE
  5
330
330
A
100
AcDbEntity
  8
1
  6
CONTINUOUS
370
    50
100
AcDbLine
 10
103.183980057
 20
154.4782265227
 30
0.0
 11
103.3931094134
 21
155.2318683859
 31
0.0
  0
LINE
  5
331
330
A
100
AcDbEntity
  8
1
  6
CONTINUOUS
370
    50
100
AcDbLine
 10
103.3931094134
 20
155.2318683859
 30
0.0
 11
103.7332896825
 21
155.9117385327
 31
0.0
  0
LINE
  5
332
330
A
100
AcDbEntity
  8
1
  6
CONTINUOUS
370
    50
100
AcDbLine
 10
103.7332896825
 20
155.9117385327
 30
0.0
 11
104.1712216494
 21
156.451286536
 31
0.0
  0
LINE
  5
333
330
A
100
AcDbEntity
  8
1
  6
CONTINUOUS
370
    50
100
AcDbLine
 10
104.1712216494
 20
156.451286536
 30
0.0
 11
104.6640374817
 21
156.7976976781
 31
0.0
  0
LINE
  5
334
330
A
100
AcDbEntity
  8
1
  6
CONTINUOUS
370
    50
100
AcDbLine
 10
104.6640374817
 20
156.7976976781
 30
0.0
 11
105.1634969323
 21
156.9170628228
 31
0.0
  0
LINE
  5
335
330
A
100
AcDbEntity
  8
1
  6
CONTINUOUS
370
    50
100
AcDbLine
 10
105.1634969323
 20
156.9170628228
 30
0.0
 11
105.6207094302
 21
156.7976976781
 31
0.0
  0
LINE
  5
336
330
A
100
AcDbEntity
  8
1
  6
CONTINUOUS
370
    50
100
AcDbLine
 10
105.6207094302
 20
156.7976976781
 30
0.0
 11
105.9909198304
 21
156.451286536
 31
0.0
  0
LINE
  5
337
330
A
100
AcDbEntity
  8
1
  6
CONTINUOUS
370
    50
100
AcDbLine
 10
105.9909198304
 20
156.451286536
 30
0.0
 11
106.2378893597
 21
155.9117385327
 31
0.0
  0
LINE
  5
338
330
A
100
AcDbEntity
  8
1
  6
CONTINUOUS
370
    50
100
AcDbLine
 10
106.2378893597
 20
155.9117385327
 30
0.0
 11
106.3374429197
 21
155.2318683859
 31
0.0
  0
LINE
  5
339
330
A
100
AcDbEntity
  8
1
  6
CONTINUOUS
370
    50
100
AcDbLine
 10
106.3374429197
 20
155.2318683859
 30
0.0
 11
106.2798355144
 21
154.4782265227
 31
0.0
  0
LINE
  5
33A
330
A
100
AcDbEntity
  8
1
  6
CONTINUOUS
370
    50
100
AcDbLine
 10
45.094705553
 20
177.3955176614
 30
0.0
 11
8.1334306876
 21
177.3955176614
 31
0.0
  0
LINE
  5
33B
330
A
100
AcDbEntity
  8
1
  6
CONTINUOUS
370
    50
100
AcDbLine
 10
8.1334306876
 20
153.3955176614
 30
0.0
 11
45.094705553
 21
153.3955176614
 31
0.0
  0
LINE
  5
33C
330
A
100
AcDbEntity
  8
1
  6
CONTINUOUS
370
    50
100
AcDbLine
 10
45.094705553
 20
177.3955176614
 30
0.0
 11
45.094705553
 21
177.2733749639
 31
0.0
  0
LINE
  5
33D
330
A
100
AcDbEntity
  8
1
  6
CONTINUOUS
370
    50
100
AcDbLine
 10
45.094705553
 20
177.2733749639
 30
0.0
 11
45.094705553
 21
153.3955176614
 31
0.0
  0
LINE
  5
33E
330
A
100
AcDbEntity
  8
1
  6
CONTINUOUS
370
    50
100
AcDbLine
 10
45.094755553
 20
177.3955176614
 30
0.0
 11
45.094755553
 21
177.2733749639
 31
0.0
  0
LINE
  5
33F
330
A
100
AcDbEntity
  8
1
  6
CONTINUOUS
370
    50
100
AcDbLine
 10
45.094755553
 20
177.2733749639
 30
0.0
 11
45.094755553
 21
153.3955176614
 31
0.0
  0
ARC
  5
340
330
A
100
AcDbEntity
  8
1
  6
CONTINUOUS
370
    50
100
AcDbCircle
 10
174.194755553
 20
165.3955176614
 30
0.0
 40
10.0
100
AcDbArc
 50
75.0
 51
345.0
  0
ARC
  5
341
330
A
100
AcDbEntity
  8
1
  6
CONTINUOUS
370
    50
100
AcDbCircle
 10
146.194755553
 20
165.3955176614
 30
0.0
 40
10.0
100
AcDbArc
 50
75.0
 51
345.0
  0
ARC
  5
342
330
A
100
AcDbEntity
  8
1
  6
CONTINUOUS
370
    50
100
AcDbCircle
 10
146.194755553
 20
165.3955176614
 30
0.0
 40
10.0
100
AcDbArc
 50
75.0
 51
345.0
  0
ENDSEC
  0
SECTION
  2
OBJECTS
  0
DICTIONARY
  5
19
330
0
100
AcDbDictionary
281
     1
  3
ACAD_GROUP
350
1A
  3
ACAD_LAYOUT
350
367
  3
ACAD_MATERIAL
350
37B
  3
ACAD_MLEADERSTYLE
350
383
  3
ACAD_MLINESTYLE
350
1B
  3
ACAD_SCALELIST
350
345
  3
ACAD_VISUALSTYLE
350
36A
  3
ACDB_RECOMPOSE_DATA
350
3B0
  3
AcDbVariableDictionary
350
381
  0
DICTIONARY
  5
387
330
7
100
AcDbDictionary
280
     1
281
     1
  3
ACAD_XREC_ROUNDTRIP
360
388
  0
DICTIONARY
  5
1A
102
{ACAD_REACTORS
330
19
102
}
330
19
100
AcDbDictionary
281
     1
  0
DICTIONARY
  5
367
102
{ACAD_REACTORS
330
19
102
}
330
19
100
AcDbDictionary
281
     1
  3
Layout1
350
369
  3
Model
350
368
  0
DICTIONARY
  5
37B
102
{ACAD_REACTORS
330
19
102
}
330
19
100
AcDbDictionary
281
     1
  3
ByBlock
350
37D
  3
ByLayer
350
37C
  3
Global
350
37E
  0
DICTIONARY
  5
383
102
{ACAD_REACTORS
330
19
102
}
330
19
100
AcDbDictionary
281
     1
  0
DICTIONARY
  5
1B
102
{ACAD_REACTORS
330
19
102
}
330
19
100
AcDbDictionary
281
     1
  3
STANDARD
350
1C
  0
DICTIONARY
  5
345
102
{ACAD_REACTORS
330
19
102
}
330
19
100
AcDbDictionary
281
     1
  3
A0
350
346
  3
A1
350
347
  3
A2
350
348
  3
A3
350
349
  3
A4
350
34A
  3
A5
350
34B
  3
A6
350
34C
  3
A7
350
34D
  3
A8
350
34E
  3
A9
350
34F
  3
B0
350
350
  3
B1
350
351
  3
B2
350
352
  3
B3
350
353
  3
B4
350
354
  3
B5
350
355
  3
B6
350
356
  3
B7
350
357
  3
B8
350
358
  3
B9
350
359
  3
C0
350
35A
  3
C1
350
35B
  3
C2
350
35C
  3
C3
350
35D
  3
C4
350
35E
  3
C5
350
35F
  3
C6
350
360
  3
C7
350
361
  3
C8
350
362
  3
C9
350
363
  3
D0
350
364
  3
D1
350
365
  3
D2
350
366
  0
DICTIONARY
  5
36A
102
{ACAD_REACTORS
330
19
102
}
330
19
100
AcDbDictionary
281
     1
  3
2dWireframe
350
36F
  3
3D Hidden
350
371
  3
3dWireframe
350
370
  3
Basic
350
372
  3
Brighten
350
376
  3
ColorChange
350
37A
  3
Conceptual
350
374
  3
Dim
350
375
  3
Facepattern
350
379
  3
Flat
350
36B
  3
FlatWithEdges
350
36C
  3
Gouraud
350
36D
  3
GouraudWithEdges
350
36E
  3
Linepattern
350
378
  3
Realistic
350
373
  3
Thicken
350
377
  0
XRECORD
  5
3B0
102
{ACAD_REACTORS
330
19
102
}
330
19
100
AcDbXrecord
280
     1
  0
DICTIONARY
  5
381
102
{ACAD_REACTORS
330
19
102
}
330
19
100
AcDbDictionary
281
     1
  3
CANNOSCALE
350
389
  3
DIMASSOC
350
385
  3
HIDETEXT
350
386
  3
MSLTSCALE
350
384
  0
XRECORD
  5
388
102
{ACAD_REACTORS
330
387
102
}
330
387
100
AcDbXrecord
280
     1
102
VTR_0.000_0.000_1.000_1.000_VISUALSTYLE
340
36F
102
VTR_0.000_0.000_1.000_1.000_GRIDDISPLAY
 70
     3
102
VTR_0.000_0.000_1.000_1.000_GRIDMAJOR
 70
     5
102
VTR_0.000_0.000_1.000_1.000_DEFAULTLIGHTING
280
     1
102
VTR_0.000_0.000_1.000_1.000_DEFAULTLIGHTINGTYPE
 70
     1
102
VTR_0.000_0.000_1.000_1.000_BRIGHTNESS
141
0.0
102
VTR_0.000_0.000_1.000_1.000_CONTRAST
142
0.0
  0
LAYOUT
  5
369
102
{ACAD_REACTORS
330
367
102
}
330
367
100
AcDbPlotSettings
  1

  2
none_device
  4

  6

 40
0.0
 41
0.0
 42
0.0
 43
0.0
 44
0.0
 45
0.0
 46
0.0
 47
0.0
 48
0.0
 49
0.0
140
0.0
141
0.0
142
1.0
143
1.0
 70
   688
 72
     0
 73
     0
 74
     5
  7

 75
    16
147
1.0
148
0.0
149
0.0
100
AcDbLayout
  1
Layout1
 70
     1
 71
     1
 10
0.0
 20
0.0
 11
12.0
 21
9.0
 12
0.0
 22
0.0
 32
0.0
 14
1.000000000000000E+20
 24
1.000000000000000E+20
 34
1.000000000000000E+20
 15
-1.000000000000000E+20
 25
-1.000000000000000E+20
 35
-1.000000000000000E+20
146
0.0
 13
0.0
 23
0.0
 33
0.0
 16
1.0
 26
0.0
 36
0.0
 17
0.0
 27
1.0
 37
0.0
 76
     0
330
B
  0
LAYOUT
  5
368
102
{ACAD_REACTORS
330
367
102
}
330
367
100
AcDbPlotSettings
  1

  2
none_device
  4

  6

 40
0.0
 41
0.0
 42
0.0
 43
0.0
 44
0.0
 45
0.0
 46
0.0
 47
0.0
 48
0.0
 49
0.0
140
0.0
141
0.0
142
1.0
143
1.0
 70
  1712
 72
     0
 73
     0
 74
     0
  7

 75
     0
147
1.0
148
2667.54428576817
149
0.0
100
AcDbLayout
  1
Model
 70
     1
 71
     0
 10
0.0
 20
0.0
 11
0.0
 21
0.0
 12
0.0
 22
0.0
 32
0.0
 14
0.0
 24
0.0
 34
0.0
 15
210.0
 25
297.0
 35
0.0
146
0.0
 13
0.0
 23
0.0
 33
0.0
 16
1.0
 26
0.0
 36
0.0
 17
0.0
 27
1.0
 37
0.0
 76
     0
330
A
331
15
  0
MATERIAL
  5
37D
102
{ACAD_REACTORS
330
37B
102
}
102
{ACAD_XDICTIONARY
360
3AC
102
}
330
37B
100
AcDbMaterial
  1
ByBlock
  0
MATERIAL
  5
37C
102
{ACAD_REACTORS
330
37B
102
}
102
{ACAD_XDICTIONARY
360
3AA
102
}
330
37B
100
AcDbMaterial
  1
ByLayer
  0
MATERIAL
  5
37E
102
{ACAD_REACTORS
330
37B
102
}
102
{ACAD_XDICTIONARY
360
3AE
102
}
330
37B
100
AcDbMaterial
  1
Global
  0
MLINESTYLE
  5
1C
102
{ACAD_REACTORS
330
1B
102
}
330
1B
100
AcDbMlineStyle
  2
STANDARD
 70
     0
  3

 62
     0
 51
90.0
 52
90.0
 71
     2
 49
0.5
 62
   256
  6
BYLAYER
 49
-0.5
 62
   256
  6
BYLAYER
  0
SCALE
  5
346
102
{ACAD_REACTORS
330
345
102
}
330
345
100
AcDbScale
 70
     0
300
1:1
140
1.0
141
1.0
290
     1
  0
SCALE
  5
347
102
{ACAD_REACTORS
330
345
102
}
330
345
100
AcDbScale
 70
     0
300
1:2
140
1.0
141
2.0
290
     0
  0
SCALE
  5
348
102
{ACAD_REACTORS
330
345
102
}
330
345
100
AcDbScale
 70
     0
300
1:4
140
1.0
141
4.0
290
     0
  0
SCALE
  5
349
102
{ACAD_REACTORS
330
345
102
}
330
345
100
AcDbScale
 70
     0
300
1:5
140
1.0
141
5.0
290
     0
  0
SCALE
  5
34A
102
{ACAD_REACTORS
330
345
102
}
330
345
100
AcDbScale
 70
     0
300
1:8
140
1.0
141
8.0
290
     0
  0
SCALE
  5
34B
102
{ACAD_REACTORS
330
345
102
}
330
345
100
AcDbScale
 70
     0
300
1:10
140
1.0
141
10.0
290
     0
  0
SCALE
  5
34C
102
{ACAD_REACTORS
330
345
102
}
330
345
100
AcDbScale
 70
     0
300
1:16
140
1.0
141
16.0
290
     0
  0
SCALE
  5
34D
102
{ACAD_REACTORS
330
345
102
}
330
345
100
AcDbScale
 70
     0
300
1:20
140
1.0
141
20.0
290
     0
  0
SCALE
  5
34E
102
{ACAD_REACTORS
330
345
102
}
330
345
100
AcDbScale
 70
     0
300
1:30
140
1.0
141
30.0
290
     0
  0
SCALE
  5
34F
102
{ACAD_REACTORS
330
345
102
}
330
345
100
AcDbScale
 70
     0
300
1:40
140
1.0
141
40.0
290
     0
  0
SCALE
  5
350
102
{ACAD_REACTORS
330
345
102
}
330
345
100
AcDbScale
 70
     0
300
1:50
140
1.0
141
50.0
290
     0
  0
SCALE
  5
351
102
{ACAD_REACTORS
330
345
102
}
330
345
100
AcDbScale
 70
     0
300
1:100
140
1.0
141
100.0
290
     0
  0
SCALE
  5
352
102
{ACAD_REACTORS
330
345
102
}
330
345
100
AcDbScale
 70
     0
300
2:1
140
2.0
141
1.0
290
     0
  0
SCALE
  5
353
102
{ACAD_REACTORS
330
345
102
}
330
345
100
AcDbScale
 70
     0
300
4:1
140
4.0
141
1.0
290
     0
  0
SCALE
  5
354
102
{ACAD_REACTORS
330
345
102
}
330
345
100
AcDbScale
 70
     0
300
8:1
140
8.0
141
1.0
290
     0
  0
SCALE
  5
355
102
{ACAD_REACTORS
330
345
102
}
330
345
100
AcDbScale
 70
     0
300
10:1
140
10.0
141
1.0
290
     0
  0
SCALE
  5
356
102
{ACAD_REACTORS
330
345
102
}
330
345
100
AcDbScale
 70
     0
300
100:1
140
100.0
141
1.0
290
     0
  0
SCALE
  5
357
102
{ACAD_REACTORS
330
345
102
}
330
345
100
AcDbScale
 70
     0
300
1/128" = 1'-0"
140
0.0078125
141
12.0
290
     0
  0
SCALE
  5
358
102
{ACAD_REACTORS
330
345
102
}
330
345
100
AcDbScale
 70
     0
300
1/64" = 1'-0"
140
0.015625
141
12.0
290
     0
  0
SCALE
  5
359
102
{ACAD_REACTORS
330
345
102
}
330
345
100
AcDbScale
 70
     0
300
1/32" = 1'-0"
140
0.03125
141
12.0
290
     0
  0
SCALE
  5
35A
102
{ACAD_REACTORS
330
345
102
}
330
345
100
AcDbScale
 70
     0
300
1/16" = 1'-0"
140
0.0625
141
12.0
290
     0
  0
SCALE
  5
35B
102
{ACAD_REACTORS
330
345
102
}
330
345
100
AcDbScale
 70
     0
300
3/32" = 1'-0"
140
0.09375
141
12.0
290
     0
  0
SCALE
  5
35C
102
{ACAD_REACTORS
330
345
102
}
330
345
100
AcDbScale
 70
     0
300
1/8" = 1'-0"
140
0.125
141
12.0
290
     0
  0
SCALE
  5
35D
102
{ACAD_REACTORS
330
345
102
}
330
345
100
AcDbScale
 70
     0
300
3/16" = 1'-0"
140
0.1875
141
12.0
290
     0
  0
SCALE
  5
35E
102
{ACAD_REACTORS
330
345
102
}
330
345
100
AcDbScale
 70
     0
300
1/4" = 1'-0"
140
0.25
141
12.0
290
     0
  0
SCALE
  5
35F
102
{ACAD_REACTORS
330
345
102
}
330
345
100
AcDbScale
 70
     0
300
3/8" = 1'-0"
140
0.375
141
12.0
290
     0
  0
SCALE
  5
360
102
{ACAD_REACTORS
330
345
102
}
330
345
100
AcDbScale
 70
     0
300
1/2" = 1'-0"
140
0.5
141
12.0
290
     0
  0
SCALE
  5
361
102
{ACAD_REACTORS
330
345
102
}
330
345
100
AcDbScale
 70
     0
300
3/4" = 1'-0"
140
0.75
141
12.0
290
     0
  0
SCALE
  5
362
102
{ACAD_REACTORS
330
345
102
}
330
345
100
AcDbScale
 70
     0
300
1" = 1'-0"
140
1.0
141
12.0
290
     0
  0
SCALE
  5
363
102
{ACAD_REACTORS
330
345
102
}
330
345
100
AcDbScale
 70
     0
300
1-1/2" = 1'-0"
140
1.5
141
12.0
290
     0
  0
SCALE
  5
364
102
{ACAD_REACTORS
330
345
102
}
330
345
100
AcDbScale
 70
     0
300
3" = 1'-0"
140
3.0
141
12.0
290
     0
  0
SCALE
  5
365
102
{ACAD_REACTORS
330
345
102
}
330
345
100
AcDbScale
 70
     0
300
6" = 1'-0"
140
6.0
141
12.0
290
     0
  0
SCALE
  5
366
102
{ACAD_REACTORS
330
345
102
}
330
345
100
AcDbScale
 70
     0
300
1'-0" = 1'-0"
140
12.0
141
12.0
290
     0
  0
VISUALSTYLE
  5
36F
102
{ACAD_REACTORS
330
36A
102
}
102
{ACAD_XDICTIONARY
360
392
102
}
330
36A
100
AcDbVisualStyle
  2
2dWireframe
 70
     4
 71
     0
 72
     2
 73
     0
 90
        0
 40
-0.6
 41
-30.0
 62
     5
 63
     7
 74
     1
 91
        4
 64
     7
 65
   257
 75
     1
175
     1
 42
1.0
 92
        0
 66
   257
 43
1.0
 76
     1
 77
     6
 78
     2
 67
     7
 79
     5
170
     0
171
     0
290
     0
174
     0
 93
        1
 44
0.0
173
     0
291
     0
 45
0.0
1001
ACAD
1000
AcDbSavedByObjectVersion
1070
     0
  0
VISUALSTYLE
  5
371
102
{ACAD_REACTORS
330
36A
102
}
102
{ACAD_XDICTIONARY
360
396
102
}
330
36A
100
AcDbVisualStyle
  2
3D Hidden
 70
     6
 71
     1
 72
     2
 73
     2
 90
        0
 40
-0.6
 41
-30.0
 62
     5
 63
     7
 74
     2
 91
        2
 64
     7
 65
   257
 75
     2
175
     1
 42
40.0
 92
        0
 66
   257
 43
1.0
 76
     1
 77
     6
 78
     2
 67
     7
 79
     3
170
     0
171
     0
290
     0
174
     0
 93
        1
 44
0.0
173
     0
291
     0
 45
0.0
1001
ACAD
1000
AcDbSavedByObjectVersion
1070
     0
  0
VISUALSTYLE
  5
370
102
{ACAD_REACTORS
330
36A
102
}
102
{ACAD_XDICTIONARY
360
394
102
}
330
36A
100
AcDbVisualStyle
  2
3dWireframe
 70
     5
 71
     0
 72
     2
 73
     0
 90
        0
 40
-0.6
 41
-30.0
 62
     5
 63
     7
 74
     1
 91
        4
 64
     7
 65
   257
 75
     1
175
     1
 42
1.0
 92
        0
 66
   257
 43
1.0
 76
     1
 77
     6
 78
     2
 67
     7
 79
     5
170
     0
171
     0
290
     0
174
     0
 93
        1
 44
0.0
173
     0
291
     0
 45
0.0
1001
ACAD
1000
AcDbSavedByObjectVersion
1070
     0
  0
VISUALSTYLE
  5
372
102
{ACAD_REACTORS
330
36A
102
}
102
{ACAD_XDICTIONARY
360
398
102
}
330
36A
100
AcDbVisualStyle
  2
Basic
 70
     7
 71
     1
 72
     0
 73
     1
 90
        0
 40
-0.6
 41
-30.0
 62
     5
 63
     7
 74
     0
 91
        4
 64
     7
 65
   257
 75
     1
175
     1
 42
1.0
 92
        8
 66
     7
 43
1.0
 76
     1
 77
     6
 78
     2
 67
     7
 79
     5
170
     0
171
     0
290
     0
174
     0
 93
        1
 44
0.0
173
     0
291
     1
 45
0.0
1001
ACAD
1000
AcDbSavedByObjectVersion
1070
     0
  0
VISUALSTYLE
  5
376
102
{ACAD_REACTORS
330
36A
102
}
102
{ACAD_XDICTIONARY
360
3A0
102
}
330
36A
100
AcDbVisualStyle
  2
Brighten
 70
    12
 71
     2
 72
     2
 73
     0
 90
        0
 40
-0.6
 41
-30.0
 62
     5
 63
     7
 74
     1
 91
        4
 64
     7
 65
   257
 75
     1
175
     1
 42
1.0
 92
        8
 66
     7
 43
1.0
 76
     1
 77
     6
 78
     2
 67
     7
 79
     5
170
     0
171
     0
290
     0
174
     0
 93
        1
 44
50.0
173
     0
291
     1
 45
0.0
1001
ACAD
1000
AcDbSavedByObjectVersion
1070
     0
  0
VISUALSTYLE
  5
37A
102
{ACAD_REACTORS
330
36A
102
}
102
{ACAD_XDICTIONARY
360
3A8
102
}
330
36A
100
AcDbVisualStyle
  2
ColorChange
 70
    16
 71
     2
 72
     2
 73
     3
 90
        0
 40
-0.6
 41
-30.0
 62
     5
 63
     8
 74
     1
 91
        4
 64
     7
 65
   257
 75
     1
175
     1
 42
1.0
 92
        8
 66
     8
 43
1.0
 76
     1
 77
     6
 78
     2
 67
     7
 79
     5
170
     0
171
     0
290
     0
174
     0
 93
        1
 44
0.0
173
     0
291
     1
 45
0.0
1001
ACAD
1000
AcDbSavedByObjectVersion
1070
     0
  0
VISUALSTYLE
  5
374
102
{ACAD_REACTORS
330
36A
102
}
102
{ACAD_XDICTIONARY
360
39C
102
}
330
36A
100
AcDbVisualStyle
  2
Conceptual
 70
     9
 71
     3
 72
     2
 73
     0
 90
        0
 40
-0.6
 41
-30.0
 62
     5
 63
     7
 74
     2
 91
        2
 64
     7
 65
   257
 75
     1
175
     1
 42
40.0
 92
        8
 66
     7
 43
1.0
 76
     1
 77
     6
 78
     2
 67
     7
 79
     3
170
     0
171
     0
290
     0
174
     0
 93
        1
 44
0.0
173
     0
291
     0
 45
0.0
1001
ACAD
1000
AcDbSavedByObjectVersion
1070
     0
  0
VISUALSTYLE
  5
375
102
{ACAD_REACTORS
330
36A
102
}
102
{ACAD_XDICTIONARY
360
39E
102
}
330
36A
100
AcDbVisualStyle
  2
Dim
 70
    11
 71
     2
 72
     2
 73
     0
 90
        0
 40
-0.6
 41
-30.0
 62
     5
 63
     7
 74
     1
 91
        4
 64
     7
 65
   257
 75
     1
175
     1
 42
1.0
 92
        8
 66
     7
 43
1.0
 76
     1
 77
     6
 78
     2
 67
     7
 79
     5
170
     0
171
     0
290
     0
174
     0
 93
        1
 44
-50.0
173
     0
291
     1
 45
0.0
1001
ACAD
1000
AcDbSavedByObjectVersion
1070
     0
  0
VISUALSTYLE
  5
379
102
{ACAD_REACTORS
330
36A
102
}
102
{ACAD_XDICTIONARY
360
3A6
102
}
330
36A
100
AcDbVisualStyle
  2
Facepattern
 70
    15
 71
     2
 72
     2
 73
     0
 90
        0
 40
-0.6
 41
-30.0
 62
     5
 63
     7
 74
     1
 91
        4
 64
     7
 65
   257
 75
     1
175
     1
 42
1.0
 92
        8
 66
     7
 43
1.0
 76
     1
 77
     6
 78
     2
 67
     7
 79
     5
170
     0
171
     0
290
     0
174
     0
 93
        1
 44
0.0
173
     0
291
     1
 45
0.0
1001
ACAD
1000
AcDbSavedByObjectVersion
1070
     0
  0
VISUALSTYLE
  5
36B
102
{ACAD_REACTORS
330
36A
102
}
102
{ACAD_XDICTIONARY
360
38A
102
}
330
36A
100
AcDbVisualStyle
  2
Flat
 70
     0
 71
     2
 72
     1
 73
     1
 90
        2
 40
-0.6
 41
30.0
 62
     5
 63
     7
 74
     0
 91
        4
 64
     7
 65
   257
 75
     1
175
     1
 42
1.0
 92
        8
 66
     7
 43
1.0
 76
     1
 77
     6
 78
     2
 67
     7
 79
     5
170
     0
171
     0
290
     0
174
     0
 93
       13
 44
0.0
173
     0
291
     1
 45
0.0
1001
ACAD
1000
AcDbSavedByObjectVersion
1070
     0
  0
VISUALSTYLE
  5
36C
102
{ACAD_REACTORS
330
36A
102
}
102
{ACAD_XDICTIONARY
360
38C
102
}
330
36A
100
AcDbVisualStyle
  2
FlatWithEdges
 70
     1
 71
     2
 72
     1
 73
     1
 90
        2
 40
-0.6
 41
30.0
 62
     5
 63
     7
 74
     1
 91
        4
 64
     7
 65
   257
 75
     1
175
     1
 42
1.0
 92
        0
 66
   257
 43
1.0
 76
     1
 77
     6
 78
     2
 67
     7
 79
     5
170
     0
171
     0
290
     0
174
     0
 93
       13
 44
0.0
173
     0
291
     1
 45
0.0
1001
ACAD
1000
AcDbSavedByObjectVersion
1070
     0
  0
VISUALSTYLE
  5
36D
102
{ACAD_REACTORS
330
36A
102
}
102
{ACAD_XDICTIONARY
360
38E
102
}
330
36A
100
AcDbVisualStyle
  2
Gouraud
 70
     2
 71
     2
 72
     2
 73
     1
 90
        2
 40
-0.6
 41
30.0
 62
     5
 63
     7
 74
     0
 91
        4
 64
     7
 65
   257
 75
     1
175
     1
 42
1.0
 92
        0
 66
     7
 43
1.0
 76
     1
 77
     6
 78
     2
 67
     7
 79
     5
170
     0
171
     0
290
     0
174
     0
 93
       13
 44
0.0
173
     0
291
     1
 45
0.0
1001
ACAD
1000
AcDbSavedByObjectVersion
1070
     0
  0
VISUALSTYLE
  5
36E
102
{ACAD_REACTORS
330
36A
102
}
102
{ACAD_XDICTIONARY
360
390
102
}
330
36A
100
AcDbVisualStyle
  2
GouraudWithEdges
 70
     3
 71
     2
 72
     2
 73
     1
 90
        2
 40
-0.6
 41
30.0
 62
     5
 63
     7
 74
     1
 91
        4
 64
     7
 65
   257
 75
     1
175
     1
 42
1.0
 92
        0
 66
   257
 43
1.0
 76
     1
 77
     6
 78
     2
 67
     7
 79
     5
170
     0
171
     0
290
     0
174
     0
 93
       13
 44
0.0
173
     0
291
     1
 45
0.0
1001
ACAD
1000
AcDbSavedByObjectVersion
1070
     0
  0
VISUALSTYLE
  5
378
102
{ACAD_REACTORS
330
36A
102
}
102
{ACAD_XDICTIONARY
360
3A4
102
}
330
36A
100
AcDbVisualStyle
  2
Linepattern
 70
    14
 71
     2
 72
     2
 73
     0
 90
        0
 40
-0.6
 41
-30.0
 62
     5
 63
     7
 74
     1
 91
        4
 64
     7
 65
   257
 75
     7
175
     7
 42
1.0
 92
        8
 66
     7
 43
1.0
 76
     1
 77
     6
 78
     2
 67
     7
 79
     5
170
     0
171
     0
290
     0
174
     0
 93
        1
 44
0.0
173
     0
291
     1
 45
0.0
1001
ACAD
1000
AcDbSavedByObjectVersion
1070
     0
  0
VISUALSTYLE
  5
373
102
{ACAD_REACTORS
330
36A
102
}
102
{ACAD_XDICTIONARY
360
39A
102
}
330
36A
100
AcDbVisualStyle
  2
Realistic
 70
     8
 71
     2
 72
     2
 73
     0
 90
        0
 40
-0.6
 41
-30.0
 62
     5
 63
     7
 74
     1
 91
        0
 64
     7
 65
   257
 75
     1
175
     1
 42
1.0
 92
        8
 66
     8
 43
1.0
 76
     1
 77
     6
 78
     2
 67
     7
 79
     5
170
     0
171
     0
290
     0
174
     0
 93
       13
 44
0.0
173
     0
291
     0
 45
0.0
1001
ACAD
1000
AcDbSavedByObjectVersion
1070
     0
  0
VISUALSTYLE
  5
377
102
{ACAD_REACTORS
330
36A
102
}
102
{ACAD_XDICTIONARY
360
3A2
102
}
330
36A
100
AcDbVisualStyle
  2
Thicken
 70
    13
 71
     2
 72
     2
 73
     0
 90
        0
 40
-0.6
 41
-30.0
 62
     5
 63
     7
 74
     1
 91
        4
 64
     7
 65
   257
 75
     1
175
     1
 42
1.0
 92
       12
 66
     7
 43
1.0
 76
     1
 77
     6
 78
     2
 67
     7
 79
     5
170
     0
171
     0
290
     0
174
     0
 93
        1
 44
0.0
173
     0
291
     1
 45
0.0
1001
ACAD
1000
AcDbSavedByObjectVersion
1070
     0
  0
DICTIONARYVAR
  5
389
102
{ACAD_REACTORS
330
381
102
}
330
381
100
DictionaryVariables
280
     0
  1
1:1
  0
DICTIONARYVAR
  5
385
102
{ACAD_REACTORS
330
381
102
}
330
381
100
DictionaryVariables
280
     0
  1
2
  0
DICTIONARYVAR
  5
386
102
{ACAD_REACTORS
330
381
102
}
330
381
100
DictionaryVariables
280
     0
  1
1
  0
DICTIONARYVAR
  5
384
102
{ACAD_REACTORS
330
381
102
}
330
381
100
DictionaryVariables
280
     0
  1
0
  0
DICTIONARY
  5
3AC
330
37D
100
AcDbDictionary
280
     1
281
     1
  3
ACAD_XREC_ROUNDTRIP
360
3AD
  0
DICTIONARY
  5
3AA
330
37C
100
AcDbDictionary
280
     1
281
     1
  3
ACAD_XREC_ROUNDTRIP
360
3AB
  0
DICTIONARY
  5
3AE
330
37E
100
AcDbDictionary
280
     1
281
     1
  3
ACAD_XREC_ROUNDTRIP
360
3AF
  0
DICTIONARY
  5
392
330
36F
100
AcDbDictionary
280
     1
281
     1
  3
ACAD_XREC_ROUNDTRIP
360
393
  0
DICTIONARY
  5
396
330
371
100
AcDbDictionary
280
     1
281
     1
  3
ACAD_XREC_ROUNDTRIP
360
397
  0
DICTIONARY
  5
394
330
370
100
AcDbDictionary
280
     1
281
     1
  3
ACAD_XREC_ROUNDTRIP
360
395
  0
DICTIONARY
  5
398
330
372
100
AcDbDictionary
280
     1
281
     1
  3
ACAD_XREC_ROUNDTRIP
360
399
  0
DICTIONARY
  5
3A0
330
376
100
AcDbDictionary
280
     1
281
     1
  3
ACAD_XREC_ROUNDTRIP
360
3A1
  0
DICTIONARY
  5
3A8
330
37A
100
AcDbDictionary
280
     1
281
     1
  3
ACAD_XREC_ROUNDTRIP
360
3A9
  0
DICTIONARY
  5
39C
330
374
100
AcDbDictionary
280
     1
281
     1
  3
ACAD_XREC_ROUNDTRIP
360
39D
  0
DICTIONARY
  5
39E
330
375
100
AcDbDictionary
280
     1
281
     1
  3
ACAD_XREC_ROUNDTRIP
360
39F
  0
DICTIONARY
  5
3A6
330
379
100
AcDbDictionary
280
     1
281
     1
  3
ACAD_XREC_ROUNDTRIP
360
3A7
  0
DICTIONARY
  5
38A
330
36B
100
AcDbDictionary
280
     1
281
     1
  3
ACAD_XREC_ROUNDTRIP
360
38B
  0
DICTIONARY
  5
38C
330
36C
100
AcDbDictionary
280
     1
281
     1
  3
ACAD_XREC_ROUNDTRIP
360
38D
  0
DICTIONARY
  5
38E
330
36D
100
AcDbDictionary
280
     1
281
     1
  3
ACAD_XREC_ROUNDTRIP
360
38F
  0
DICTIONARY
  5
390
330
36E
100
AcDbDictionary
280
     1
281
     1
  3
ACAD_XREC_ROUNDTRIP
360
391
  0
DICTIONARY
  5
3A4
330
378
100
AcDbDictionary
280
     1
281
     1
  3
ACAD_XREC_ROUNDTRIP
360
3A5
  0
DICTIONARY
  5
39A
330
373
100
AcDbDictionary
280
     1
281
     1
  3
ACAD_XREC_ROUNDTRIP
360
39B
  0
DICTIONARY
  5
3A2
330
377
100
AcDbDictionary
280
     1
281
     1
  3
ACAD_XREC_ROUNDTRIP
360
3A3
  0
XRECORD
  5
3AD
102
{ACAD_REACTORS
330
3AC
102
}
330
3AC
100
AcDbXrecord
280
     1
102
MATERIAL
148
0.0
149
0.0
149
0.0
 93
        0
 94
      127
282
     0
 72
     1
 77
     1
171
     1
175
     1
179
     1
273
     0
  0
XRECORD
  5
3AB
102
{ACAD_REACTORS
330
3AA
102
}
330
3AA
100
AcDbXrecord
280
     1
102
MATERIAL
148
0.0
149
0.0
149
0.0
 93
        0
 94
      127
282
     0
 72
     1
 77
     1
171
     1
175
     1
179
     1
273
     0
  0
XRECORD
  5
3AF
102
{ACAD_REACTORS
330
3AE
102
}
330
3AE
100
AcDbXrecord
280
     1
102
MATERIAL
148
0.0
149
0.0
149
0.0
 93
        0
 94
      127
282
     0
 72
     1
 77
     1
171
     1
175
     1
179
     1
273
     0
  0
XRECORD
  5
393
102
{ACAD_REACTORS
330
392
102
}
330
392
100
AcDbXrecord
280
     1
102
RTVSPropertyOp0
 70
     1
102
RTVSPropertyOp1
 70
     1
102
RTVSPropertyOp2
 70
     1
102
RTVSPropertyOp3
 70
     1
102
RTVSPropertyOp4
 70
     1
102
RTVSPropertyOp5
 70
     1
102
RTVSPropertyOp6
 70
     1
102
RTVSPropertyOp7
 70
     1
102
RTVSPropertyOp8
 70
     1
102
RTVSPropertyOp9
 70
     1
102
RTVSPropertyOp10
 70
     1
102
RTVSPropertyOp11
 70
     1
102
RTVSPropertyOp12
 70
     1
102
RTVSPropertyOp13
 70
     1
102
RTVSPropertyOp14
 70
     1
102
RTVSPropertyOp15
 70
     1
102
RTVSPropertyOp16
 70
     1
102
RTVSPropertyOp17
 70
     1
102
RTVSPropertyOp18
 70
     1
102
RTVSPropertyOp19
 70
     1
102
RTVSPropertyOp20
 70
     1
102
RTVSPropertyOp21
 70
     1
102
RTVSPropertyOp22
 70
     1
102
RTVSPropertyOp23
 70
     1
102
RTVSPropertyOp24
 70
     1
102
RTVSPropertyOp25
 70
     1
102
RTVSPropertyOp26
 70
     1
102
RTVSPropertyOp27
 70
     1
102
RTVSPropertyOp28
 70
     1
102
RTVSPropertyOp29
 70
     1
102
RTVSPropertyOp30
 70
     1
102
RTVSPropertyOp31
 70
     1
102
RTVSPropertyOp32
 70
     1
  0
XRECORD
  5
397
102
{ACAD_REACTORS
330
396
102
}
330
396
100
AcDbXrecord
280
     1
102
RTVSPropertyOp0
 70
     1
102
RTVSPropertyOp1
 70
     1
102
RTVSPropertyOp2
 70
     1
102
RTVSPropertyOp3
 70
     1
102
RTVSPropertyOp4
 70
     1
102
RTVSPropertyOp5
 70
     1
102
RTVSPropertyOp6
 70
     1
102
RTVSPropertyOp7
 70
     1
102
RTVSPropertyOp8
 70
     1
102
RTVSPropertyOp9
 70
     1
102
RTVSPropertyOp10
 70
     1
102
RTVSPropertyOp11
 70
     1
102
RTVSPropertyOp12
 70
     1
102
RTVSPropertyOp13
 70
     1
102
RTVSPropertyOp14
 70
     1
102
RTVSPropertyOp15
 70
     1
102
RTVSPropertyOp16
 70
     1
102
RTVSPropertyOp17
 70
     1
102
RTVSPropertyOp18
 70
     1
102
RTVSPropertyOp19
 70
     1
102
RTVSPropertyOp20
 70
     1
102
RTVSPropertyOp21
 70
     1
102
RTVSPropertyOp22
 70
     1
102
RTVSPropertyOp23
 70
     1
102
RTVSPropertyOp24
 70
     1
102
RTVSPropertyOp25
 70
     1
102
RTVSPropertyOp26
 70
     1
102
RTVSPropertyOp27
 70
     1
102
RTVSPropertyOp28
 70
     1
102
RTVSPropertyOp29
 70
     1
102
RTVSPropertyOp30
 70
     1
102
RTVSPropertyOp31
 70
     1
102
RTVSPropertyOp32
 70
     1
  0
XRECORD
  5
395
102
{ACAD_REACTORS
330
394
102
}
330
394
100
AcDbXrecord
280
     1
102
RTVSPropertyOp0
 70
     1
102
RTVSPropertyOp1
 70
     1
102
RTVSPropertyOp2
 70
     1
102
RTVSPropertyOp3
 70
     1
102
RTVSPropertyOp4
 70
     1
102
RTVSPropertyOp5
 70
     1
102
RTVSPropertyOp6
 70
     1
102
RTVSPropertyOp7
 70
     1
102
RTVSPropertyOp8
 70
     1
102
RTVSPropertyOp9
 70
     1
102
RTVSPropertyOp10
 70
     1
102
RTVSPropertyOp11
 70
     1
102
RTVSPropertyOp12
 70
     1
102
RTVSPropertyOp13
 70
     1
102
RTVSPropertyOp14
 70
     1
102
RTVSPropertyOp15
 70
     1
102
RTVSPropertyOp16
 70
     1
102
RTVSPropertyOp17
 70
     1
102
RTVSPropertyOp18
 70
     1
102
RTVSPropertyOp19
 70
     1
102
RTVSPropertyOp20
 70
     1
102
RTVSPropertyOp21
 70
     1
102
RTVSPropertyOp22
 70
     1
102
RTVSPropertyOp23
 70
     1
102
RTVSPropertyOp24
 70
     1
102
RTVSPropertyOp25
 70
     1
102
RTVSPropertyOp26
 70
     1
102
RTVSPropertyOp27
 70
     1
102
RTVSPropertyOp28
 70
     1
102
RTVSPropertyOp29
 70
     1
102
RTVSPropertyOp30
 70
     1
102
RTVSPropertyOp31
 70
     1
102
RTVSPropertyOp32
 70
     1
  0
XRECORD
  5
399
102
{ACAD_REACTORS
330
398
102
}
330
398
100
AcDbXrecord
280
     1
102
RTVSPropertyOp0
 70
     1
102
RTVSPropertyOp1
 70
     1
102
RTVSPropertyOp2
 70
     1
102
RTVSPropertyOp3
 70
     1
102
RTVSPropertyOp4
 70
     1
102
RTVSPropertyOp5
 70
     1
102
RTVSPropertyOp6
 70
     1
102
RTVSPropertyOp7
 70
     1
102
RTVSPropertyOp8
 70
     1
102
RTVSPropertyOp9
 70
     1
102
RTVSPropertyOp10
 70
     1
102
RTVSPropertyOp11
 70
     1
102
RTVSPropertyOp12
 70
     1
102
RTVSPropertyOp13
 70
     1
102
RTVSPropertyOp14
 70
     1
102
RTVSPropertyOp15
 70
     1
102
RTVSPropertyOp16
 70
     1
102
RTVSPropertyOp17
 70
     1
102
RTVSPropertyOp18
 70
     1
102
RTVSPropertyOp19
 70
     1
102
RTVSPropertyOp20
 70
     1
102
RTVSPropertyOp21
 70
     1
102
RTVSPropertyOp22
 70
     1
102
RTVSPropertyOp23
 70
     1
102
RTVSPropertyOp24
 70
     1
102
RTVSPropertyOp25
 70
     1
102
RTVSPropertyOp26
 70
     1
102
RTVSPropertyOp27
 70
     1
102
RTVSPropertyOp28
 70
     1
102
RTVSPropertyOp29
 70
     1
102
RTVSPropertyOp30
 70
     1
102
RTVSPropertyOp31
 70
     1
102
RTVSPropertyOp32
 70
     1
  0
XRECORD
  5
3A1
102
{ACAD_REACTORS
330
3A0
102
}
330
3A0
100
AcDbXrecord
280
     1
102
RTVSPropertyOp0
 70
     1
102
RTVSPropertyOp1
 70
     1
102
RTVSPropertyOp2
 70
     1
102
RTVSPropertyOp3
 70
     1
102
RTVSPropertyOp4
 70
     1
102
RTVSPropertyOp5
 70
     1
102
RTVSPropertyOp6
 70
     1
102
RTVSPropertyOp7
 70
     1
102
RTVSPropertyOp8
 70
     1
102
RTVSPropertyOp9
 70
     1
102
RTVSPropertyOp10
 70
     1
102
RTVSPropertyOp11
 70
     1
102
RTVSPropertyOp12
 70
     1
102
RTVSPropertyOp13
 70
     1
102
RTVSPropertyOp14
 70
     1
102
RTVSPropertyOp15
 70
     1
102
RTVSPropertyOp16
 70
     1
102
RTVSPropertyOp17
 70
     1
102
RTVSPropertyOp18
 70
     1
102
RTVSPropertyOp19
 70
     1
102
RTVSPropertyOp20
 70
     1
102
RTVSPropertyOp21
 70
     1
102
RTVSPropertyOp22
 70
     1
102
RTVSPropertyOp23
 70
     1
102
RTVSPropertyOp24
 70
     1
102
RTVSPropertyOp25
 70
     1
102
RTVSPropertyOp26
 70
     1
102
RTVSPropertyOp27
 70
     1
102
RTVSPropertyOp28
 70
     1
102
RTVSPropertyOp29
 70
     1
102
RTVSPropertyOp30
 70
     1
102
RTVSPropertyOp31
 70
     1
102
RTVSPropertyOp32
 70
     1
  0
XRECORD
  5
3A9
102
{ACAD_REACTORS
330
3A8
102
}
330
3A8
100
AcDbXrecord
280
     1
102
RTVSPropertyOp0
 70
     1
102
RTVSPropertyOp1
 70
     1
102
RTVSPropertyOp2
 70
     1
102
RTVSPropertyOp3
 70
     1
102
RTVSPropertyOp4
 70
     1
102
RTVSPropertyOp5
 70
     1
102
RTVSPropertyOp6
 70
     1
102
RTVSPropertyOp7
 70
     1
102
RTVSPropertyOp8
 70
     1
102
RTVSPropertyOp9
 70
     1
102
RTVSPropertyOp10
 70
     1
102
RTVSPropertyOp11
 70
     1
102
RTVSPropertyOp12
 70
     1
102
RTVSPropertyOp13
 70
     1
102
RTVSPropertyOp14
 70
     1
102
RTVSPropertyOp15
 70
     1
102
RTVSPropertyOp16
 70
     1
102
RTVSPropertyOp17
 70
     1
102
RTVSPropertyOp18
 70
     1
102
RTVSPropertyOp19
 70
     1
102
RTVSPropertyOp20
 70
     1
102
RTVSPropertyOp21
 70
     1
102
RTVSPropertyOp22
 70
     1
102
RTVSPropertyOp23
 70
     1
102
RTVSPropertyOp24
 70
     1
102
RTVSPropertyOp25
 70
     1
102
RTVSPropertyOp26
 70
     1
102
RTVSPropertyOp27
 70
     1
102
RTVSPropertyOp28
 70
     1
102
RTVSPropertyOp29
 70
     1
102
RTVSPropertyOp30
 70
     1
102
RTVSPropertyOp31
 70
     1
102
RTVSPropertyOp32
 70
     1
  0
XRECORD
  5
39D
102
{ACAD_REACTORS
330
39C
102
}
330
39C
100
AcDbXrecord
280
     1
102
RTVSPropertyOp0
 70
     1
102
RTVSPropertyOp1
 70
     1
102
RTVSPropertyOp2
 70
     1
102
RTVSPropertyOp3
 70
     1
102
RTVSPropertyOp4
 70
     1
102
RTVSPropertyOp5
 70
     1
102
RTVSPropertyOp6
 70
     1
102
RTVSPropertyOp7
 70
     1
102
RTVSPropertyOp8
 70
     1
102
RTVSPropertyOp9
 70
     1
102
RTVSPropertyOp10
 70
     1
102
RTVSPropertyOp11
 70
     1
102
RTVSPropertyOp12
 70
     1
102
RTVSPropertyOp13
 70
     1
102
RTVSPropertyOp14
 70
     1
102
RTVSPropertyOp15
 70
     1
102
RTVSPropertyOp16
 70
     1
102
RTVSPropertyOp17
 70
     1
102
RTVSPropertyOp18
 70
     1
102
RTVSPropertyOp19
 70
     1
102
RTVSPropertyOp20
 70
     1
102
RTVSPropertyOp21
 70
     1
102
RTVSPropertyOp22
 70
     1
102
RTVSPropertyOp23
 70
     1
102
RTVSPropertyOp24
 70
     1
102
RTVSPropertyOp25
 70
     1
102
RTVSPropertyOp26
 70
     1
102
RTVSPropertyOp27
 70
     1
102
RTVSPropertyOp28
 70
     1
102
RTVSPropertyOp29
 70
     1
102
RTVSPropertyOp30
 70
     1
102
RTVSPropertyOp31
 70
     1
102
RTVSPropertyOp32
 70
     1
  0
XRECORD
  5
39F
102
{ACAD_REACTORS
330
39E
102
}
330
39E
100
AcDbXrecord
280
     1
102
RTVSPropertyOp0
 70
     1
102
RTVSPropertyOp1
 70
     1
102
RTVSPropertyOp2
 70
     1
102
RTVSPropertyOp3
 70
     1
102
RTVSPropertyOp4
 70
     1
102
RTVSPropertyOp5
 70
     1
102
RTVSPropertyOp6
 70
     1
102
RTVSPropertyOp7
 70
     1
102
RTVSPropertyOp8
 70
     1
102
RTVSPropertyOp9
 70
     1
102
RTVSPropertyOp10
 70
     1
102
RTVSPropertyOp11
 70
     1
102
RTVSPropertyOp12
 70
     1
102
RTVSPropertyOp13
 70
     1
102
RTVSPropertyOp14
 70
     1
102
RTVSPropertyOp15
 70
     1
102
RTVSPropertyOp16
 70
     1
102
RTVSPropertyOp17
 70
     1
102
RTVSPropertyOp18
 70
     1
102
RTVSPropertyOp19
 70
     1
102
RTVSPropertyOp20
 70
     1
102
RTVSPropertyOp21
 70
     1
102
RTVSPropertyOp22
 70
     1
102
RTVSPropertyOp23
 70
     1
102
RTVSPropertyOp24
 70
     1
102
RTVSPropertyOp25
 70
     1
102
RTVSPropertyOp26
 70
     1
102
RTVSPropertyOp27
 70
     1
102
RTVSPropertyOp28
 70
     1
102
RTVSPropertyOp29
 70
     1
102
RTVSPropertyOp30
 70
     1
102
RTVSPropertyOp31
 70
     1
102
RTVSPropertyOp32
 70
     1
  0
XRECORD
  5
3A7
102
{ACAD_REACTORS
330
3A6
102
}
330
3A6
100
AcDbXrecord
280
     1
102
RTVSPropertyOp0
 70
     1
102
RTVSPropertyOp1
 70
     1
102
RTVSPropertyOp2
 70
     1
102
RTVSPropertyOp3
 70
     1
102
RTVSPropertyOp4
 70
     1
102
RTVSPropertyOp5
 70
     1
102
RTVSPropertyOp6
 70
     1
102
RTVSPropertyOp7
 70
     1
102
RTVSPropertyOp8
 70
     1
102
RTVSPropertyOp9
 70
     1
102
RTVSPropertyOp10
 70
     1
102
RTVSPropertyOp11
 70
     1
102
RTVSPropertyOp12
 70
     1
102
RTVSPropertyOp13
 70
     1
102
RTVSPropertyOp14
 70
     1
102
RTVSPropertyOp15
 70
     1
102
RTVSPropertyOp16
 70
     1
102
RTVSPropertyOp17
 70
     1
102
RTVSPropertyOp18
 70
     1
102
RTVSPropertyOp19
 70
     1
102
RTVSPropertyOp20
 70
     1
102
RTVSPropertyOp21
 70
     1
102
RTVSPropertyOp22
 70
     1
102
RTVSPropertyOp23
 70
     1
102
RTVSPropertyOp24
 70
     1
102
RTVSPropertyOp25
 70
     1
102
RTVSPropertyOp26
 70
     1
102
RTVSPropertyOp27
 70
     1
102
RTVSPropertyOp28
 70
     1
102
RTVSPropertyOp29
 70
     1
102
RTVSPropertyOp30
 70
     1
102
RTVSPropertyOp31
 70
     1
102
RTVSPropertyOp32
 70
     1
  0
XRECORD
  5
38B
102
{ACAD_REACTORS
330
38A
102
}
330
38A
100
AcDbXrecord
280
     1
102
RTVSPropertyOp0
 70
     1
102
RTVSPropertyOp1
 70
     1
102
RTVSPropertyOp2
 70
     1
102
RTVSPropertyOp3
 70
     1
102
RTVSPropertyOp4
 70
     1
102
RTVSPropertyOp5
 70
     1
102
RTVSPropertyOp6
 70
     1
102
RTVSPropertyOp7
 70
     1
102
RTVSPropertyOp8
 70
     1
102
RTVSPropertyOp9
 70
     1
102
RTVSPropertyOp10
 70
     1
102
RTVSPropertyOp11
 70
     1
102
RTVSPropertyOp12
 70
     1
102
RTVSPropertyOp13
 70
     1
102
RTVSPropertyOp14
 70
     1
102
RTVSPropertyOp15
 70
     1
102
RTVSPropertyOp16
 70
     1
102
RTVSPropertyOp17
 70
     1
102
RTVSPropertyOp18
 70
     1
102
RTVSPropertyOp19
 70
     1
102
RTVSPropertyOp20
 70
     1
102
RTVSPropertyOp21
 70
     1
102
RTVSPropertyOp22
 70
     1
102
RTVSPropertyOp23
 70
     1
102
RTVSPropertyOp24
 70
     1
102
RTVSPropertyOp25
 70
     1
102
RTVSPropertyOp26
 70
     1
102
RTVSPropertyOp27
 70
     1
102
RTVSPropertyOp28
 70
     1
102
RTVSPropertyOp29
 70
     1
102
RTVSPropertyOp30
 70
     1
102
RTVSPropertyOp31
 70
     1
102
RTVSPropertyOp32
 70
     1
  0
XRECORD
  5
38D
102
{ACAD_REACTORS
330
38C
102
}
330
38C
100
AcDbXrecord
280
     1
102
RTVSPropertyOp0
 70
     1
102
RTVSPropertyOp1
 70
     1
102
RTVSPropertyOp2
 70
     1
102
RTVSPropertyOp3
 70
     1
102
RTVSPropertyOp4
 70
     1
102
RTVSPropertyOp5
 70
     1
102
RTVSPropertyOp6
 70
     1
102
RTVSPropertyOp7
 70
     1
102
RTVSPropertyOp8
 70
     1
102
RTVSPropertyOp9
 70
     1
102
RTVSPropertyOp10
 70
     1
102
RTVSPropertyOp11
 70
     1
102
RTVSPropertyOp12
 70
     1
102
RTVSPropertyOp13
 70
     1
102
RTVSPropertyOp14
 70
     1
102
RTVSPropertyOp15
 70
     1
102
RTVSPropertyOp16
 70
     1
102
RTVSPropertyOp17
 70
     1
102
RTVSPropertyOp18
 70
     1
102
RTVSPropertyOp19
 70
     1
102
RTVSPropertyOp20
 70
     1
102
RTVSPropertyOp21
 70
     1
102
RTVSPropertyOp22
 70
     1
102
RTVSPropertyOp23
 70
     1
102
RTVSPropertyOp24
 70
     1
102
RTVSPropertyOp25
 70
     1
102
RTVSPropertyOp26
 70
     1
102
RTVSPropertyOp27
 70
     1
102
RTVSPropertyOp28
 70
     1
102
RTVSPropertyOp29
 70
     1
102
RTVSPropertyOp30
 70
     1
102
RTVSPropertyOp31
 70
     1
102
RTVSPropertyOp32
 70
     1
  0
XRECORD
  5
38F
102
{ACAD_REACTORS
330
38E
102
}
330
38E
100
AcDbXrecord
280
     1
102
RTVSPropertyOp0
 70
     1
102
RTVSPropertyOp1
 70
     1
102
RTVSPropertyOp2
 70
     1
102
RTVSPropertyOp3
 70
     1
102
RTVSPropertyOp4
 70
     1
102
RTVSPropertyOp5
 70
     1
102
RTVSPropertyOp6
 70
     1
102
RTVSPropertyOp7
 70
     1
102
RTVSPropertyOp8
 70
     1
102
RTVSPropertyOp9
 70
     1
102
RTVSPropertyOp10
 70
     1
102
RTVSPropertyOp11
 70
     1
102
RTVSPropertyOp12
 70
     1
102
RTVSPropertyOp13
 70
     1
102
RTVSPropertyOp14
 70
     1
102
RTVSPropertyOp15
 70
     1
102
RTVSPropertyOp16
 70
     1
102
RTVSPropertyOp17
 70
     1
102
RTVSPropertyOp18
 70
     1
102
RTVSPropertyOp19
 70
     1
102
RTVSPropertyOp20
 70
     1
102
RTVSPropertyOp21
 70
     1
102
RTVSPropertyOp22
 70
     1
102
RTVSPropertyOp23
 70
     1
102
RTVSPropertyOp24
 70
     1
102
RTVSPropertyOp25
 70
     1
102
RTVSPropertyOp26
 70
     1
102
RTVSPropertyOp27
 70
     1
102
RTVSPropertyOp28
 70
     1
102
RTVSPropertyOp29
 70
     1
102
RTVSPropertyOp30
 70
     1
102
RTVSPropertyOp31
 70
     1
102
RTVSPropertyOp32
 70
     1
  0
XRECORD
  5
391
102
{ACAD_REACTORS
330
390
102
}
330
390
100
AcDbXrecord
280
     1
102
RTVSPropertyOp0
 70
     1
102
RTVSPropertyOp1
 70
     1
102
RTVSPropertyOp2
 70
     1
102
RTVSPropertyOp3
 70
     1
102
RTVSPropertyOp4
 70
     1
102
RTVSPropertyOp5
 70
     1
102
RTVSPropertyOp6
 70
     1
102
RTVSPropertyOp7
 70
     1
102
RTVSPropertyOp8
 70
     1
102
RTVSPropertyOp9
 70
     1
102
RTVSPropertyOp10
 70
     1
102
RTVSPropertyOp11
 70
     1
102
RTVSPropertyOp12
 70
     1
102
RTVSPropertyOp13
 70
     1
102
RTVSPropertyOp14
 70
     1
102
RTVSPropertyOp15
 70
     1
102
RTVSPropertyOp16
 70
     1
102
RTVSPropertyOp17
 70
     1
102
RTVSPropertyOp18
 70
     1
102
RTVSPropertyOp19
 70
     1
102
RTVSPropertyOp20
 70
     1
102
RTVSPropertyOp21
 70
     1
102
RTVSPropertyOp22
 70
     1
102
RTVSPropertyOp23
 70
     1
102
RTVSPropertyOp24
 70
     1
102
RTVSPropertyOp25
 70
     1
102
RTVSPropertyOp26
 70
     1
102
RTVSPropertyOp27
 70
     1
102
RTVSPropertyOp28
 70
     1
102
RTVSPropertyOp29
 70
     1
102
RTVSPropertyOp30
 70
     1
102
RTVSPropertyOp31
 70
     1
102
RTVSPropertyOp32
 70
     1
  0
XRECORD
  5
3A5
102
{ACAD_REACTORS
330
3A4
102
}
330
3A4
100
AcDbXrecord
280
     1
102
RTVSPropertyOp0
 70
     1
102
RTVSPropertyOp1
 70
     1
102
RTVSPropertyOp2
 70
     1
102
RTVSPropertyOp3
 70
     1
102
RTVSPropertyOp4
 70
     1
102
RTVSPropertyOp5
 70
     1
102
RTVSPropertyOp6
 70
     1
102
RTVSPropertyOp7
 70
     1
102
RTVSPropertyOp8
 70
     1
102
RTVSPropertyOp9
 70
     1
102
RTVSPropertyOp10
 70
     1
102
RTVSPropertyOp11
 70
     1
102
RTVSPropertyOp12
 70
     1
102
RTVSPropertyOp13
 70
     1
102
RTVSPropertyOp14
 70
     1
102
RTVSPropertyOp15
 70
     1
102
RTVSPropertyOp16
 70
     1
102
RTVSPropertyOp17
 70
     1
102
RTVSPropertyOp18
 70
     1
102
RTVSPropertyOp19
 70
     1
102
RTVSPropertyOp20
 70
     1
102
RTVSPropertyOp21
 70
     1
102
RTVSPropertyOp22
 70
     1
102
RTVSPropertyOp23
 70
     1
102
RTVSPropertyOp24
 70
     1
102
RTVSPropertyOp25
 70
     1
102
RTVSPropertyOp26
 70
     1
102
RTVSPropertyOp27
 70
     1
102
RTVSPropertyOp28
 70
     1
102
RTVSPropertyOp29
 70
     1
102
RTVSPropertyOp30
 70
     1
102
RTVSPropertyOp31
 70
     1
102
RTVSPropertyOp32
 70
     1
  0
XRECORD
  5
39B
102
{ACAD_REACTORS
330
39A
102
}
330
39A
100
AcDbXrecord
280
     1
102
RTVSPropertyOp0
 70
     1
102
RTVSPropertyOp1
 70
     1
102
RTVSPropertyOp2
 70
     1
102
RTVSPropertyOp3
 70
     1
102
RTVSPropertyOp4
 70
     1
102
RTVSPropertyOp5
 70
     1
102
RTVSPropertyOp6
 70
     1
102
RTVSPropertyOp7
 70
     1
102
RTVSPropertyOp8
 70
     1
102
RTVSPropertyOp9
 70
     1
102
RTVSPropertyOp10
 70
     1
102
RTVSPropertyOp11
 70
     1
102
RTVSPropertyOp12
 70
     1
102
RTVSPropertyOp13
 70
     1
102
RTVSPropertyOp14
 70
     1
102
RTVSPropertyOp15
 70
     1
102
RTVSPropertyOp16
 70
     1
102
RTVSPropertyOp17
 70
     1
102
RTVSPropertyOp18
 70
     1
102
RTVSPropertyOp19
 70
     1
102
RTVSPropertyOp20
 70
     1
102
RTVSPropertyOp21
 70
     1
102
RTVSPropertyOp22
 70
     1
102
RTVSPropertyOp23
 70
     1
102
RTVSPropertyOp24
 70
     1
102
RTVSPropertyOp25
 70
     1
102
RTVSPropertyOp26
 70
     1
102
RTVSPropertyOp27
 70
     1
102
RTVSPropertyOp28
 70
     1
102
RTVSPropertyOp29
 70
     1
102
RTVSPropertyOp30
 70
     1
102
RTVSPropertyOp31
 70
     1
102
RTVSPropertyOp32
 70
     1
  0
XRECORD
  5
3A3
102
{ACAD_REACTORS
330
3A2
102
}
330
3A2
100
AcDbXrecord
280
     1
102
RTVSPropertyOp0
 70
     1
102
RTVSPropertyOp1
 70
     1
102
RTVSPropertyOp2
 70
     1
102
RTVSPropertyOp3
 70
     1
102
RTVSPropertyOp4
 70
     1
102
RTVSPropertyOp5
 70
     1
102
RTVSPropertyOp6
 70
     1
102
RTVSPropertyOp7
 70
     1
102
RTVSPropertyOp8
 70
     1
102
RTVSPropertyOp9
 70
     1
102
RTVSPropertyOp10
 70
     1
102
RTVSPropertyOp11
 70
     1
102
RTVSPropertyOp12
 70
     1
102
RTVSPropertyOp13
 70
     1
102
RTVSPropertyOp14
 70
     1
102
RTVSPropertyOp15
 70
     1
102
RTVSPropertyOp16
 70
     1
102
RTVSPropertyOp17
 70
     1
102
RTVSPropertyOp18
 70
     1
102
RTVSPropertyOp19
 70
     1
102
RTVSPropertyOp20
 70
     1
102
RTVSPropertyOp21
 70
     1
102
RTVSPropertyOp22
 70
     1
102
RTVSPropertyOp23
 70
     1
102
RTVSPropertyOp24
 70
     1
102
RTVSPropertyOp25
 70
     1
102
RTVSPropertyOp26
 70
     1
102
RTVSPropertyOp27
 70
     1
102
RTVSPropertyOp28
 70
     1
102
RTVSPropertyOp29
 70
     1
102
RTVSPropertyOp30
 70
     1
102
RTVSPropertyOp31
 70
     1
102
RTVSPropertyOp32
 70
     1
  0
ENDSEC
  0
EOF
