  0
SECTION
  2
HEADER
  9
$ACADVER
  1
AC1015
  9
$ACADMAINTVER
 70
     6
  9
$DWGCODEPAGE
  3
ANSI_1252
  9
$INSBASE
 10
0.0
 20
0.0
 30
0.0
  9
$EXTMIN
 10
0.0
 20
0.0
 30
0.0
  9
$EXTMAX
 10
210.0
 20
297.0
 30
0.0
  9
$LIMMIN
 10
0.0
 20
0.0
  9
$LIMMAX
 10
0.0
 20
0.0
  9
$ORTHOMODE
 70
     0
  9
$REGENMODE
 70
     1
  9
$FILLMODE
 70
     1
  9
$QTEXTMODE
 70
     0
  9
$MIRRTEXT
 70
     1
  9
$LTSCALE
 40
1.0
  9
$ATTMODE
 70
     1
  9
$TEXTSIZE
 40
0.0
  9
$TRACEWID
 40
0.05
  9
$TEXTSTYLE
  7
STANDARD
  9
$CLAYER
  8
0
  9
$CELTYPE
  6
CONTINUOUS
  9
$CECOLOR
 62
   256
  9
$CELTSCALE
 40
1.0
  9
$DISPSILH
 70
     0
  9
$DIMSCALE
 40
1.0
  9
$DIMASZ
 40
0.0
  9
$DIMEXO
 40
0.0
  9
$DIMDLI
 40
0.38
  9
$DIMRND
 40
0.0
  9
$DIMDLE
 40
1000.0
  9
$DIMEXE
 40
0.18
  9
$DIMTP
 40
0.0
  9
$DIMTM
 40
0.0
  9
$DIMTXT
 40
3.5
  9
$DIMCEN
 40
0.09
  9
$DIMTSZ
 40
0.0
  9
$DIMTOL
 70
     0
  9
$DIMLIM
 70
     0
  9
$DIMTIH
 70
     1
  9
$DIMTOH
 70
     1
  9
$DIMSE1
 70
     0
  9
$DIMSE2
 70
     0
  9
$DIMTAD
 70
     1
  9
$DIMZIN
 70
     0
  9
$DIMBLK
  1

  9
$DIMASO
 70
     1
  9
$DIMSHO
 70
     1
  9
$DIMPOST
  1

  9
$DIMAPOST
  1

  9
$DIMALT
 70
     0
  9
$DIMALTD
 70
     2
  9
$DIMALTF
 40
0.0394
  9
$DIMLFAC
 40
1.0
  9
$DIMTOFL
 70
     0
  9
$DIMTVP
 40
0.0
  9
$DIMTIX
 70
     0
  9
$DIMSOXD
 70
     0
  9
$DIMSAH
 70
     0
  9
$DIMBLK1
  1

  9
$DIMBLK2
  1

  9
$DIMSTYLE
  2
STANDARD
  9
$DIMCLRD
 70
     0
  9
$DIMCLRE
 70
     0
  9
$DIMCLRT
 70
     0
  9
$DIMTFAC
 40
1.0
  9
$DIMGAP
 40
0.0
  9
$DIMJUST
 70
     0
  9
$DIMSD1
 70
     0
  9
$DIMSD2
 70
     0
  9
$DIMTOLJ
 70
     1
  9
$DIMTZIN
 70
     0
  9
$DIMALTZ
 70
     0
  9
$DIMALTTZ
 70
     0
  9
$DIMUPT
 70
     0
  9
$DIMDEC
 70
     4
  9
$DIMTDEC
 70
     4
  9
$DIMALTU
 70
     2
  9
$DIMALTTD
 70
     2
  9
$DIMTXSTY
  7
STANDARD
  9
$DIMAUNIT
 70
     0
  9
$DIMADEC
 70
     0
  9
$DIMALTRND
 40
0.0
  9
$DIMAZIN
 70
     0
  9
$DIMDSEP
 70
    46
  9
$DIMATFIT
 70
     3
  9
$DIMFRAC
 70
     0
  9
$DIMLDRBLK
  1

  9
$DIMLUNIT
 70
     2
  9
$DIMLWD
 70
    -2
  9
$DIMLWE
 70
    -2
  9
$DIMTMOVE
 70
     2
  9
$LUNITS
 70
     2
  9
$LUPREC
 70
     2
  9
$SKETCHINC
 40
0.1
  9
$FILLETRAD
 40
0.0
  9
$AUNITS
 70
     0
  9
$AUPREC
 70
     2
  9
$MENU
  1
acad
  9
$ELEVATION
 40
0.0
  9
$PELEVATION
 40
0.0
  9
$THICKNESS
 40
0.0
  9
$LIMCHECK
 70
     0
  9
$CHAMFERA
 40
0.0
  9
$CHAMFERB
 40
0.0
  9
$CHAMFERC
 40
0.0
  9
$CHAMFERD
 40
0.0
  9
$SKPOLY
 70
     0
  9
$TDCREATE
 40
2447893.0
  9
$TDUCREATE
 40
2447892.916666667
  9
$TDUPDATE
 40
2458327.54877581
  9
$TDUUPDATE
 40
2458327.465442477
  9
$TDINDWG
 40
0.0
  9
$TDUSRTIMER
 40
0.0
  9
$USRTIMER
 70
     1
  9
$ANGBASE
 50
0.0
  9
$ANGDIR
 70
     0
  9
$PDMODE
 70
     0
  9
$PDSIZE
 40
-1.0
  9
$PLINEWID
 40
0.0
  9
$SPLFRAME
 70
     0
  9
$SPLINETYPE
 70
     6
  9
$SPLINESEGS
 70
     8
  9
$HANDSEED
  5
47B
  9
$SURFTAB1
 70
     6
  9
$SURFTAB2
 70
     6
  9
$SURFTYPE
 70
     6
  9
$SURFU
 70
     6
  9
$SURFV
 70
     6
  9
$UCSBASE
  2

  9
$UCSNAME
  2

  9
$UCSORG
 10
0.0
 20
0.0
 30
0.0
  9
$UCSXDIR
 10
1.0
 20
0.0
 30
0.0
  9
$UCSYDIR
 10
0.0
 20
1.0
 30
0.0
  9
$UCSORTHOREF
  2

  9
$UCSORTHOVIEW
 70
     0
  9
$UCSORGTOP
 10
0.0
 20
0.0
 30
0.0
  9
$UCSORGBOTTOM
 10
0.0
 20
0.0
 30
0.0
  9
$UCSORGLEFT
 10
0.0
 20
0.0
 30
0.0
  9
$UCSORGRIGHT
 10
0.0
 20
0.0
 30
0.0
  9
$UCSORGFRONT
 10
0.0
 20
0.0
 30
0.0
  9
$UCSORGBACK
 10
0.0
 20
0.0
 30
0.0
  9
$PUCSBASE
  2

  9
$PUCSNAME
  2

  9
$PUCSORG
 10
0.0
 20
0.0
 30
0.0
  9
$PUCSXDIR
 10
1.0
 20
0.0
 30
0.0
  9
$PUCSYDIR
 10
0.0
 20
1.0
 30
0.0
  9
$PUCSORTHOREF
  2

  9
$PUCSORTHOVIEW
 70
     0
  9
$PUCSORGTOP
 10
0.0
 20
0.0
 30
0.0
  9
$PUCSORGBOTTOM
 10
0.0
 20
0.0
 30
0.0
  9
$PUCSORGLEFT
 10
0.0
 20
0.0
 30
0.0
  9
$PUCSORGRIGHT
 10
0.0
 20
0.0
 30
0.0
  9
$PUCSORGFRONT
 10
0.0
 20
0.0
 30
0.0
  9
$PUCSORGBACK
 10
0.0
 20
0.0
 30
0.0
  9
$USERI1
 70
     0
  9
$USERI2
 70
     0
  9
$USERI3
 70
     0
  9
$USERI4
 70
     0
  9
$USERI5
 70
     0
  9
$USERR1
 40
0.0
  9
$USERR2
 40
0.0
  9
$USERR3
 40
0.0
  9
$USERR4
 40
0.0
  9
$USERR5
 40
0.0
  9
$WORLDVIEW
 70
     1
  9
$SHADEDGE
 70
     3
  9
$SHADEDIF
 70
    70
  9
$TILEMODE
 70
     1
  9
$MAXACTVP
 70
    16
  9
$PINSBASE
 10
0.0
 20
0.0
 30
0.0
  9
$PLIMCHECK
 70
     0
  9
$PEXTMIN
 10
1.000000000000000E+20
 20
1.000000000000000E+20
 30
1.000000000000000E+20
  9
$PEXTMAX
 10
-1.000000000000000E+20
 20
-1.000000000000000E+20
 30
-1.000000000000000E+20
  9
$PLIMMIN
 10
0.0
 20
0.0
  9
$PLIMMAX
 10
12.0
 20
9.0
  9
$UNITMODE
 70
     0
  9
$VISRETAIN
 70
     0
  9
$PLINEGEN
 70
     1
  9
$PSLTSCALE
 70
     1
  9
$TREEDEPTH
 70
  3020
  9
$CMLSTYLE
  2
STANDARD
  9
$CMLJUST
 70
     0
  9
$CMLSCALE
 40
1.0
  9
$PROXYGRAPHICS
 70
     1
  9
$MEASUREMENT
 70
     0
  9
$CELWEIGHT
370
    -1
  9
$ENDCAPS
280
     0
  9
$JOINSTYLE
280
     0
  9
$LWDISPLAY
290
     0
  9
$INSUNITS
 70
     0
  9
$HYPERLINKBASE
  1

  9
$STYLESHEET
  1

  9
$XEDIT
290
     1
  9
$CEPSNTYPE
380
     0
  9
$PSTYLEMODE
290
     1
  9
$FINGERPRINTGUID
  2
{E69871CD-2885-4CDC-996E-329D708AE1B5}
  9
$VERSIONGUID
  2
{FAEB1C32-E019-11D5-929B-00C0DF256EC4}
  9
$EXTNAMES
290
     1
  9
$PSVPSCALE
 40
0.0
  9
$OLESTARTUP
290
     0
  0
ENDSEC
  0
SECTION
  2
CLASSES
  0
CLASS
  1
LWPOLYLINE
  2
AcDbPolyline
  3
ObjectDBX Classes
 90
        0
280
     0
281
     1
  0
CLASS
  1
IMAGE
  2
AcDbRasterImage
  3
ISM
 90
      127
280
     0
281
     1
  0
CLASS
  1
OLE2FRAME
  2
AcDbOle2Frame
  3
ObjectDBX Classes
 90
        0
280
     0
281
     1
  0
CLASS
  1
HATCH
  2
AcDbHatch
  3
ObjectDBX Classes
 90
        0
280
     0
281
     1
  0
CLASS
  1
DICTIONARYVAR
  2
AcDbDictionaryVar
  3
ObjectDBX Classes
 90
        0
280
     0
281
     0
  0
CLASS
  1
RASTERVARIABLES
  2
AcDbRasterVariables
  3
ISM
 90
        0
280
     0
281
     0
  0
CLASS
  1
IMAGEDEF
  2
AcDbRasterImageDef
  3
ISM
 90
        0
280
     0
281
     0
  0
CLASS
  1
IMAGEDEF_REACTOR
  2
AcDbRasterImageDefReactor
  3
ISM
 90
        1
280
     0
281
     0
  0
CLASS
  1
IDBUFFER
  2
AcDbIdBuffer
  3
ObjectDBX Classes
 90
        0
280
     0
281
     0
  0
CLASS
  1
SPATIAL_FILTER
  2
AcDbSpatialFilter
  3
ObjectDBX Classes
 90
        0
280
     0
281
     0
  0
CLASS
  1
XRECORD
  2
AcDbXrecord
  3
ObjectDBX Classes
 90
        0
280
     0
281
     0
  0
CLASS
  1
SORTENTSTABLE
  2
AcDbSortentsTable
  3
ObjectDBX Classes
 90
        0
280
     0
281
     0
  0
CLASS
  1
LAYER_INDEX
  2
AcDbLayerIndex
  3
ObjectDBX Classes
 90
        0
280
     0
281
     0
  0
CLASS
  1
SPATIAL_INDEX
  2
AcDbSpatialIndex
  3
AutoCAD 2000
 90
        0
280
     0
281
     0
  0
CLASS
  1
OBJECT_PTR
  2
CAseDLPNTableRecord
  3
ASE-LPNTableRecord
 90
        1
280
     0
281
     0
  0
CLASS
  1
LAYOUT
  2
AcDbLayout
  3
ObjectDBX Classes
 90
        0
280
     0
281
     0
  0
CLASS
  1
PLOTSETTINGS
  2
AcDbPlotSettings
  3
ObjectDBX Classes
 90
        0
280
     0
281
     0
  0
CLASS
  1
ACDBDICTIONARYWDFLT
  2
AcDbDictionaryWithDefault
  3
ObjectDBX Classes
 90
        0
280
     0
281
     0
  0
CLASS
  1
ACDBPLACEHOLDER
  2
AcDbPlaceHolder
  3
ObjectDBX Classes
 90
        0
280
     0
281
     0
  0
CLASS
  1
VBA_PROJECT
  2
AcDbVbaProject
  3
ObjectDBX Classes
 90
        0
280
     0
281
     0
  0
CLASS
  1
WIPEOUT
  2
AcDbWipeout
  3
WipeOut|AutoCAD Express Tool|expresstools@autodesk.com
 90
      127
280
     0
281
     1
  0
CLASS
  1
WIPEOUTVARIABLES
  2
AcDbWipeoutVariables
  3
WipeOut|AutoCAD Express Tool|expresstools@autodesk.com
 90
        0
280
     0
281
     0
  0
CLASS
  1
RTEXT
  2
RText
  3
RText|AutoCAD Express Tool|expresstools@autodesk.com
 90
        0
280
     0
281
     1
  0
CLASS
  1
ARCALIGNEDTEXT
  2
AcDbArcAlignedText
  3
ATEXT|AutoCAD Express Tool|expresstools@autodesk.com
 90
        0
280
     0
281
     1
  0
CLASS
  1
SCALE
  2
AcDbScale
  3
ObjectDBX Classes
 90
     1153
280
     0
281
     0
  0
CLASS
  1
VISUALSTYLE
  2
AcDbVisualStyle
  3
ObjectDBX Classes
 90
     4095
280
     0
281
     0
  0
CLASS
  1
MATERIAL
  2
AcDbMaterial
  3
ObjectDBX Classes
 90
     1153
280
     0
281
     0
  0
ENDSEC
  0
SECTION
  2
TABLES
  0
TABLE
  2
VPORT
  5
7
102
{ACAD_XDICTIONARY
360
440
102
}
330
0
100
AcDbSymbolTable
 70
     1
  0
VPORT
  5
15
330
7
100
AcDbSymbolTableRecord
100
AcDbViewportTableRecord
  2
*ACTIVE
 70
     0
 10
0.0
 20
0.0
 11
1.0
 21
1.0
 12
105.0
 22
148.5
 13
0.0
 23
0.0
 14
1.0
 24
1.0
 15
0.0
 25
0.0
 16
0.0
 26
0.0
 36
1.0
 17
0.0
 27
0.0
 37
0.0
 40
297.0
 41
1.4142857143
 42
50.0
 43
0.0
 44
0.0
 50
0.0
 51
0.0
 71
     0
 72
  2000
 73
     1
 74
     1
 75
     0
 76
     0
 77
     0
 78
     0
281
     0
 65
     1
110
0.0
120
0.0
130
0.0
111
1.0
121
0.0
131
0.0
112
0.0
122
1.0
132
0.0
 79
     0
146
0.0
  0
ENDTAB
  0
TABLE
  2
LTYPE
  5
4
330
0
100
AcDbSymbolTable
 70
     6
  0
LTYPE
  5
11
330
4
100
AcDbSymbolTableRecord
100
AcDbLinetypeTableRecord
  2
BYBLOCK
 70
     0
  3

 72
    65
 73
     0
 40
0.0
  0
LTYPE
  5
12
330
4
100
AcDbSymbolTableRecord
100
AcDbLinetypeTableRecord
  2
BYLAYER
 70
     0
  3

 72
    65
 73
     0
 40
0.0
  0
LTYPE
  5
13
330
4
100
AcDbSymbolTableRecord
100
AcDbLinetypeTableRecord
  2
CONTINUOUS
 70
     0
  3
Solid line
 72
    65
 73
     0
 40
0.0
  0
LTYPE
  5
1D
330
4
100
AcDbSymbolTableRecord
100
AcDbLinetypeTableRecord
  2
HIDDEN
 70
     0
  3
Hidden __ __ __ __ __ __ __ __ __ __ __ __ __ __
 72
    65
 73
     2
 40
1.905
 49
1.27
 74
     0
 49
-0.635
 74
     0
  0
LTYPE
  5
1E
330
4
100
AcDbSymbolTableRecord
100
AcDbLinetypeTableRecord
  2
PHANTOM
 70
     0
  3
Phantom ______  __  __  ______  __  __  ______
 72
    65
 73
     6
 40
12.7
 49
6.35
 74
     0
 49
-1.27
 74
     0
 49
1.27
 74
     0
 49
-1.27
 74
     0
 49
1.27
 74
     0
 49
-1.27
 74
     0
  0
LTYPE
  5
1F
330
4
100
AcDbSymbolTableRecord
100
AcDbLinetypeTableRecord
  2
CENTER
 70
     0
  3
Center ____ _ ____ _ ____ _ ____ _ ____ _ ____
 72
    65
 73
     4
 40
10.16
 49
6.35
 74
     0
 49
-1.27
 74
     0
 49
1.27
 74
     0
 49
-1.27
 74
     0
  0
LTYPE
  5
20
330
4
100
AcDbSymbolTableRecord
100
AcDbLinetypeTableRecord
  2
CENTERX2
 70
     0
  3
Center (2x) ________  __  ________  __  _____
 72
    65
 73
     4
 40
20.32
 49
12.7
 74
     0
 49
-2.54
 74
     0
 49
2.54
 74
     0
 49
-2.54
 74
     0
  0
LTYPE
  5
21
330
4
100
AcDbSymbolTableRecord
100
AcDbLinetypeTableRecord
  2
DOT2
 70
     0
  3
Dot (.5x) ........................................
 72
    65
 73
     2
 40
0.635
 49
0.0
 74
     0
 49
-0.635
 74
     0
  0
LTYPE
  5
46A
330
5
100
AcDbSymbolTableRecord
100
AcDbLinetypeTableRecord
  2
DASH
 70
     0
  3
DASH _ _ _ _ _
 72
    65
 73
     2
 40
0.75
 49
0.40
 74
     0
 49
-0.35
 74
     0
  0
LTYPE
  5
46B
330
5
100
AcDbSymbolTableRecord
100
AcDbLinetypeTableRecord
  2
LONGDASH_DASH
 70
     0
  3
LONGDASH_DASH __ . __ . __
 72
    65
 73
     4
 40
0.85
 49
0.40
 74
     0
 49
-0.20
 74
     0
 49
0.05
 74
     0
 49
-0.20
 74
     0
  0
LTYPE
  5
46C
330
5
100
AcDbSymbolTableRecord
100
AcDbLinetypeTableRecord
  2
LONGDASH_DASH_DASH
 70
     0
  3
LONGDASH_DASH_DASH __ . . __ . . __
 72
    65
 73
     6
 40
1.10
 49
0.40
 74
     0
 49
-0.20
 74
     0
 49
0.05
 74
     0
 49
-0.20
 74
     0
 49
0.05
 74
     0
 49
-0.20
 74
     0
  0
ENDTAB
  0
TABLE
  2
LAYER
  5
2
330
0
100
AcDbSymbolTable
 70
     8
  0
LAYER
  5
23
330
2
100
AcDbSymbolTableRecord
100
AcDbLayerTableRecord
  2
DEFPOINTS
 70
     0
 62
     7
  6
CONTINUOUS
290
     0
370
    -3
390
0
  0
LAYER
  5
46D
330
2
100
AcDbSymbolTableRecord
100
AcDbLayerTableRecord
  2
0
 70
     0
 62
     -1
  6
CONTINUOUS
370
    -3
390
F
  0
LAYER
  5
46E
330
2
100
AcDbSymbolTableRecord
100
AcDbLayerTableRecord
  2
1
 70
     0
 62
     4
  6
CONTINUOUS
370
    50
390
F
  0
LAYER
  5
46F
330
2
100
AcDbSymbolTableRecord
100
AcDbLayerTableRecord
  2
2
 70
     0
 62
     7
  6
CONTINUOUS
370
    25
390
F
  0
LAYER
  5
470
330
2
100
AcDbSymbolTableRecord
100
AcDbLayerTableRecord
  2
3
 70
     0
 62
     1
  6
DASH
370
    35
390
F
  0
LAYER
  5
471
330
2
100
AcDbSymbolTableRecord
100
AcDbLayerTableRecord
  2
4
 70
     0
 62
     2
  6
LONGDASH_DASH
370
    25
390
F
  0
LAYER
  5
472
330
2
100
AcDbSymbolTableRecord
100
AcDbLayerTableRecord
  2
6
 70
     0
 62
     5
  6
CONTINUOUS
370
    -3
390
F
  0
LAYER
  5
473
330
2
100
AcDbSymbolTableRecord
100
AcDbLayerTableRecord
  2
CUT
 70
     0
 62
     1
  6
CONTINUOUS
370
    25
390
F
  0
LAYER
  5
474
330
2
100
AcDbSymbolTableRecord
100
AcDbLayerTableRecord
  2
NOCUT
 70
     0
 62
     7
  6
CONTINUOUS
370
    25
390
F
  0
LAYER
  5
475
330
2
100
AcDbSymbolTableRecord
100
AcDbLayerTableRecord
  2
SK1
 70
     0
 62
     4
  6
CONTINUOUS
370
    50
390
F
  0
LAYER
  5
476
330
2
100
AcDbSymbolTableRecord
100
AcDbLayerTableRecord
  2
SK2
 70
     0
 62
     7
  6
CONTINUOUS
370
    25
390
F
  0
LAYER
  5
477
330
2
100
AcDbSymbolTableRecord
100
AcDbLayerTableRecord
  2
SK3
 70
     0
 62
     1
  6
DASH
370
    35
390
F
  0
LAYER
  5
478
330
2
100
AcDbSymbolTableRecord
100
AcDbLayerTableRecord
  2
SK4
 70
     0
 62
     2
  6
LONGDASH_DASH
370
    25
390
F
  0
LAYER
  5
479
330
2
100
AcDbSymbolTableRecord
100
AcDbLayerTableRecord
  2
SK6
 70
     0
 62
     5
  6
CONTINUOUS
370
    -3
390
F
  0
LAYER
  5
47A
330
2
100
AcDbSymbolTableRecord
100
AcDbLayerTableRecord
  2
INFTOTAL
 70
     0
 62
     9
  6
CONTINUOUS
370
    18
390
F
  0
ENDTAB
  0
TABLE
  2
STYLE
  5
3
330
0
100
AcDbSymbolTable
 70
     2
  0
STYLE
  5
17
330
3
100
AcDbSymbolTableRecord
100
AcDbTextStyleTableRecord
  2
STANDARD
 70
     0
 40
0.0
 41
1.0
 50
0.0
 71
     0
 42
0.2
  3
txt
  4

  0
STYLE
  5
438
330
3
100
AcDbSymbolTableRecord
100
AcDbTextStyleTableRecord
  2
BMG_Text
 70
     0
 40
3.5
 41
1.0
 50
0.0
 71
     0
 42
0.0
  3
monos.ttf
  4

1001
ACAD
1000
Monospac821 BT
1071
       49
  0
ENDTAB
  0
TABLE
  2
VIEW
  5
5
330
0
100
AcDbSymbolTable
 70
     0
  0
ENDTAB
  0
TABLE
  2
UCS
  5
6
330
0
100
AcDbSymbolTable
 70
     0
  0
ENDTAB
  0
TABLE
  2
APPID
  5
8
330
0
100
AcDbSymbolTable
 70
     1
  0
APPID
  5
16
330
8
100
AcDbSymbolTableRecord
100
AcDbRegAppTableRecord
  2
ACAD
 70
     0
  0
ENDTAB
  0
TABLE
  2
DIMSTYLE
  5
9
330
0
100
AcDbSymbolTable
 70
     1
100
AcDbDimStyleTable
  0
DIMSTYLE
105
18
330
9
100
AcDbSymbolTableRecord
100
AcDbDimStyleTableRecord
  2
STANDARD
 70
     0
178
     0
340
17
  0
ENDTAB
  0
TABLE
  2
BLOCK_RECORD
  5
1
330
0
100
AcDbSymbolTable
 70
     0
  0
BLOCK_RECORD
  5
A
330
1
100
AcDbSymbolTableRecord
100
AcDbBlockTableRecord
  2
*MODEL_SPACE
340
421
  0
BLOCK_RECORD
  5
B
330
1
100
AcDbSymbolTableRecord
100
AcDbBlockTableRecord
  2
*PAPER_SPACE
340
422
  0
ENDTAB
  0
ENDSEC
  0
SECTION
  2
BLOCKS
  0
BLOCK
  5
D
330
A
100
AcDbEntity
  8
0
100
AcDbBlockBegin
  2
*MODEL_SPACE
 70
     0
 10
0.0
 20
0.0
 30
0.0
  3
*MODEL_SPACE
  1

  0
ENDBLK
  5
E
330
A
100
AcDbEntity
  8
0
100
AcDbBlockEnd
  0
BLOCK
  5
F
330
B
100
AcDbEntity
 67
     1
  8
0
100
AcDbBlockBegin
  2
*PAPER_SPACE
 70
     0
 10
0.0
 20
0.0
 30
0.0
  3
*PAPER_SPACE
  1

  0
ENDBLK
  5
10
330
B
100
AcDbEntity
 67
     1
  8
0
100
AcDbBlockEnd
  0
ENDSEC
  0
SECTION
  2
ENTITIES
  0
ARC
  5
29
330
A
100
AcDbEntity
  8
1
  6
CONTINUOUS
370
    50
100
AcDbCircle
 10
104.6729162324
 20
135.4514367194
 30
0.0
 40
0.5
100
AcDbArc
 50
66.4218215218
 51
90.0
  0
ARC
  5
2A
330
A
100
AcDbEntity
  8
1
  6
CONTINUOUS
370
    50
100
AcDbCircle
 10
104.6729162324
 20
180.3014367194
 30
0.0
 40
0.5
100
AcDbArc
 50
270.0
 51
293.5781784782001
  0
LINE
  5
2B
330
A
100
AcDbEntity
  8
1
  6
CONTINUOUS
370
    50
100
AcDbLine
 10
103.8729162324
 20
180.1014367194
 30
0.0
 11
36.405437591
 21
170.2624294173
 31
0.0
  0
LINE
  5
2C
330
A
100
AcDbEntity
  8
1
  6
CONTINUOUS
370
    50
100
AcDbLine
 10
36.405437591
 20
145.4904440215
 30
0.0
 11
103.8729162324
 21
135.6514367194
 31
0.0
  0
LINE
  5
2D
330
A
100
AcDbEntity
  8
1
  6
CONTINUOUS
370
    50
100
AcDbLine
 10
103.8729162324
 20
135.6514367194
 30
0.0
 11
104.415806509
 21
135.9045906129
 31
0.0
  0
LINE
  5
2E
330
A
100
AcDbEntity
  8
1
  6
CONTINUOUS
370
    50
100
AcDbLine
 10
104.415806509
 20
179.8482828259
 30
0.0
 11
103.8729162324
 21
180.1014367194
 31
0.0
  0
ARC
  5
2F
330
A
100
AcDbEntity
  8
1
  6
CONTINUOUS
370
    50
100
AcDbCircle
 10
104.6271156399
 20
135.4514367194
 30
0.0
 40
0.5
100
AcDbArc
 50
90.0
 51
115.0
  0
ARC
  5
30
330
A
100
AcDbEntity
  8
1
  6
CONTINUOUS
370
    50
100
AcDbCircle
 10
104.6271156399
 20
180.3014367194
 30
0.0
 40
0.5
100
AcDbArc
 50
245.0
 51
270.0
  0
ARC
  5
31
330
A
100
AcDbEntity
  8
1
  6
CONTINUOUS
370
    50
100
AcDbCircle
 10
127.9229162324
 20
139.4264367194
 30
0.0
 40
5.0
100
AcDbArc
 50
81.890385544
 51
180.0
  0
ARC
  5
32
330
A
100
AcDbEntity
  8
1
  6
CONTINUOUS
370
    50
100
AcDbCircle
 10
127.9229162324
 20
176.3264367194
 30
0.0
 40
5.0
100
AcDbArc
 50
180.0
 51
278.109614456
  0
LINE
  5
33
330
A
100
AcDbEntity
  8
1
  6
CONTINUOUS
370
    50
100
AcDbLine
 10
145.7543020239
 20
144.3764367194
 30
0.0
 11
182.8397881284
 21
147.2951277743
 31
0.0
  0
LINE
  5
34
330
A
100
AcDbEntity
  8
1
  6
CONTINUOUS
370
    50
100
AcDbLine
 10
182.8397881284
 20
168.4577456646
 30
0.0
 11
145.7543020239
 21
171.3764367194
 31
0.0
  0
LINE
  5
35
330
A
100
AcDbEntity
  8
1
  6
CONTINUOUS
370
    50
100
AcDbLine
 10
128.6282530314
 20
144.3764367194
 30
0.0
 11
145.7543020239
 21
144.3764367194
 31
0.0
  0
LINE
  5
36
330
A
100
AcDbEntity
  8
1
  6
CONTINUOUS
370
    50
100
AcDbLine
 10
145.7543020239
 20
171.3764367194
 30
0.0
 11
128.6282530314
 21
171.3764367194
 31
0.0
  0
ARC
  5
37
330
A
100
AcDbEntity
  8
1
  6
CONTINUOUS
370
    50
100
AcDbCircle
 10
36.5729162324
 20
146.4260689024
 30
0.0
 40
0.95
100
AcDbArc
 50
180.0
 51
258.0
  0
ARC
  5
38
330
A
100
AcDbEntity
  8
1
  6
CONTINUOUS
370
    50
100
AcDbCircle
 10
36.5729162324
 20
169.3268045364
 30
0.0
 40
0.95
100
AcDbArc
 50
102.0
 51
180.0
  0
ARC
  5
39
330
A
100
AcDbEntity
  8
1
  6
CONTINUOUS
370
    50
100
AcDbCircle
 10
181.8729162324
 20
149.0458872485
 30
0.0
 40
2.0
100
AcDbArc
 50
298.9100507073
 51
0.0
  0
ARC
  5
3A
330
A
100
AcDbEntity
  8
1
  6
CONTINUOUS
370
    50
100
AcDbCircle
 10
181.8729162324
 20
166.7069861903
 30
0.0
 40
2.0
100
AcDbArc
 50
0.0
 51
61.08994929269999
  0
LINE
  5
3B
330
A
100
AcDbEntity
  8
1
  6
CONTINUOUS
370
    50
100
AcDbLine
 10
118.4947528745
 20
127.3993551669
 30
0.0
 11
118.4947528745
 21
176.2264367194
 31
0.0
  0
LINE
  5
3C
330
A
100
AcDbEntity
  8
1
  6
CONTINUOUS
370
    50
100
AcDbLine
 10
122.4229162324
 20
176.2264367194
 30
0.0
 11
118.4947528745
 21
176.2264367194
 31
0.0
  0
LINE
  5
3D
330
A
100
AcDbEntity
  8
1
  6
CONTINUOUS
370
    50
100
AcDbLine
 10
122.4229162324
 20
127.3993551669
 30
0.0
 11
122.4229162324
 21
176.2264367194
 31
0.0
  0
LINE
  5
3E
330
A
100
AcDbEntity
  8
1
  6
CONTINUOUS
370
    50
100
AcDbLine
 10
122.4229162324
 20
127.3993551669
 30
0.0
 11
118.4947528745
 21
127.3993551669
 31
0.0
  0
LINE
  5
3F
330
A
100
AcDbEntity
  8
1
  6
CONTINUOUS
370
    50
100
AcDbLine
 10
118.4947528745
 20
127.3993551669
 30
0.0
 11
117.8892540492
 21
128.2493551694
 31
0.0
  0
LWPOLYLINE
  5
40
330
A
100
AcDbEntity
  8
1
  6
CONTINUOUS
370
    50
100
AcDbPolyline
 90
        3
 70
   128
 43
0.0
 10
116.8979162324
 20
130.0325644604
 10
117.4770816242
 20
128.9897934118
 10
117.8892540492
 20
128.2493551694
  0
LINE
  5
45
330
A
100
AcDbEntity
  8
1
  6
CONTINUOUS
370
    50
100
AcDbLine
 10
116.8979162324
 20
176.2264367194
 30
0.0
 11
116.8979162324
 21
130.0325644604
 31
0.0
  0
LINE
  5
46
330
A
100
AcDbEntity
  8
1
  6
CONTINUOUS
370
    50
100
AcDbLine
 10
118.4947528745
 20
176.2264367194
 30
0.0
 11
116.8979162324
 21
176.2264367194
 31
0.0
  0
LINE
  5
47
330
A
100
AcDbEntity
  8
1
  6
CONTINUOUS
370
    50
100
AcDbLine
 10
122.9229162324
 20
176.2264367194
 30
0.0
 11
122.9229162324
 21
127.8034815653
 31
0.0
  0
LINE
  5
48
330
A
100
AcDbEntity
  8
1
  6
CONTINUOUS
370
    50
100
AcDbLine
 10
122.9229162324
 20
127.8034815653
 30
0.0
 11
122.4229162324
 21
127.3993551669
 31
0.0
  0
LINE
  5
49
330
A
100
AcDbEntity
  8
1
  6
CONTINUOUS
370
    50
100
AcDbLine
 10
122.4229162324
 20
176.2264367194
 30
0.0
 11
122.9229162324
 21
176.2264367194
 31
0.0
  0
LINE
  5
4A
330
A
100
AcDbEntity
  8
1
  6
CONTINUOUS
370
    50
100
AcDbLine
 10
111.4510795904
 20
127.3993551669
 30
0.0
 11
111.4510795904
 21
176.2264367194
 31
0.0
  0
LINE
  5
4B
330
A
100
AcDbEntity
  8
1
  6
CONTINUOUS
370
    50
100
AcDbLine
 10
111.4510795904
 20
127.3993551669
 30
0.0
 11
106.72291623
 21
127.3993551669
 31
0.0
  0
LWPOLYLINE
  5
4C
330
A
100
AcDbEntity
  8
1
  6
CONTINUOUS
370
    50
100
AcDbPolyline
 90
        3
 70
   128
 43
0.0
 10
105.3729162324
 20
127.8264783168
 10
106.04553488
 20
127.6053900505
 10
106.72291623
 20
127.3993551669
  0
LINE
  5
51
330
A
100
AcDbEntity
  8
1
  6
CONTINUOUS
370
    50
100
AcDbLine
 10
105.3729162324
 20
176.2264367194
 30
0.0
 11
105.3729162324
 21
127.8264783168
 31
0.0
  0
LINE
  5
52
330
A
100
AcDbEntity
  8
1
  6
CONTINUOUS
370
    50
100
AcDbLine
 10
111.4510795904
 20
176.2264367194
 30
0.0
 11
105.3729162324
 21
176.2264367194
 31
0.0
  0
LINE
  5
53
330
A
100
AcDbEntity
  8
1
  6
CONTINUOUS
370
    50
100
AcDbLine
 10
112.0565784157
 20
128.2493551694
 30
0.0
 11
111.4510795904
 21
127.3993551669
 31
0.0
  0
LINE
  5
54
330
A
100
AcDbEntity
  8
1
  6
CONTINUOUS
370
    50
100
AcDbLine
 10
113.0479162324
 20
176.2264367194
 30
0.0
 11
111.4510795904
 21
176.2264367194
 31
0.0
  0
LINE
  5
55
330
A
100
AcDbEntity
  8
1
  6
CONTINUOUS
370
    50
100
AcDbLine
 10
113.0479162324
 20
130.0325644604
 30
0.0
 11
113.0479162324
 21
176.2264367194
 31
0.0
  0
LWPOLYLINE
  5
56
330
A
100
AcDbEntity
  8
1
  6
CONTINUOUS
370
    50
100
AcDbPolyline
 90
        3
 70
   128
 43
0.0
 10
112.0565784157
 20
128.2493551694
 10
112.4687508406
 20
128.9897934118
 10
113.0479162324
 20
130.0325644604
  0
LINE
  5
5B
330
A
100
AcDbEntity
  8
1
  6
CONTINUOUS
370
    50
100
AcDbLine
 10
105.3729162324
 20
127.8264783168
 30
0.0
 11
104.8729162324
 21
128.5336352172
 31
0.0
  0
LINE
  5
5C
330
A
100
AcDbEntity
  8
1
  6
CONTINUOUS
370
    50
100
AcDbLine
 10
104.8729162324
 20
128.5336352172
 30
0.0
 11
104.8729162324
 21
176.2264367194
 31
0.0
  0
LINE
  5
5D
330
A
100
AcDbEntity
  8
1
  6
CONTINUOUS
370
    50
100
AcDbLine
 10
104.8729162324
 20
176.2264367194
 30
0.0
 11
105.3729162324
 21
176.2264367194
 31
0.0
  0
ARC
  5
5E
330
A
100
AcDbEntity
  8
1
  6
CONTINUOUS
370
    50
100
AcDbCircle
 10
113.5593121712
 20
130.5472070483
 30
0.0
 40
0.5114987785
100
AcDbArc
 50
91.27662714070001
 51
181.1489553389
  0
LINE
  5
5F
330
A
100
AcDbEntity
  8
1
  6
CONTINUOUS
370
    50
100
AcDbLine
 10
113.0479162324
 20
176.2264367194
 30
0.0
 11
113.5479162324
 21
176.2264367194
 31
0.0
  0
LINE
  5
60
330
A
100
AcDbEntity
  8
1
  6
CONTINUOUS
370
    50
100
AcDbLine
 10
113.5479162324
 20
176.2264367194
 30
0.0
 11
113.5479162324
 21
131.0585788631
 31
0.0
  0
ARC
  5
61
330
A
100
AcDbEntity
  8
1
  6
CONTINUOUS
370
    50
100
AcDbCircle
 10
116.388213742
 20
130.5488302812
 30
0.0
 40
0.5098409115
100
AcDbArc
 50
358.6648465175
 51
88.9095710029
  0
LINE
  5
62
330
A
100
AcDbEntity
  8
1
  6
CONTINUOUS
370
    50
100
AcDbLine
 10
116.3979162324
 20
176.2264367194
 30
0.0
 11
116.3979162324
 21
131.0585788631
 31
0.0
  0
LINE
  5
63
330
A
100
AcDbEntity
  8
1
  6
CONTINUOUS
370
    50
100
AcDbLine
 10
116.3979162324
 20
176.2264367194
 30
0.0
 11
116.8979162324
 21
176.2264367194
 31
0.0
  0
LINE
  5
64
330
A
100
AcDbEntity
  8
1
  6
CONTINUOUS
370
    50
100
AcDbLine
 10
116.3979162324
 20
131.0585788631
 30
0.0
 11
113.5479162324
 21
131.0585788631
 31
0.0
  0
LINE
  5
65
330
A
100
AcDbEntity
  8
1
  6
CONTINUOUS
370
    50
100
AcDbLine
 10
113.5479162324
 20
176.2264367194
 30
0.0
 11
116.3979162324
 21
176.2264367194
 31
0.0
  0
LINE
  5
66
330
A
100
AcDbEntity
  8
1
  6
CONTINUOUS
370
    50
100
AcDbLine
 10
36.405437591
 20
170.2624294173
 30
0.0
 11
36.405437591
 21
145.4904440215
 31
0.0
  0
LINE
  5
67
330
A
100
AcDbEntity
  8
1
  6
CONTINUOUS
370
    50
100
AcDbLine
 10
103.8729162324
 20
135.6514367194
 30
0.0
 11
103.8729162324
 21
180.1014367194
 31
0.0
  0
LINE
  5
68
330
A
100
AcDbEntity
  8
1
  6
CONTINUOUS
370
    50
100
AcDbLine
 10
128.6282530314
 20
144.3764367194
 30
0.0
 11
128.6282530314
 21
171.3764367194
 31
0.0
  0
LINE
  5
69
330
A
100
AcDbEntity
  8
1
  6
CONTINUOUS
370
    50
100
AcDbLine
 10
105.3729162324
 20
183.7866663595
 30
0.0
 11
104.8729162324
 21
183.1714955254
 31
0.0
  0
LINE
  5
6A
330
A
100
AcDbEntity
  8
1
  6
CONTINUOUS
370
    50
100
AcDbLine
 10
105.3729162324
 20
183.7866663595
 30
0.0
 11
111.4510795904
 21
183.7866663595
 31
0.0
  0
LINE
  5
6B
330
A
100
AcDbEntity
  8
1
  6
CONTINUOUS
370
    50
100
AcDbLine
 10
111.4510795904
 20
183.7866663595
 30
0.0
 11
113.0479162324
 21
180.3121498209
 31
0.0
  0
LINE
  5
6C
330
A
100
AcDbEntity
  8
1
  6
CONTINUOUS
370
    50
100
AcDbLine
 10
113.0479162324
 20
179.6830297591
 30
0.0
 11
113.0479162324
 21
180.3121498209
 31
0.0
  0
ARC
  5
6D
330
A
100
AcDbEntity
  8
1
  6
CONTINUOUS
370
    50
100
AcDbCircle
 10
113.6216365433
 20
179.6003177227
 30
0.0
 40
0.5796518576
100
AcDbArc
 50
171.796313914
 51
262.6933157889
  0
LINE
  5
6E
330
A
100
AcDbEntity
  8
1
  6
CONTINUOUS
370
    50
100
AcDbLine
 10
116.3979162324
 20
179.0253728629
 30
0.0
 11
113.5479162324
 21
179.0253728629
 31
0.0
  0
LWPOLYLINE
  5
6F
330
A
100
AcDbEntity
  8
1
  6
CONTINUOUS
370
    50
100
AcDbPolyline
 90
        7
 70
   128
 43
0.0
 10
116.8979162324
 20
179.6830297591
 10
116.8534077041
 20
179.4128099679
 10
116.7485229487
 20
179.2150275717
 10
116.6266153295
 20
179.0986239282
 10
116.5556118163
 20
179.059147168
 10
116.4291335575
 20
179.0266643171
 10
116.3979162324
 20
179.0253728629
  0
LINE
  5
78
330
A
100
AcDbEntity
  8
1
  6
CONTINUOUS
370
    50
100
AcDbLine
 10
116.8979162324
 20
180.3121498209
 30
0.0
 11
116.8979162324
 21
179.6830297591
 31
0.0
  0
LINE
  5
79
330
A
100
AcDbEntity
  8
1
  6
CONTINUOUS
370
    50
100
AcDbLine
 10
116.8979162324
 20
180.3121498209
 30
0.0
 11
118.4947528745
 21
183.7866663595
 31
0.0
  0
LINE
  5
7A
330
A
100
AcDbEntity
  8
1
  6
CONTINUOUS
370
    50
100
AcDbLine
 10
118.4947528745
 20
183.7866663595
 30
0.0
 11
122.4229162324
 21
183.7866663595
 31
0.0
  0
LINE
  5
7B
330
A
100
AcDbEntity
  8
1
  6
CONTINUOUS
370
    50
100
AcDbLine
 10
122.9229162324
 20
183.1714955254
 30
0.0
 11
122.4229162324
 21
183.7866663595
 31
0.0
  0
LINE
  5
7C
330
A
100
AcDbEntity
  8
1
  6
CONTINUOUS
370
    50
100
AcDbLine
 10
104.8729162324
 20
183.1714955254
 30
0.0
 11
104.8729162324
 21
176.2264367194
 31
0.0
  0
LINE
  5
7D
330
A
100
AcDbEntity
  8
1
  6
CONTINUOUS
370
    50
100
AcDbLine
 10
122.9229162324
 20
183.1714955254
 30
0.0
 11
122.9229162324
 21
176.2264367194
 31
0.0
  0
LINE
  5
7E
330
A
100
AcDbEntity
  8
1
  6
CONTINUOUS
370
    50
100
AcDbLine
 10
113.5479162324
 20
184.6942945757
 30
0.0
 11
113.5479162324
 21
179.0253728629
 31
0.0
  0
ARC
  5
7F
330
A
100
AcDbEntity
  8
1
  6
CONTINUOUS
370
    50
100
AcDbCircle
 10
113.5602098861
 20
185.2065268835
 30
0.0
 40
0.5123798114
100
AcDbArc
 50
178.9492610515
 51
268.625156469
  0
LINE
  5
80
330
A
100
AcDbEntity
  8
1
  6
CONTINUOUS
370
    50
100
AcDbLine
 10
116.3979162324
 20
184.6942945757
 30
0.0
 11
116.3979162324
 21
179.0253728629
 31
0.0
  0
LINE
  5
81
330
A
100
AcDbEntity
  8
1
  6
CONTINUOUS
370
    50
100
AcDbLine
 10
116.3979162324
 20
184.6942945757
 30
0.0
 11
113.5479162324
 21
184.6942945757
 31
0.0
  0
ARC
  5
82
330
A
100
AcDbEntity
  8
1
  6
CONTINUOUS
370
    50
100
AcDbCircle
 10
116.3872828242
 20
185.2049354768
 30
0.0
 40
0.5107516023
100
AcDbArc
 50
271.1929349490001
 51
1.2326475307
  0
LINE
  5
83
330
A
100
AcDbEntity
  8
1
  6
CONTINUOUS
370
    50
100
AcDbLine
 10
111.4510795904
 20
188.3535182719
 30
0.0
 11
112.0565784157
 21
187.5035182694
 31
0.0
  0
LINE
  5
84
330
A
100
AcDbEntity
  8
1
  6
CONTINUOUS
370
    50
100
AcDbLine
 10
112.0565784157
 20
187.5035182694
 30
0.0
 11
113.0479162324
 21
185.7203089784
 31
0.0
  0
LINE
  5
85
330
A
100
AcDbEntity
  8
1
  6
CONTINUOUS
370
    50
100
AcDbLine
 10
111.4510795904
 20
183.7866663595
 30
0.0
 11
111.4510795904
 21
188.3535182719
 31
0.0
  0
LINE
  5
86
330
A
100
AcDbEntity
  8
1
  6
CONTINUOUS
370
    50
100
AcDbLine
 10
113.0479162324
 20
180.3121498209
 30
0.0
 11
113.0479162324
 21
185.7203089784
 31
0.0
  0
LINE
  5
87
330
A
100
AcDbEntity
  8
1
  6
CONTINUOUS
370
    50
100
AcDbLine
 10
117.8892540492
 20
187.5035182694
 30
0.0
 11
118.4947528745
 21
188.3535182719
 31
0.0
  0
LINE
  5
88
330
A
100
AcDbEntity
  8
1
  6
CONTINUOUS
370
    50
100
AcDbLine
 10
118.4947528745
 20
183.7866663595
 30
0.0
 11
118.4947528745
 21
188.3535182719
 31
0.0
  0
LINE
  5
89
330
A
100
AcDbEntity
  8
1
  6
CONTINUOUS
370
    50
100
AcDbLine
 10
116.8979162324
 20
185.7203089784
 30
0.0
 11
117.8892540492
 21
187.5035182694
 31
0.0
  0
LINE
  5
8A
330
A
100
AcDbEntity
  8
1
  6
CONTINUOUS
370
    50
100
AcDbLine
 10
116.8979162324
 20
185.7203089784
 30
0.0
 11
116.8979162324
 21
180.3121498209
 31
0.0
  0
LINE
  5
8B
330
A
100
AcDbEntity
  8
1
  6
CONTINUOUS
370
    50
100
AcDbLine
 10
105.3729162324
 20
187.926395122
 30
0.0
 11
105.3729162324
 21
183.7866663595
 31
0.0
  0
LINE
  5
8C
330
A
100
AcDbEntity
  8
1
  6
CONTINUOUS
370
    50
100
AcDbLine
 10
104.8729162324
 20
187.2192382217
 30
0.0
 11
105.3729162324
 21
187.926395122
 31
0.0
  0
LINE
  5
8D
330
A
100
AcDbEntity
  8
1
  6
CONTINUOUS
370
    50
100
AcDbLine
 10
104.8729162324
 20
183.1714955254
 30
0.0
 11
104.8729162324
 21
187.2192382217
 31
0.0
  0
LINE
  5
8E
330
A
100
AcDbEntity
  8
1
  6
CONTINUOUS
370
    50
100
AcDbLine
 10
106.72291623
 20
188.3535182719
 30
0.0
 11
111.4510795904
 21
188.3535182719
 31
0.0
  0
LWPOLYLINE
  5
8F
330
A
100
AcDbEntity
  8
1
  6
CONTINUOUS
370
    50
100
AcDbPolyline
 90
        3
 70
   128
 43
0.0
 10
105.3729162324
 20
187.926395122
 10
106.04553488
 20
188.1474833883
 10
106.72291623
 20
188.3535182719
  0
LINE
  5
94
330
A
100
AcDbEntity
  8
1
  6
CONTINUOUS
370
    50
100
AcDbLine
 10
122.4229162324
 20
183.7866663595
 30
0.0
 11
122.4229162324
 21
188.3535182719
 31
0.0
  0
LINE
  5
95
330
A
100
AcDbEntity
  8
1
  6
CONTINUOUS
370
    50
100
AcDbLine
 10
122.4229162324
 20
188.3535182719
 30
0.0
 11
122.9229162324
 21
187.9493918735
 31
0.0
  0
LINE
  5
96
330
A
100
AcDbEntity
  8
1
  6
CONTINUOUS
370
    50
100
AcDbLine
 10
122.9229162324
 20
187.9493918735
 30
0.0
 11
122.9229162324
 21
183.1714955254
 31
0.0
  0
LINE
  5
97
330
A
100
AcDbEntity
  8
1
  6
CONTINUOUS
370
    50
100
AcDbLine
 10
118.4947528745
 20
188.3535182719
 30
0.0
 11
122.4229162324
 21
188.3535182719
 31
0.0
  0
LINE
  5
98
330
A
100
AcDbEntity
  8
1
  6
CONTINUOUS
370
    50
100
AcDbLine
 10
182.8397881284
 20
168.4577456646
 30
0.0
 11
182.8397881284
 21
147.2951277743
 31
0.0
  0
LINE
  5
99
330
A
100
AcDbEntity
  8
1
  6
CONTINUOUS
370
    50
100
AcDbLine
 10
145.7543020239
 20
144.3764367194
 30
0.0
 11
145.7543020239
 21
171.3764367194
 31
0.0
  0
LINE
  5
9A
330
A
100
AcDbEntity
  8
1
  6
CONTINUOUS
370
    50
100
AcDbLine
 10
35.6229162324
 20
146.4260689025
 30
0.0
 11
35.6229162324
 21
169.3268045364
 31
0.0
  0
LINE
  5
9B
330
A
100
AcDbEntity
  8
1
  6
CONTINUOUS
370
    50
100
AcDbLine
 10
183.8729162324
 20
149.0458872593
 30
0.0
 11
183.8729162324
 21
166.7069861903
 31
0.0
  0
LINE
  5
9C
330
A
100
AcDbEntity
  8
1
  6
CONTINUOUS
370
    50
100
AcDbLine
 10
104.6729162324
 20
135.9514367194
 30
0.0
 11
104.6729162324
 21
179.8014367194
 31
0.0
  0
LINE
  5
9D
330
A
100
AcDbEntity
  8
1
  6
CONTINUOUS
370
    50
100
AcDbLine
 10
104.415806509
 20
135.9045906129
 30
0.0
 11
104.415806509
 21
179.8482828259
 31
0.0
  0
LINE
  5
9E
330
A
100
AcDbEntity
  8
1
  6
CONTINUOUS
370
    50
100
AcDbLine
 10
104.6271156399
 20
135.9514367194
 30
0.0
 11
104.6271156399
 21
179.8014367194
 31
0.0
  0
LINE
  5
9F
330
A
100
AcDbEntity
  8
1
  6
CONTINUOUS
370
    50
100
AcDbLine
 10
36.3754001262
 20
145.4968286817
 30
0.0
 11
36.3754001262
 21
170.2560447571
 31
0.0
  0
LWPOLYLINE
  5
A0
330
A
100
AcDbEntity
  8
1
  6
CONTINUOUS
370
    50
100
AcDbPolyline
 90
       27
 70
   128
 43
0.0
 10
119.5236951662
 20
149.2442717401
 10
119.4747180617
 20
148.7540042875
 10
119.5041536723
 20
148.2922293972
 10
119.6102913073
 20
147.8857837474
 10
119.7869626331
 20
147.5582884818
 10
120.0239001546
 20
147.3287764348
 10
120.307333924
 20
147.2105860125
 10
120.6207918011
 20
147.2105860125
 10
120.9460567534
 20
147.3287764348
 10
121.2642255641
 20
147.5582884818
 10
121.5568074184
 20
147.8857837474
 10
121.8067985225
 20
148.2922293972
 10
121.9996703021
 20
148.7540042875
 10
122.1242137504
 20
149.2442717401
 10
122.1731908549
 20
149.7345391927
 10
122.1437552443
 20
150.1963140829
 10
122.0376176093
 20
150.6027597328
 10
121.8609462834
 20
150.9302549984
 10
121.624008762
 20
151.1597670453
 10
121.3405749925
 20
151.2779574677
 10
121.0271171155
 20
151.2779574677
 10
120.7018521632
 20
151.1597670453
 10
120.3836833525
 20
150.9302549984
 10
120.0911014982
 20
150.6027597328
 10
119.8411103941
 20
150.1963140829
 10
119.6482386145
 20
149.7345391927
 10
119.5236951662
 20
149.2442717401
  0
LWPOLYLINE
  5
BD
330
A
100
AcDbEntity
  8
1
  6
CONTINUOUS
370
    50
100
AcDbPolyline
 90
       18
 70
   128
 43
0.0
 10
114.7122443691
 20
149.4477723366
 10
114.6955748505
 20
149.3435909293
 10
114.6794729923
 20
149.2957574684
 10
114.664487124
 20
149.305900865
 10
114.6511275715
 20
149.3736756979
 10
114.6398492782
 20
149.4967739765
 10
114.6310363129
 20
149.6710037366
 10
114.6249887905
 20
149.8904317926
 10
114.6219126522
 20
150.1475857852
 10
114.6219126522
 20
150.4337086437
 10
114.6249887905
 20
150.7390567973
 10
114.6310363129
 20
151.0532319809
 10
114.6398492782
 20
151.3655353353
 10
114.6511275715
 20
151.6653317444
 10
114.664487124
 20
151.9424120011
 10
114.6794729923
 20
152.1873404695
 10
114.6955748505
 20
152.3917764044
 10
114.7122443691
 20
152.5487579852
  0
LWPOLYLINE
  5
D1
330
A
100
AcDbEntity
  8
1
  6
CONTINUOUS
370
    50
100
AcDbPolyline
 90
       18
 70
   128
 43
0.0
 10
114.7122443691
 20
152.5487579852
 10
114.2146797676
 20
152.5297879918
 10
113.7340591318
 20
152.4586638253
 10
113.2867494211
 20
152.3378075338
 10
112.8879832312
 20
152.1713347334
 10
112.5513400663
 20
151.9649144556
 10
112.2882839058
 20
151.7255760955
 10
112.1077728116
 20
151.4614700338
 10
112.0159538726
 20
151.1815900857
 10
112.0159538726
 20
150.8954672272
 10
112.1077728116
 20
150.612845029
 10
112.2882839058
 20
150.3433478512
 10
112.5513400663
 20
150.0961530968
 10
112.8879832312
 20
149.8796786869
 10
113.2867494211
 20
149.7012963977
 10
113.7340591318
 20
149.5670808242
 10
114.2146797676
 20
149.4816025167
 10
114.7122443691
 20
149.4477723366
  0
LWPOLYLINE
  5
E5
330
A
100
AcDbEntity
  8
1
  6
CONTINUOUS
370
    50
100
AcDbPolyline
 90
       27
 70
   128
 43
0.0
 10
119.5251206203
 20
149.2452945524
 10
119.6491861665
 20
149.7336807349
 10
119.8413178523
 20
150.1936836877
 10
120.0903496824
 20
150.5985697112
 10
120.3818088323
 20
150.9248083014
 10
120.6987567553
 20
151.1534396573
 10
121.0227735904
 20
151.2711765556
 10
121.3350286569
 20
151.2711765556
 10
121.6173748252
 20
151.1534396573
 10
121.8534031623
 20
150.9248083014
 10
122.0293965592
 20
150.5985697112
 10
122.1351269195
 20
150.1936836877
 10
122.1644495788
 20
149.7336807349
 10
122.1156604108
 20
149.2452945524
 10
121.9915948647
 20
148.7569083699
 10
121.7994631789
 20
148.2969054171
 10
121.5504313487
 20
147.8920193935
 10
121.2589721989
 20
147.5657808033
 10
120.9420242758
 20
147.3371494474
 10
120.6180074407
 20
147.2194125491
 10
120.3057523743
 20
147.2194125491
 10
120.023406206
 20
147.3371494474
 10
119.7873778689
 20
147.5657808033
 10
119.6113844719
 20
147.8920193935
 10
119.5056541116
 20
148.2969054171
 10
119.4763314523
 20
148.7569083699
 10
119.5251206203
 20
149.2452945524
  0
LWPOLYLINE
  5
102
330
A
100
AcDbEntity
  8
1
  6
CONTINUOUS
370
    50
100
AcDbPolyline
 90
       24
 70
   128
 43
0.0
 10
121.5579480953
 20
149.3268208657
 10
121.4432119018
 20
148.8925473607
 10
121.2612153728
 20
148.4904819349
 10
121.0254563583
 20
148.1504439415
 10
120.7534200258
 20
147.8976524431
 10
120.4652820656
 20
147.7508558286
 10
120.1824123522
 20
147.7209413313
 10
119.925790038
 20
147.8101275726
 10
119.7144476263
 20
148.0118000172
 10
119.5640594167
 20
148.3110015422
 10
119.485779015
 20
148.6855417394
 10
119.4854121202
 20
149.1076426757
 10
119.5629859434
 20
149.5459990557
 10
119.712747189
 20
149.9680999921
 10
119.9235887504
 20
150.3426401893
 10
120.1798734737
 20
150.6418417143
 10
120.4625938933
 20
150.8435141588
 10
120.750781929
 20
150.9327004002
 10
121.0230639926
 20
150.9027859029
 10
121.2592461691
 20
150.7559892884
 10
121.4418119069
 20
150.50319779
 10
121.5572211404
 20
150.1631597966
 10
121.5969144947
 20
149.7610943708
 10
121.5579480953
 20
149.3268208657
  0
ARC
  5
11C
330
A
100
AcDbEntity
  8
1
  6
CONTINUOUS
370
    50
100
AcDbCircle
 10
116.2842631253
 20
152.3537374303
 30
0.0
 40
1.5840694387
100
AcDbArc
 50
169.583782061
 51
172.9281661
  0
ARC
  5
11D
330
A
100
AcDbEntity
  8
1
  6
CONTINUOUS
370
    50
100
AcDbCircle
 10
110.4862270131
 20
142.5937200519
 30
0.0
 40
10.9045232032
100
AcDbArc
 50
65.78271100279999
 51
67.1179062878
  0
ARC
  5
11E
330
A
100
AcDbEntity
  8
1
  6
CONTINUOUS
370
    50
100
AcDbCircle
 10
114.6418549608
 20
147.8264626697
 30
0.0
 40
4.7228198903
100
AcDbArc
 50
86.14663913299998
 51
89.14602601050001
  0
ARC
  5
11F
330
A
100
AcDbEntity
  8
1
  6
CONTINUOUS
370
    50
100
AcDbCircle
 10
114.7827719262
 20
154.1634216244
 30
0.0
 40
4.7161766657
100
AcDbArc
 50
269.1431444838
 51
272.1444122427
  0
ARC
  5
120
330
A
100
AcDbEntity
  8
1
  6
CONTINUOUS
370
    50
100
AcDbCircle
 10
120.7326395179
 20
160.3992266048
 30
0.0
 40
12.3776278992
100
AcDbArc
 50
240.9706336714
 51
242.1966722693
  0
ARC
  5
121
330
A
100
AcDbEntity
  8
1
  6
CONTINUOUS
370
    50
100
AcDbCircle
 10
110.4569490943
 20
149.9772199148
 30
0.0
 40
4.2881059472
100
AcDbArc
 50
352.9076566896
 51
354.6390928982
  0
LWPOLYLINE
  5
122
330
A
100
AcDbEntity
  8
1
  6
CONTINUOUS
370
    50
100
AcDbPolyline
 90
       24
 70
   128
 43
0.0
 10
111.375833283
 20
151.6625811544
 10
111.3368668837
 20
151.2283076494
 10
111.376560238
 20
150.8262422235
 10
111.4919694714
 20
150.4862042302
 10
111.6745352092
 20
150.2334127318
 10
111.9107173857
 20
150.0866161172
 10
112.1829994494
 20
150.0567016199
 10
112.4711874851
 20
150.1458878613
 10
112.7539079046
 20
150.3475603058
 10
113.0101926279
 20
150.6467618309
 10
113.2210341894
 20
151.0213020281
 10
113.3707954349
 20
151.4434029644
 10
113.4483692581
 20
151.8817593444
 10
113.4480023634
 20
152.3038602808
 10
113.3697219616
 20
152.678400478
 10
113.2193337521
 20
152.977602003
 10
113.0079913403
 20
153.1792744475
 10
112.7513690262
 20
153.2684606889
 10
112.4684993127
 20
153.2385461916
 10
112.1803613526
 20
153.0917495771
 10
111.9083250201
 20
152.8389580786
 10
111.6725660055
 20
152.4989200853
 10
111.4905694765
 20
152.0968546595
 10
111.375833283
 20
151.6625811544
  0
LINE
  5
13C
330
A
100
AcDbEntity
  8
1
  6
CONTINUOUS
370
    50
100
AcDbLine
 10
105.1260701259
 20
135.2764367194
 30
0.0
 11
105.1260701259
 21
180.8690957508
 31
0.0
  0
LINE
  5
13D
330
A
100
AcDbEntity
  8
1
  6
CONTINUOUS
370
    50
100
AcDbLine
 10
105.1729162324
 20
135.2764367194
 30
0.0
 11
105.1729162324
 21
180.6577866199
 31
0.0
  0
LWPOLYLINE
  5
13E
330
A
100
AcDbEntity
  8
1
  6
CONTINUOUS
370
    50
100
AcDbPolyline
 90
        9
 70
   128
 43
0.0
 10
114.9592433192
 20
152.5386057433
 10
114.9301213693
 20
152.5564593196
 10
114.9009449403
 20
152.5728655983
 10
114.8717418181
 20
152.5878089549
 10
114.8425398144
 20
152.601275158
 10
114.8133667396
 20
152.6132513832
 10
114.7842503767
 20
152.623726225
 10
114.7552184544
 20
152.6326897076
 10
114.7262986214
 20
152.6401332947
  0
LWPOLYLINE
  5
149
330
A
100
AcDbEntity
  8
1
  6
CONTINUOUS
370
    50
100
AcDbPolyline
 90
       26
 70
   128
 43
0.0
 10
111.1514629566
 20
151.6647796175
 10
111.1045022685
 20
151.1795684781
 10
111.1383018868
 20
150.724844939
 10
111.2507380571
 20
150.3291809527
 10
111.4347460015
 20
150.0174375424
 10
111.6787638239
 20
149.8092026932
 10
111.9674589873
 20
149.7175605665
 10
112.2826917126
 20
149.7482693741
 10
112.6046547686
 20
149.8993995688
 10
112.9131180321
 20
150.1614550846
 10
113.188699622
 20
150.5179700095
 10
113.4140837335
 20
150.9465431999
 10
113.5751086539
 20
151.4202458258
 10
113.6616565952
 20
151.9093134092
 10
113.668289432
 20
152.3830160352
 10
113.5945903988
 20
152.8115892255
 10
113.4451902768
 20
153.1681041505
 10
113.2294764253
 20
153.4301596662
 10
112.9610029387
 20
153.5812898609
 10
112.6566389938
 20
153.6119986685
 10
112.3355088964
 20
153.5203565418
 10
112.0177904317
 20
153.3121216927
 10
111.7234470192
 20
153.0003782824
 10
111.4709733381
 20
152.604714296
 10
111.2762332384
 20
152.149990757
 10
111.1514629566
 20
151.6647796175
  0
LWPOLYLINE
  5
165
330
A
100
AcDbEntity
  8
1
  6
CONTINUOUS
370
    50
100
AcDbPolyline
 90
       26
 70
   128
 43
0.0
 10
111.159123401
 20
151.6625811544
 10
111.1121627129
 20
151.177370015
 10
111.1459623312
 20
150.7226464759
 10
111.2583985015
 20
150.3269824895
 10
111.4424064459
 20
150.0152390793
 10
111.6864242684
 20
149.8070042301
 10
111.9751194317
 20
149.7153621034
 10
112.2903521571
 20
149.746070911
 10
112.612315213
 20
149.8972011057
 10
112.9207784766
 20
150.1592566214
 10
113.1963600665
 20
150.5157715464
 10
113.4217441779
 20
150.9443447368
 10
113.5827690983
 20
151.4180473627
 10
113.6693170396
 20
151.9071149461
 10
113.6759498764
 20
152.3808175721
 10
113.6022508432
 20
152.8093907624
 10
113.4528507213
 20
153.1659056874
 10
113.2371368697
 20
153.4279612031
 10
112.9686633832
 20
153.5790913978
 10
112.6642994382
 20
153.6098002054
 10
112.3431693408
 20
153.5181580787
 10
112.0254508761
 20
153.3099232296
 10
111.7311074636
 20
152.9981798193
 10
111.4786337826
 20
152.6025158329
 10
111.2838936828
 20
152.1477922938
 10
111.159123401
 20
151.6625811544
  0
LWPOLYLINE
  5
181
330
A
100
AcDbEntity
  8
1
  6
CONTINUOUS
370
    50
100
AcDbPolyline
 90
       24
 70
   128
 43
0.0
 10
111.3681728386
 20
151.6647796175
 10
111.3292064392
 20
151.2305061125
 10
111.3688997935
 20
150.8284406866
 10
111.484309027
 20
150.4884026933
 10
111.6668747648
 20
150.2356111949
 10
111.9030569413
 20
150.0888145803
 10
112.1753390049
 20
150.0589000831
 10
112.4635270406
 20
150.1480863244
 10
112.7462474602
 20
150.3497587689
 10
113.0025321835
 20
150.648960294
 10
113.2133737449
 20
151.0235004912
 10
113.3631349905
 20
151.4456014275
 10
113.4407088137
 20
151.8839578075
 10
113.440341919
 20
152.3060587439
 10
113.3620615172
 20
152.6805989411
 10
113.2116733077
 20
152.9798004661
 10
113.0003308959
 20
153.1814729106
 10
112.7437085817
 20
153.270659152
 10
112.4608388683
 20
153.2407446547
 10
112.1727009081
 20
153.0939480402
 10
111.9006645756
 20
152.8411565417
 10
111.6649055611
 20
152.5011185484
 10
111.4829090321
 20
152.0990531226
 10
111.3681728386
 20
151.6647796175
  0
LWPOLYLINE
  5
19B
330
A
100
AcDbEntity
  8
1
  6
CONTINUOUS
370
    50
100
AcDbPolyline
 90
       23
 70
   128
 43
0.0
 10
96.6283315599
 20
155.8949515743
 10
96.5507877039
 20
155.4883877251
 10
96.6182676952
 20
155.0888614078
 10
96.8163339849
 20
154.7398545584
 10
97.1461775565
 20
154.4375975927
 10
97.78236232
 20
154.1407041467
 10
98.797435408
 20
153.9912653545
 10
99.4762568811
 20
154.0271721058
 10
100.1576857281
 20
154.161637355
 10
100.9903670881
 20
154.5060220453
 10
101.3979845074
 20
154.8252775377
 10
101.6096797113
 20
155.1340015347
 10
101.6827664897
 20
155.4201391809
 10
101.6472836524
 20
155.7180572004
 10
101.5207837116
 20
155.9847001172
 10
101.1795574599
 20
156.3563818787
 10
100.4355510552
 20
156.7879075448
 10
99.8009433661
 20
156.9873205165
 10
99.1231549169
 20
157.084206636
 10
98.0009146779
 20
156.9815833123
 10
97.3117885361
 20
156.6887879753
 10
96.8731094597
 20
156.3110287128
 10
96.6283315599
 20
155.8949515743
  0
LWPOLYLINE
  5
1B4
330
A
100
AcDbEntity
  8
1
  6
CONTINUOUS
370
    50
100
AcDbPolyline
 90
        9
 70
   128
 43
0.0
 10
114.7262986214
 20
149.5765863796
 10
114.7552184544
 20
149.5557778703
 10
114.7842503767
 20
149.5363797554
 10
114.8133667396
 20
149.5184105085
 10
114.8425398144
 20
149.5018872427
 10
114.8717418181
 20
149.4868256939
 10
114.9009449403
 20
149.4732402058
 10
114.9301213693
 20
149.4611437167
 10
114.9592433192
 20
149.4505477465
  0
LINE
  5
1BF
330
A
100
AcDbEntity
  8
1
  6
CONTINUOUS
370
    50
100
AcDbLine
 10
104.8729162324
 20
134.5264367194
 30
0.0
 11
107.5729162324
 21
134.5264367194
 31
0.0
  0
LINE
  5
1C0
330
A
100
AcDbEntity
  8
1
  6
CONTINUOUS
370
    50
100
AcDbLine
 10
107.5729162324
 20
183.4264367194
 30
0.0
 11
104.8729162324
 21
183.4264367194
 31
0.0
  0
LINE
  5
1C1
330
A
100
AcDbEntity
  8
1
  6
CONTINUOUS
370
    50
100
AcDbLine
 10
107.2622560607
 20
135.2764367194
 30
0.0
 11
104.8729162324
 21
135.2764367194
 31
0.0
  0
LINE
  5
1C2
330
A
100
AcDbEntity
  8
1
  6
CONTINUOUS
370
    50
100
AcDbLine
 10
104.8729162324
 20
182.6764367194
 30
0.0
 11
107.2622560607
 21
182.6764367194
 31
0.0
  0
LINE
  5
1C3
330
A
100
AcDbEntity
  8
1
  6
CONTINUOUS
370
    50
100
AcDbLine
 10
35.8942026786
 20
149.0612553497
 30
0.0
 11
35.8942026786
 21
166.6916180891
 31
0.0
  0
LINE
  5
1C4
330
A
100
AcDbEntity
  8
1
  6
CONTINUOUS
370
    50
100
AcDbLine
 10
106.72291623
 20
127.3993551669
 30
0.0
 11
107.5729162324
 21
128.2493551694
 31
0.0
  0
LINE
  5
1C5
330
A
100
AcDbEntity
  8
1
  6
CONTINUOUS
370
    50
100
AcDbLine
 10
106.72291623
 20
188.3535182719
 30
0.0
 11
107.5729162324
 21
187.5035182694
 31
0.0
  0
LINE
  5
1C6
330
A
100
AcDbEntity
  8
1
  6
CONTINUOUS
370
    50
100
AcDbLine
 10
36.3942026786
 20
149.3499304843
 30
0.0
 11
36.3942026786
 21
166.4029429545
 31
0.0
  0
LINE
  5
1C7
330
A
100
AcDbEntity
  8
1
  6
CONTINUOUS
370
    50
100
AcDbLine
 10
44.1229162324
 20
166.5264367194
 30
0.0
 11
44.1229162324
 21
149.2264367194
 31
0.0
  0
LINE
  5
1C8
330
A
100
AcDbEntity
  8
1
  6
CONTINUOUS
370
    50
100
AcDbLine
 10
41.8126276641
 20
166.5264367194
 30
0.0
 11
41.8126276641
 21
149.2264367194
 31
0.0
  0
LINE
  5
1C9
330
A
100
AcDbEntity
  8
1
  6
CONTINUOUS
370
    50
100
AcDbLine
 10
45.0322429064
 20
164.9514367194
 30
0.0
 11
45.0322429064
 21
150.8014367194
 31
0.0
  0
LINE
  5
1CA
330
A
100
AcDbEntity
  8
1
  6
CONTINUOUS
370
    50
100
AcDbLine
 10
41.552820043
 20
166.3764367194
 30
0.0
 11
41.552820043
 21
149.3764367194
 31
0.0
  0
LINE
  5
1CB
330
A
100
AcDbEntity
  8
1
  6
CONTINUOUS
370
    50
100
AcDbLine
 10
36.6229162324
 20
166.3764367194
 30
0.0
 11
36.6229162324
 21
149.3913649994
 31
0.0
  0
LINE
  5
1CC
330
A
100
AcDbEntity
  8
1
  6
CONTINUOUS
370
    50
100
AcDbLine
 10
107.5729162324
 20
128.2493551694
 30
0.0
 11
112.0565784157
 21
128.2493551694
 31
0.0
  0
LINE
  5
1CD
330
A
100
AcDbEntity
  8
1
  6
CONTINUOUS
370
    50
100
AcDbLine
 10
117.8892540492
 20
128.2493551694
 30
0.0
 11
122.9229162324
 21
128.2493551694
 31
0.0
  0
LINE
  5
1CE
330
A
100
AcDbEntity
  8
1
  6
CONTINUOUS
370
    50
100
AcDbLine
 10
107.5729162324
 20
128.2493551694
 30
0.0
 11
107.5729162324
 21
134.5264367194
 31
0.0
  0
LINE
  5
1CF
330
A
100
AcDbEntity
  8
1
  6
CONTINUOUS
370
    50
100
AcDbLine
 10
107.5729162324
 20
134.5264367194
 30
0.0
 11
122.9229162324
 21
134.5264367194
 31
0.0
  0
LINE
  5
1D0
330
A
100
AcDbEntity
  8
1
  6
CONTINUOUS
370
    50
100
AcDbLine
 10
122.9229162324
 20
135.2764367194
 30
0.0
 11
107.2622560607
 21
135.2764367194
 31
0.0
  0
LINE
  5
1D1
330
A
100
AcDbEntity
  8
1
  6
CONTINUOUS
370
    50
100
AcDbLine
 10
107.5729162324
 20
134.5264367194
 30
0.0
 11
107.2622560607
 21
135.2764367194
 31
0.0
  0
LINE
  5
1D2
330
A
100
AcDbEntity
  8
1
  6
CONTINUOUS
370
    50
100
AcDbLine
 10
107.2622560607
 20
182.6764367194
 30
0.0
 11
122.9229162324
 21
182.6764367194
 31
0.0
  0
LINE
  5
1D3
330
A
100
AcDbEntity
  8
1
  6
CONTINUOUS
370
    50
100
AcDbLine
 10
107.5729162324
 20
183.4264367194
 30
0.0
 11
107.2622560607
 21
182.6764367194
 31
0.0
  0
LINE
  5
1D4
330
A
100
AcDbEntity
  8
1
  6
CONTINUOUS
370
    50
100
AcDbLine
 10
122.9229162324
 20
183.4264367194
 30
0.0
 11
107.5729162324
 21
183.4264367194
 31
0.0
  0
LINE
  5
1D5
330
A
100
AcDbEntity
  8
1
  6
CONTINUOUS
370
    50
100
AcDbLine
 10
117.8892540492
 20
187.5035182694
 30
0.0
 11
122.9229162324
 21
187.5035182694
 31
0.0
  0
LINE
  5
1D6
330
A
100
AcDbEntity
  8
1
  6
CONTINUOUS
370
    50
100
AcDbLine
 10
107.5729162324
 20
187.5035182694
 30
0.0
 11
112.0565784157
 21
187.5035182694
 31
0.0
  0
LINE
  5
1D7
330
A
100
AcDbEntity
  8
1
  6
CONTINUOUS
370
    50
100
AcDbLine
 10
107.5729162324
 20
187.5035182694
 30
0.0
 11
107.5729162324
 21
183.4264367194
 31
0.0
  0
LINE
  5
1D8
330
A
100
AcDbEntity
  8
1
  6
CONTINUOUS
370
    50
100
AcDbLine
 10
69.6229162324
 20
165.8764367194
 30
0.0
 11
69.6229162324
 21
149.8764367194
 31
0.0
  0
LINE
  5
1D9
330
A
100
AcDbEntity
  8
1
  6
CONTINUOUS
370
    50
100
AcDbLine
 10
69.6129162324
 20
165.8764367194
 30
0.0
 11
69.6129162324
 21
149.8764367194
 31
0.0
  0
LINE
  5
1DA
330
A
100
AcDbEntity
  8
1
  6
CONTINUOUS
370
    50
100
AcDbLine
 10
80.6229162324
 20
164.9514367194
 30
0.0
 11
80.6229162324
 21
150.8014367194
 31
0.0
  0
LINE
  5
1DB
330
A
100
AcDbEntity
  8
1
  6
CONTINUOUS
370
    50
100
AcDbLine
 10
80.6411147441
 20
164.9014367194
 30
0.0
 11
80.6411147441
 21
150.8514367194
 31
0.0
  0
LINE
  5
1DC
330
A
100
AcDbEntity
  8
1
  6
CONTINUOUS
370
    50
100
AcDbLine
 10
114.6229162324
 20
164.9014367194
 30
0.0
 11
114.6229162324
 21
150.8514367194
 31
0.0
  0
LWPOLYLINE
  5
1DD
330
A
100
AcDbEntity
  8
1
  6
CONTINUOUS
370
    50
100
AcDbPolyline
 90
       23
 70
   128
 43
0.0
 10
96.6283315599
 20
159.8579218646
 10
96.5507877039
 20
160.2644857137
 10
96.6182676952
 20
160.664012031
 10
96.8163339849
 20
161.0130188804
 10
97.1461775565
 20
161.3152758461
 10
97.78236232
 20
161.6121692921
 10
98.797435408
 20
161.7616080843
 10
99.4860113924
 20
161.724921883
 10
100.1576857281
 20
161.5912360839
 10
100.9903670881
 20
161.2468513935
 10
101.3979845074
 20
160.9275959011
 10
101.6096797113
 20
160.6188719041
 10
101.6827664897
 20
160.332734258
 10
101.6472836524
 20
160.0348162384
 10
101.5207837116
 20
159.7681733216
 10
101.1795574599
 20
159.3964915601
 10
100.4355510552
 20
158.964965894
 10
99.7919362507
 20
158.763097164
 10
99.1231549169
 20
158.6686668029
 10
98.0009146779
 20
158.7712901265
 10
97.3117885361
 20
159.0640854635
 10
96.8731094597
 20
159.441844726
 10
96.6283315599
 20
159.8579218646
  0
LINE
  5
1F6
330
A
100
AcDbEntity
  8
1
  6
CONTINUOUS
370
    50
100
AcDbLine
 10
115.7920505275
 20
152.8764367194
 30
0.0
 11
115.7920505275
 21
162.8764367194
 31
0.0
  0
LINE
  5
1F7
330
A
100
AcDbEntity
  8
1
  6
CONTINUOUS
370
    50
100
AcDbLine
 10
109.9729162324
 20
182.4764367194
 30
0.0
 11
119.9729162324
 21
182.4764367194
 31
0.0
  0
LINE
  5
1F8
330
A
100
AcDbEntity
  8
1
  6
CONTINUOUS
370
    50
100
AcDbLine
 10
133.6229162324
 20
152.8764367194
 30
0.0
 11
133.6229162324
 21
162.8764367194
 31
0.0
  0
LINE
  5
1F9
330
A
100
AcDbEntity
  8
1
  6
CONTINUOUS
370
    50
100
AcDbLine
 10
135.2972320131
 20
155.7764367194
 30
0.0
 11
135.2972320131
 21
159.9764367194
 31
0.0
  0
LINE
  5
1FA
330
A
100
AcDbEntity
  8
1
  6
CONTINUOUS
370
    50
100
AcDbLine
 10
110.2729162992
 20
177.9764367194
 30
0.0
 11
119.6729162324
 21
177.9764367194
 31
0.0
  0
LINE
  5
1FB
330
A
100
AcDbEntity
  8
1
  6
CONTINUOUS
370
    50
100
AcDbLine
 10
119.9729162324
 20
178.2764367194
 30
0.0
 11
109.9729162324
 21
178.2764367194
 31
0.0
  0
LINE
  5
1FC
330
A
100
AcDbEntity
  8
1
  6
CONTINUOUS
370
    50
100
AcDbLine
 10
182.7375736059
 20
160.8764367194
 30
0.0
 11
182.7375736059
 21
154.8764367194
 31
0.0
  0
LINE
  5
1FD
330
A
100
AcDbEntity
  8
1
  6
CONTINUOUS
370
    50
100
AcDbLine
 10
157.7574461824
 20
154.6764367194
 30
0.0
 11
157.7574461824
 21
161.0764367194
 31
0.0
  0
LINE
  5
1FE
330
A
100
AcDbEntity
  8
1
  6
CONTINUOUS
370
    50
100
AcDbLine
 10
148.3729162324
 20
161.0764367194
 30
0.0
 11
148.3729162324
 21
154.6764367194
 31
0.0
  0
LINE
  5
1FF
330
A
100
AcDbEntity
  8
1
  6
CONTINUOUS
370
    50
100
AcDbLine
 10
157.8729162363
 20
160.8764367194
 30
0.0
 11
157.8729162363
 21
154.8764367194
 31
0.0
  0
LINE
  5
200
330
A
100
AcDbEntity
  8
1
  6
CONTINUOUS
370
    50
100
AcDbLine
 10
147.8729162324
 20
155.1764370446
 30
0.0
 11
147.8729162324
 21
160.5764367194
 31
0.0
  0
LINE
  5
201
330
A
100
AcDbEntity
  8
1
  6
CONTINUOUS
370
    50
100
AcDbLine
 10
113.8729162324
 20
177.5764367194
 30
0.0
 11
116.0729162324
 21
177.5764367194
 31
0.0
  0
LINE
  5
202
330
A
100
AcDbEntity
  8
1
  6
CONTINUOUS
370
    50
100
AcDbLine
 10
113.7229162324
 20
174.1764367194
 30
0.0
 11
116.2229162324
 21
174.1764367194
 31
0.0
  0
LINE
  5
203
330
A
100
AcDbEntity
  8
1
  6
CONTINUOUS
370
    50
100
AcDbLine
 10
113.7229162324
 20
174.1664367194
 30
0.0
 11
116.2229162324
 21
174.1664367194
 31
0.0
  0
LINE
  5
204
330
A
100
AcDbEntity
  8
1
  6
CONTINUOUS
370
    50
100
AcDbLine
 10
113.8729162324
 20
171.5764367194
 30
0.0
 11
116.0729162324
 21
171.5764367194
 31
0.0
  0
LWPOLYLINE
  5
205
330
A
100
AcDbEntity
  8
1
  6
CONTINUOUS
370
    50
100
AcDbPolyline
 90
       24
 70
   128
 43
0.0
 10
111.3681728386
 20
164.0880938213
 10
111.3292064392
 20
164.5223673263
 10
111.3688997935
 20
164.9244327522
 10
111.484309027
 20
165.2644707455
 10
111.6668747648
 20
165.5172622439
 10
111.9030569413
 20
165.6640588585
 10
112.1753390049
 20
165.6939733558
 10
112.4635270406
 20
165.6047871144
 10
112.7462474602
 20
165.4031146699
 10
113.0025321835
 20
165.1039131448
 10
113.2133737449
 20
164.7293729476
 10
113.3631349905
 20
164.3072720113
 10
113.4407088137
 20
163.8689156313
 10
113.440341919
 20
163.4468146949
 10
113.3620615172
 20
163.0722744978
 10
113.2116733077
 20
162.7730729727
 10
113.0003308959
 20
162.5714005282
 10
112.7437085817
 20
162.4822142868
 10
112.4608388683
 20
162.5121287841
 10
112.1727009081
 20
162.6589253987
 10
111.9006645756
 20
162.9117168971
 10
111.6649055611
 20
163.2517548904
 10
111.4829090321
 20
163.6538203163
 10
111.3681728386
 20
164.0880938213
  0
LINE
  5
21F
330
A
100
AcDbEntity
  8
1
  6
CONTINUOUS
370
    50
100
AcDbLine
 10
116.3979162324
 20
131.0585788631
 30
0.0
 11
116.3979162324
 21
184.6942945757
 31
0.0
  0
LINE
  5
220
330
A
100
AcDbEntity
  8
1
  6
CONTINUOUS
370
    50
100
AcDbLine
 10
116.8979162324
 20
176.2264367194
 30
0.0
 11
116.8979162324
 21
179.6830297591
 31
0.0
  0
LINE
  5
221
330
A
100
AcDbEntity
  8
1
  6
CONTINUOUS
370
    50
100
AcDbLine
 10
113.0479162324
 20
176.2264367194
 30
0.0
 11
113.0479162324
 21
179.6830297591
 31
0.0
  0
LINE
  5
222
330
A
100
AcDbEntity
  8
1
  6
CONTINUOUS
370
    50
100
AcDbLine
 10
113.5479162324
 20
131.0585788631
 30
0.0
 11
113.5479162324
 21
184.6942945757
 31
0.0
  0
LINE
  5
223
330
A
100
AcDbEntity
  8
1
  6
CONTINUOUS
370
    50
100
AcDbLine
 10
111.4510795904
 20
183.7866663595
 30
0.0
 11
111.4510795904
 21
176.2264367194
 31
0.0
  0
LINE
  5
224
330
A
100
AcDbEntity
  8
1
  6
CONTINUOUS
370
    50
100
AcDbLine
 10
122.4229162324
 20
183.7866663595
 30
0.0
 11
122.4229162324
 21
176.2264367194
 31
0.0
  0
LINE
  5
225
330
A
100
AcDbEntity
  8
1
  6
CONTINUOUS
370
    50
100
AcDbLine
 10
118.4947528745
 20
183.7866663595
 30
0.0
 11
118.4947528745
 21
176.2264367194
 31
0.0
  0
LINE
  5
226
330
A
100
AcDbEntity
  8
1
  6
CONTINUOUS
370
    50
100
AcDbLine
 10
105.3729162324
 20
176.2264367194
 30
0.0
 11
105.3729162324
 21
183.7866663595
 31
0.0
  0
LWPOLYLINE
  5
227
330
A
100
AcDbEntity
  8
1
  6
CONTINUOUS
370
    50
100
AcDbPolyline
 90
       26
 70
   128
 43
0.0
 10
111.1514629566
 20
164.0880938213
 10
111.1045022685
 20
164.5733049607
 10
111.1383018868
 20
165.0280284998
 10
111.2507380571
 20
165.4236924862
 10
111.4347460015
 20
165.7354358964
 10
111.6787638239
 20
165.9436707456
 10
111.9674589873
 20
166.0353128723
 10
112.2826917126
 20
166.0046040647
 10
112.6046547686
 20
165.85347387
 10
112.9131180321
 20
165.5914183543
 10
113.188699622
 20
165.2349034293
 10
113.4140837335
 20
164.8063302389
 10
113.5751086539
 20
164.332627613
 10
113.6616565952
 20
163.8435600296
 10
113.668289432
 20
163.3698574037
 10
113.5945903988
 20
162.9412842133
 10
113.4451902768
 20
162.5847692883
 10
113.2294764253
 20
162.3227137726
 10
112.9610029387
 20
162.1715835779
 10
112.6566389938
 20
162.1408747703
 10
112.3355088964
 20
162.232516897
 10
112.0177904317
 20
162.4407517462
 10
111.7234470192
 20
162.7524951564
 10
111.4709733381
 20
163.1481591428
 10
111.2762332384
 20
163.6028826819
 10
111.1514629566
 20
164.0880938213
  0
LWPOLYLINE
  5
243
330
A
100
AcDbEntity
  8
1
  6
CONTINUOUS
370
    50
100
AcDbPolyline
 90
       26
 70
   128
 43
0.0
 10
111.159123401
 20
164.0902922844
 10
111.1121627129
 20
164.5755034238
 10
111.1459623312
 20
165.0302269629
 10
111.2583985015
 20
165.4258909493
 10
111.4424064459
 20
165.7376343595
 10
111.6864242684
 20
165.9458692087
 10
111.9751194317
 20
166.0375113354
 10
112.2903521571
 20
166.0068025278
 10
112.612315213
 20
165.8556723331
 10
112.9207784766
 20
165.5936168174
 10
113.1963600665
 20
165.2371018924
 10
113.4217441779
 20
164.808528702
 10
113.5827690983
 20
164.3348260761
 10
113.6693170396
 20
163.8457584927
 10
113.6759498764
 20
163.3720558668
 10
113.6022508432
 20
162.9434826764
 10
113.4528507213
 20
162.5869677514
 10
113.2371368697
 20
162.3249122357
 10
112.9686633832
 20
162.173782041
 10
112.6642994382
 20
162.1430732334
 10
112.3431693408
 20
162.2347153601
 10
112.0254508761
 20
162.4429502093
 10
111.7311074636
 20
162.7546936195
 10
111.4786337826
 20
163.1503576059
 10
111.2838936828
 20
163.605081145
 10
111.159123401
 20
164.0902922844
  0
LWPOLYLINE
  5
25F
330
A
100
AcDbEntity
  8
1
  6
CONTINUOUS
370
    50
100
AcDbPolyline
 90
       24
 70
   128
 43
0.0
 10
111.375833283
 20
164.0902922844
 10
111.3368668837
 20
164.5245657894
 10
111.376560238
 20
164.9266312153
 10
111.4919694714
 20
165.2666692086
 10
111.6745352092
 20
165.519460707
 10
111.9107173857
 20
165.6662573216
 10
112.1829994494
 20
165.6961718189
 10
112.4711874851
 20
165.6069855775
 10
112.7539079046
 20
165.405313133
 10
113.0101926279
 20
165.1061116079
 10
113.2210341894
 20
164.7315714108
 10
113.3707954349
 20
164.3094704744
 10
113.4483692581
 20
163.8711140944
 10
113.4480023634
 20
163.4490131581
 10
113.3697219616
 20
163.0744729609
 10
113.2193337521
 20
162.7752714358
 10
113.0079913403
 20
162.5735989913
 10
112.7513690262
 20
162.4844127499
 10
112.4684993127
 20
162.5143272472
 10
112.1803613526
 20
162.6611238618
 10
111.9083250201
 20
162.9139153602
 10
111.6725660055
 20
163.2539533535
 10
111.4905694765
 20
163.6560187794
 10
111.375833283
 20
164.0902922844
  0
LWPOLYLINE
  5
279
330
A
100
AcDbEntity
  8
1
  6
CONTINUOUS
370
    50
100
AcDbPolyline
 90
       24
 70
   128
 43
0.0
 10
121.5579480953
 20
166.4260525731
 10
121.4432119018
 20
166.8603260781
 10
121.2612153728
 20
167.262391504
 10
121.0254563583
 20
167.6024294973
 10
120.7534200258
 20
167.8552209957
 10
120.4652820656
 20
168.0020176103
 10
120.1824123522
 20
168.0319321075
 10
119.925790038
 20
167.9427458662
 10
119.7144476263
 20
167.7410734217
 10
119.5640594167
 20
167.4418718966
 10
119.485779015
 20
167.0673316994
 10
119.4854121202
 20
166.6452307631
 10
119.5629859434
 20
166.2068743831
 10
119.712747189
 20
165.7847734467
 10
119.9235887504
 20
165.4102332495
 10
120.1798734737
 20
165.1110317245
 10
120.4625938933
 20
164.90935928
 10
120.750781929
 20
164.8201730386
 10
121.0230639926
 20
164.8500875359
 10
121.2592461691
 20
164.9968841504
 10
121.4418119069
 20
165.2496756489
 10
121.5572211404
 20
165.5897136422
 10
121.5969144947
 20
165.991779068
 10
121.5579480953
 20
166.4260525731
  0
ARC
  5
293
330
A
100
AcDbEntity
  8
1
  6
CONTINUOUS
370
    50
100
AcDbCircle
 10
116.284263123
 20
163.3991360082
 30
0.0
 40
1.5840694364
100
AcDbArc
 50
187.0718338976
 51
190.4162179415
  0
ARC
  5
294
330
A
100
AcDbEntity
  8
1
  6
CONTINUOUS
370
    50
100
AcDbCircle
 10
110.486227013
 20
173.159153387
 30
0.0
 40
10.9045232033
100
AcDbArc
 50
292.8820937122
 51
294.2172889971
  0
ARC
  5
295
330
A
100
AcDbEntity
  8
1
  6
CONTINUOUS
370
    50
100
AcDbCircle
 10
114.6418549608
 20
167.9264107684
 30
0.0
 40
4.7228198896
100
AcDbArc
 50
270.8539739893
 51
273.8533608672
  0
LWPOLYLINE
  5
296
330
A
100
AcDbEntity
  8
1
  6
CONTINUOUS
370
    50
100
AcDbPolyline
 90
       18
 70
   128
 43
0.0
 10
114.7122443691
 20
166.3051011022
 10
114.6955748505
 20
166.4092825095
 10
114.6794729923
 20
166.4571159705
 10
114.664487124
 20
166.4469725738
 10
114.6511275715
 20
166.3791977409
 10
114.6398492782
 20
166.2560994623
 10
114.6310363129
 20
166.0818697022
 10
114.6249887905
 20
165.8624416462
 10
114.6219126522
 20
165.6052876536
 10
114.6219126522
 20
165.3191647951
 10
114.6249887905
 20
165.0138166415
 10
114.6310363129
 20
164.6996414579
 10
114.6398492782
 20
164.3873381035
 10
114.6511275715
 20
164.0875416944
 10
114.664487124
 20
163.8104614378
 10
114.6794729923
 20
163.5655329694
 10
114.6955748505
 20
163.3610970344
 10
114.7122443691
 20
163.2041154536
  0
ARC
  5
2AA
330
A
100
AcDbEntity
  8
1
  6
CONTINUOUS
370
    50
100
AcDbCircle
 10
114.7827719262
 20
161.5894518132
 30
0.0
 40
4.7161766668
100
AcDbArc
 50
87.8555877577
 51
90.85685551580002
  0
ARC
  5
2AB
330
A
100
AcDbEntity
  8
1
  6
CONTINUOUS
370
    50
100
AcDbCircle
 10
120.7326395186
 20
155.3536468328
 30
0.0
 40
12.3776279005
100
AcDbArc
 50
117.8033277308
 51
119.0293663285
  0
ARC
  5
2AC
330
A
100
AcDbEntity
  8
1
  6
CONTINUOUS
370
    50
100
AcDbCircle
 10
110.456949093
 20
165.7756535238
 30
0.0
 40
4.2881059485
100
AcDbArc
 50
5.360907102
 51
7.092343310100001
  0
LWPOLYLINE
  5
2AD
330
A
100
AcDbEntity
  8
1
  6
CONTINUOUS
370
    50
100
AcDbPolyline
 90
       18
 70
   128
 43
0.0
 10
114.7122443691
 20
163.2041154536
 10
114.2146797676
 20
163.223085447
 10
113.7340591318
 20
163.2942096135
 10
113.2867494211
 20
163.4150659051
 10
112.8879832312
 20
163.5815387055
 10
112.5513400663
 20
163.7879589832
 10
112.2882839058
 20
164.0272973433
 10
112.1077728116
 20
164.291403405
 10
112.0159538726
 20
164.5712833531
 10
112.0159538726
 20
164.8574062116
 10
112.1077728116
 20
165.1400284098
 10
112.2882839058
 20
165.4095255876
 10
112.5513400663
 20
165.656720342
 10
112.8879832312
 20
165.8731947519
 10
113.2867494211
 20
166.0515770411
 10
113.7340591318
 20
166.1857926146
 10
114.2146797676
 20
166.2712709221
 10
114.7122443691
 20
166.3051011022
  0
LWPOLYLINE
  5
2C1
330
A
100
AcDbEntity
  8
1
  6
CONTINUOUS
370
    50
100
AcDbPolyline
 90
        9
 70
   128
 43
0.0
 10
114.7262986214
 20
166.1762870592
 10
114.7552184544
 20
166.1970955685
 10
114.7842503767
 20
166.2164936835
 10
114.8133667396
 20
166.2344629303
 10
114.8425398144
 20
166.2509861961
 10
114.8717418181
 20
166.2660477449
 10
114.9009449403
 20
166.279633233
 10
114.9301213693
 20
166.2917297221
 10
114.9592433192
 20
166.3023256923
  0
LWPOLYLINE
  5
2CC
330
A
100
AcDbEntity
  8
1
  6
CONTINUOUS
370
    50
100
AcDbPolyline
 90
        9
 70
   128
 43
0.0
 10
114.9592433192
 20
163.2142676956
 10
114.9301213693
 20
163.1964141192
 10
114.9009449403
 20
163.1800078405
 10
114.8717418181
 20
163.1650644839
 10
114.8425398144
 20
163.1515982808
 10
114.8133667396
 20
163.1396220556
 10
114.7842503767
 20
163.1291472138
 10
114.7552184544
 20
163.1201837312
 10
114.7262986214
 20
163.1127401441
  0
LWPOLYLINE
  5
2D7
330
A
100
AcDbEntity
  8
1
  6
CONTINUOUS
370
    50
100
AcDbPolyline
 90
       27
 70
   128
 43
0.0
 10
119.5236951662
 20
166.5086016987
 10
119.4747180617
 20
166.9988691513
 10
119.5041536723
 20
167.4606440416
 10
119.6102913073
 20
167.8670896914
 10
119.7869626331
 20
168.194584957
 10
120.0239001546
 20
168.424097004
 10
120.307333924
 20
168.5422874263
 10
120.6207918011
 20
168.5422874263
 10
120.9460567534
 20
168.424097004
 10
121.2642255641
 20
168.194584957
 10
121.5568074184
 20
167.8670896914
 10
121.8067985225
 20
167.4606440416
 10
121.9996703021
 20
166.9988691513
 10
122.1242137504
 20
166.5086016987
 10
122.1731908549
 20
166.0183342462
 10
122.1437552443
 20
165.5565593559
 10
122.0376176093
 20
165.150113706
 10
121.8609462834
 20
164.8226184404
 10
121.624008762
 20
164.5931063935
 10
121.3405749925
 20
164.4749159711
 10
121.0271171155
 20
164.4749159711
 10
120.7018521632
 20
164.5931063935
 10
120.3836833525
 20
164.8226184404
 10
120.0911014982
 20
165.150113706
 10
119.8411103941
 20
165.5565593559
 10
119.6482386145
 20
166.0183342462
 10
119.5236951662
 20
166.5086016987
  0
LWPOLYLINE
  5
2F4
330
A
100
AcDbEntity
  8
1
  6
CONTINUOUS
370
    50
100
AcDbPolyline
 90
       27
 70
   128
 43
0.0
 10
122.1156604108
 20
166.5075788865
 10
121.9915948647
 20
166.995965069
 10
121.7994631789
 20
167.4559680218
 10
121.5504313487
 20
167.8608540453
 10
121.2589721989
 20
168.1870926355
 10
120.9420242758
 20
168.4157239914
 10
120.6180074407
 20
168.5334608897
 10
120.3057523743
 20
168.5334608897
 10
120.023406206
 20
168.4157239914
 10
119.7873778689
 20
168.1870926355
 10
119.6113844719
 20
167.8608540453
 10
119.5056541116
 20
167.4559680218
 10
119.4763314523
 20
166.995965069
 10
119.5251206203
 20
166.5075788865
 10
119.6491861665
 20
166.0191927039
 10
119.8413178523
 20
165.5591897511
 10
120.0903496824
 20
165.1543037276
 10
120.3818088323
 20
164.8280651374
 10
120.6987567553
 20
164.5994337815
 10
121.0227735904
 20
164.4816968832
 10
121.3350286569
 20
164.4816968832
 10
121.6173748252
 20
164.5994337815
 10
121.8534031623
 20
164.8280651374
 10
122.0293965592
 20
165.1543037276
 10
122.1351269195
 20
165.5591897511
 10
122.1644495788
 20
166.0191927039
 10
122.1156604108
 20
166.5075788865
  0
LINE
  5
311
330
A
100
AcDbEntity
  8
1
  6
CONTINUOUS
370
    50
100
AcDbLine
 10
119.0229162324
 20
149.3199983419
 30
0.0
 11
119.0229162324
 21
156.3199983419
 31
0.0
  0
LINE
  5
312
330
A
100
AcDbEntity
  8
1
  6
CONTINUOUS
370
    50
100
AcDbLine
 10
119.0229162324
 20
163.9935076419
 30
0.0
 11
119.0229162324
 21
164.146440996
 31
0.0
  0
LINE
  5
313
330
A
100
AcDbEntity
  8
1
  6
CONTINUOUS
370
    50
100
AcDbLine
 10
119.0229162324
 20
157.146440996
 30
0.0
 11
119.0229162324
 21
163.9935076419
 31
0.0
  0
LINE
  5
314
330
A
100
AcDbEntity
  8
1
  6
CONTINUOUS
370
    50
100
AcDbLine
 10
106.6729162324
 20
137.8764367194
 30
0.0
 11
110.6729162324
 21
137.8764367194
 31
0.0
  0
LINE
  5
315
330
A
100
AcDbEntity
  8
1
  6
CONTINUOUS
370
    50
100
AcDbLine
 10
106.6729162324
 20
177.8764367194
 30
0.0
 11
106.6729162324
 21
137.8764367194
 31
0.0
  0
LINE
  5
316
330
A
100
AcDbEntity
  8
1
  6
CONTINUOUS
370
    50
100
AcDbLine
 10
110.6729162324
 20
137.8764367194
 30
0.0
 11
110.6729162324
 21
177.8764367194
 31
0.0
  0
LINE
  5
317
330
A
100
AcDbEntity
  8
1
  6
CONTINUOUS
370
    50
100
AcDbLine
 10
119.4729162324
 20
177.8764367194
 30
0.0
 11
119.4729162324
 21
137.8764367194
 31
0.0
  0
LINE
  5
318
330
A
100
AcDbEntity
  8
1
  6
CONTINUOUS
370
    50
100
AcDbLine
 10
119.4729162324
 20
137.8764367194
 30
0.0
 11
121.4729162324
 21
137.8764367194
 31
0.0
  0
LINE
  5
319
330
A
100
AcDbEntity
  8
1
  6
CONTINUOUS
370
    50
100
AcDbLine
 10
121.4729162324
 20
137.8764367194
 30
0.0
 11
121.4729162324
 21
177.8764367194
 31
0.0
  0
LINE
  5
31A
330
A
100
AcDbEntity
  8
1
  6
CONTINUOUS
370
    50
100
AcDbLine
 10
121.4729162324
 20
177.8764367194
 30
0.0
 11
119.4729162324
 21
177.8764367194
 31
0.0
  0
LINE
  5
31B
330
A
100
AcDbEntity
  8
1
  6
CONTINUOUS
370
    50
100
AcDbLine
 10
110.6729162324
 20
177.8764367194
 30
0.0
 11
106.6729162324
 21
177.8764367194
 31
0.0
  0
LINE
  5
31C
330
A
100
AcDbEntity
  8
1
  6
CONTINUOUS
370
    50
100
AcDbLine
 10
122.9229162324
 20
150.8266627197
 30
0.0
 11
121.4032472259
 21
151.2627909719
 31
0.0
  0
LINE
  5
31D
330
A
100
AcDbEntity
  8
1
  6
CONTINUOUS
370
    50
100
AcDbLine
 10
120.2446616907
 20
147.2257525082
 30
0.0
 11
122.9229162324
 21
146.4571229795
 31
0.0
  0
LINE
  5
31E
330
A
100
AcDbEntity
  8
1
  6
CONTINUOUS
370
    50
100
AcDbLine
 10
104.8729162324
 20
146.9452361879
 30
0.0
 11
114.6754082394
 21
149.2927867956
 31
0.0
  0
LINE
  5
31F
330
A
100
AcDbEntity
  8
1
  6
CONTINUOUS
370
    50
100
AcDbLine
 10
113.6127312637
 20
152.4316048358
 30
0.0
 11
104.8729162324
 21
150.3385495113
 31
0.0
  0
LINE
  5
320
330
A
100
AcDbEntity
  8
1
  6
CONTINUOUS
370
    50
100
AcDbLine
 10
119.9710178291
 20
150.4230561012
 30
0.0
 11
119.8663808447
 21
150.2557695315
 31
0.0
  0
LINE
  5
321
330
A
100
AcDbEntity
  8
1
  6
CONTINUOUS
370
    50
100
AcDbLine
 10
119.4757162384
 20
148.8945165259
 30
0.0
 11
119.4757162384
 21
148.6972002952
 31
0.0
  0
LINE
  5
322
330
A
100
AcDbEntity
  8
1
  6
CONTINUOUS
370
    50
100
AcDbLine
 10
120.9914743975
 20
150.9128002622
 30
0.0
 11
112.8526241871
 21
153.2485605509
 31
0.0
  0
LINE
  5
323
330
A
100
AcDbEntity
  8
1
  6
CONTINUOUS
370
    50
100
AcDbLine
 10
114.673312239
 20
149.2928333551
 30
0.0
 11
120.0811571912
 21
147.7408414693
 31
0.0
  0
LINE
  5
324
330
A
100
AcDbEntity
  8
1
  6
CONTINUOUS
370
    50
100
AcDbLine
 10
111.9423069808
 20
150.076601758
 30
0.0
 11
113.5501682341
 21
149.6151633031
 31
0.0
  0
LINE
  5
325
330
A
100
AcDbEntity
  8
1
  6
CONTINUOUS
370
    50
100
AcDbLine
 10
105.1260701259
 20
180.8690957508
 30
0.0
 11
104.8729162324
 21
181.4119860274
 31
0.0
  0
ARC
  5
326
330
A
100
AcDbEntity
  8
1
  6
CONTINUOUS
370
    50
100
AcDbCircle
 10
104.6729162324
 20
180.6577866199
 30
0.0
 40
0.5
100
AcDbArc
 50
0.0
 51
25.0
  0
ARC
  5
327
330
A
100
AcDbEntity
  8
1
  6
CONTINUOUS
370
    50
100
AcDbCircle
 10
104.6729162324
 20
135.4514367194
 30
0.0
 40
0.5
100
AcDbArc
 50
0.0
 51
66.4218215218
  0
ARC
  5
328
330
A
100
AcDbEntity
  8
1
  6
CONTINUOUS
370
    50
100
AcDbCircle
 10
104.6729162324
 20
180.3014367194
 30
0.0
 40
0.5
100
AcDbArc
 50
293.5781784782001
 51
0.0
  0
LINE
  5
329
330
A
100
AcDbEntity
  8
1
  6
CONTINUOUS
370
    50
100
AcDbLine
 10
112.8449637427
 20
153.250759014
 30
0.0
 11
100.0254482234
 21
156.9298186472
 31
0.0
  0
LINE
  5
32A
330
A
100
AcDbEntity
  8
1
  6
CONTINUOUS
370
    50
100
AcDbLine
 10
97.8285802488
 20
154.127085742
 30
0.0
 11
111.9346465364
 21
150.0788002211
 31
0.0
  0
ARC
  5
32B
330
A
100
AcDbEntity
  8
1
  6
CONTINUOUS
370
    50
100
AcDbCircle
 10
36.6229162324
 20
148.3764367194
 30
0.0
 40
1.0
100
AcDbArc
 50
136.778654881
 51
180.0
  0
ARC
  5
32C
330
A
100
AcDbEntity
  8
1
  6
CONTINUOUS
370
    50
100
AcDbCircle
 10
36.6229162324
 20
167.3764367194
 30
0.0
 40
1.0
100
AcDbArc
 50
180.0
 51
223.221345119
  0
LINE
  5
32D
330
A
100
AcDbEntity
  8
1
  6
CONTINUOUS
370
    50
100
AcDbLine
 10
35.8942026786
 20
149.0612553497
 30
0.0
 11
36.3942026786
 21
149.3499304843
 31
0.0
  0
LINE
  5
32E
330
A
100
AcDbEntity
  8
1
  6
CONTINUOUS
370
    50
100
AcDbLine
 10
36.3942026786
 20
166.4029429545
 30
0.0
 11
35.8942026786
 21
166.6916180891
 31
0.0
  0
LINE
  5
32F
330
A
100
AcDbEntity
  8
1
  6
CONTINUOUS
370
    50
100
AcDbLine
 10
44.1229162324
 20
166.5264367194
 30
0.0
 11
41.8126276641
 21
166.5264367194
 31
0.0
  0
LINE
  5
330
330
A
100
AcDbEntity
  8
1
  6
CONTINUOUS
370
    50
100
AcDbLine
 10
41.8126276641
 20
149.2264367194
 30
0.0
 11
44.1229162324
 21
149.2264367194
 31
0.0
  0
LINE
  5
331
330
A
100
AcDbEntity
  8
1
  6
CONTINUOUS
370
    50
100
AcDbLine
 10
44.1229162324
 20
149.2264367194
 30
0.0
 11
45.0322429064
 21
150.8014367194
 31
0.0
  0
LINE
  5
332
330
A
100
AcDbEntity
  8
1
  6
CONTINUOUS
370
    50
100
AcDbLine
 10
45.0322429064
 20
164.9514367194
 30
0.0
 11
44.1229162324
 21
166.5264367194
 31
0.0
  0
LINE
  5
333
330
A
100
AcDbEntity
  8
1
  6
CONTINUOUS
370
    50
100
AcDbLine
 10
41.8126276641
 20
166.5264367194
 30
0.0
 11
41.552820043
 21
166.3764367194
 31
0.0
  0
LINE
  5
334
330
A
100
AcDbEntity
  8
1
  6
CONTINUOUS
370
    50
100
AcDbLine
 10
41.552820043
 20
149.3764367194
 30
0.0
 11
41.8126276641
 21
149.2264367194
 31
0.0
  0
ARC
  5
335
330
A
100
AcDbEntity
  8
1
  6
CONTINUOUS
370
    50
100
AcDbCircle
 10
36.6229162324
 20
148.3764367194
 30
0.0
 40
1.0
100
AcDbArc
 50
90.0
 51
103.221345119
  0
ARC
  5
336
330
A
100
AcDbEntity
  8
1
  6
CONTINUOUS
370
    50
100
AcDbCircle
 10
36.6229162324
 20
167.3764367194
 30
0.0
 40
1.0
100
AcDbArc
 50
256.778654881
 51
270.0
  0
LINE
  5
337
330
A
100
AcDbEntity
  8
1
  6
CONTINUOUS
370
    50
100
AcDbLine
 10
36.6229162324
 20
149.3764367194
 30
0.0
 11
41.552820043
 21
149.3764367194
 31
0.0
  0
LINE
  5
338
330
A
100
AcDbEntity
  8
1
  6
CONTINUOUS
370
    50
100
AcDbLine
 10
41.552820043
 20
166.3764367194
 30
0.0
 11
36.6229162324
 21
166.3764367194
 31
0.0
  0
LINE
  5
339
330
A
100
AcDbEntity
  8
1
  6
CONTINUOUS
370
    50
100
AcDbLine
 10
80.6229162324
 20
164.9514367194
 30
0.0
 11
69.6229162324
 21
164.9514367194
 31
0.0
  0
LINE
  5
33A
330
A
100
AcDbEntity
  8
1
  6
CONTINUOUS
370
    50
100
AcDbLine
 10
69.6229162324
 20
150.8014367194
 30
0.0
 11
80.6229162324
 21
150.8014367194
 31
0.0
  0
LINE
  5
33B
330
A
100
AcDbEntity
  8
1
  6
CONTINUOUS
370
    50
100
AcDbLine
 10
69.6129162324
 20
164.9514367194
 30
0.0
 11
45.0322429064
 21
164.9514367194
 31
0.0
  0
LINE
  5
33C
330
A
100
AcDbEntity
  8
1
  6
CONTINUOUS
370
    50
100
AcDbLine
 10
45.0322429064
 20
150.8014367194
 30
0.0
 11
69.6129162324
 21
150.8014367194
 31
0.0
  0
LINE
  5
33D
330
A
100
AcDbEntity
  8
1
  6
CONTINUOUS
370
    50
100
AcDbLine
 10
114.6229162324
 20
164.9014367194
 30
0.0
 11
80.6411147441
 21
164.9014367194
 31
0.0
  0
LINE
  5
33E
330
A
100
AcDbEntity
  8
1
  6
CONTINUOUS
370
    50
100
AcDbLine
 10
80.6411147441
 20
150.8514367194
 30
0.0
 11
114.6229162324
 21
150.8514367194
 31
0.0
  0
LINE
  5
33F
330
A
100
AcDbEntity
  8
1
  6
CONTINUOUS
370
    50
100
AcDbLine
 10
114.6229162324
 20
150.8514367194
 30
0.0
 11
115.7920505275
 21
152.8764367194
 31
0.0
  0
LINE
  5
340
330
A
100
AcDbEntity
  8
1
  6
CONTINUOUS
370
    50
100
AcDbLine
 10
115.7920505275
 20
162.8764367194
 30
0.0
 11
114.6229162324
 21
164.9014367194
 31
0.0
  0
LINE
  5
341
330
A
100
AcDbEntity
  8
1
  6
CONTINUOUS
370
    50
100
AcDbLine
 10
109.7729162324
 20
182.6764367194
 30
0.0
 11
109.9729162324
 21
182.4764367194
 31
0.0
  0
LINE
  5
342
330
A
100
AcDbEntity
  8
1
  6
CONTINUOUS
370
    50
100
AcDbLine
 10
119.9729162324
 20
182.4764367194
 30
0.0
 11
120.1729162324
 21
182.6764367194
 31
0.0
  0
LINE
  5
343
330
A
100
AcDbEntity
  8
1
  6
CONTINUOUS
370
    50
100
AcDbLine
 10
133.6229162324
 20
152.8764367194
 30
0.0
 11
135.2972320131
 21
155.7764367194
 31
0.0
  0
LINE
  5
344
330
A
100
AcDbEntity
  8
1
  6
CONTINUOUS
370
    50
100
AcDbLine
 10
135.2972320131
 20
159.9764367194
 30
0.0
 11
133.6229162324
 21
162.8764367194
 31
0.0
  0
LINE
  5
345
330
A
100
AcDbEntity
  8
1
  6
CONTINUOUS
370
    50
100
AcDbLine
 10
115.7920505275
 20
152.8764367194
 30
0.0
 11
133.6229162324
 21
152.8764367194
 31
0.0
  0
LINE
  5
346
330
A
100
AcDbEntity
  8
1
  6
CONTINUOUS
370
    50
100
AcDbLine
 10
133.6229162324
 20
162.8764367194
 30
0.0
 11
115.7920505275
 21
162.8764367194
 31
0.0
  0
ARC
  5
347
330
A
100
AcDbEntity
  8
1
  6
CONTINUOUS
370
    50
100
AcDbCircle
 10
110.2729162324
 20
178.2764367194
 30
0.0
 40
0.3
100
AcDbArc
 50
180.0
 51
270.0
  0
ARC
  5
348
330
A
100
AcDbEntity
  8
1
  6
CONTINUOUS
370
    50
100
AcDbCircle
 10
119.6729162324
 20
178.2764367194
 30
0.0
 40
0.3
100
AcDbArc
 50
270.0
 51
0.0
  0
LINE
  5
349
330
A
100
AcDbEntity
  8
1
  6
CONTINUOUS
370
    50
100
AcDbLine
 10
109.9729162324
 20
182.4764367194
 30
0.0
 11
109.9729162324
 21
178.2764367194
 31
0.0
  0
LINE
  5
34A
330
A
100
AcDbEntity
  8
1
  6
CONTINUOUS
370
    50
100
AcDbLine
 10
119.9729162324
 20
178.2764367194
 30
0.0
 11
119.9729162324
 21
182.4764367194
 31
0.0
  0
ARC
  5
34B
330
A
100
AcDbEntity
  8
1
  6
CONTINUOUS
370
    50
100
AcDbCircle
 10
182.3729162324
 20
153.4214367194
 30
0.0
 40
1.5
100
AcDbArc
 50
0.0
 51
75.9301322524
  0
ARC
  5
34C
330
A
100
AcDbEntity
  8
1
  6
CONTINUOUS
370
    50
100
AcDbCircle
 10
182.3729162324
 20
162.3314367194
 30
0.0
 40
1.5
100
AcDbArc
 50
284.0698677476
 51
0.0
  0
LINE
  5
34D
330
A
100
AcDbEntity
  8
1
  6
CONTINUOUS
370
    50
100
AcDbLine
 10
148.3729162324
 20
154.6764367194
 30
0.0
 11
157.7574461824
 21
154.6764367194
 31
0.0
  0
LINE
  5
34E
330
A
100
AcDbEntity
  8
1
  6
CONTINUOUS
370
    50
100
AcDbLine
 10
157.7574461824
 20
161.0764367194
 30
0.0
 11
148.3729162324
 21
161.0764367194
 31
0.0
  0
LINE
  5
34F
330
A
100
AcDbEntity
  8
1
  6
CONTINUOUS
370
    50
100
AcDbLine
 10
157.7574461824
 20
154.6764367194
 30
0.0
 11
157.8729162363
 21
154.8764367194
 31
0.0
  0
LINE
  5
350
330
A
100
AcDbEntity
  8
1
  6
CONTINUOUS
370
    50
100
AcDbLine
 10
157.8729162363
 20
160.8764367194
 30
0.0
 11
157.7574461824
 21
161.0764367194
 31
0.0
  0
ARC
  5
351
330
A
100
AcDbEntity
  8
1
  6
CONTINUOUS
370
    50
100
AcDbCircle
 10
148.3729162324
 20
155.1764367194
 30
0.0
 40
0.5
100
AcDbArc
 50
180.0
 51
270.0
  0
ARC
  5
352
330
A
100
AcDbEntity
  8
1
  6
CONTINUOUS
370
    50
100
AcDbCircle
 10
148.3729162324
 20
160.5764367194
 30
0.0
 40
0.5
100
AcDbArc
 50
90.0
 51
180.0
  0
LINE
  5
353
330
A
100
AcDbEntity
  8
1
  6
CONTINUOUS
370
    50
100
AcDbLine
 10
157.8729162363
 20
154.8764367194
 30
0.0
 11
182.7375736059
 21
154.8764367194
 31
0.0
  0
LINE
  5
354
330
A
100
AcDbEntity
  8
1
  6
CONTINUOUS
370
    50
100
AcDbLine
 10
182.7375736059
 20
160.8764367194
 30
0.0
 11
157.8729162363
 21
160.8764367194
 31
0.0
  0
LINE
  5
355
330
A
100
AcDbEntity
  8
1
  6
CONTINUOUS
370
    50
100
AcDbLine
 10
135.2972320131
 20
155.7764367194
 30
0.0
 11
147.8729162324
 21
155.7764367194
 31
0.0
  0
LINE
  5
356
330
A
100
AcDbEntity
  8
1
  6
CONTINUOUS
370
    50
100
AcDbLine
 10
147.8729162324
 20
159.9764367194
 30
0.0
 11
135.2972320131
 21
159.9764367194
 31
0.0
  0
LINE
  5
357
330
A
100
AcDbEntity
  8
1
  6
CONTINUOUS
370
    50
100
AcDbLine
 10
113.4729162324
 20
177.9764367194
 30
0.0
 11
113.8729162324
 21
177.5764367194
 31
0.0
  0
LINE
  5
358
330
A
100
AcDbEntity
  8
1
  6
CONTINUOUS
370
    50
100
AcDbLine
 10
116.0729162324
 20
177.5764367194
 30
0.0
 11
116.4729162324
 21
177.9764367194
 31
0.0
  0
LINE
  5
359
330
A
100
AcDbEntity
  8
1
  6
CONTINUOUS
370
    50
100
AcDbLine
 10
113.8729162324
 20
171.5764367194
 30
0.0
 11
114.9729162324
 21
171.1760694617
 31
0.0
  0
LINE
  5
35A
330
A
100
AcDbEntity
  8
1
  6
CONTINUOUS
370
    50
100
AcDbLine
 10
114.9729162324
 20
171.1760694617
 30
0.0
 11
116.0729162324
 21
171.5764367194
 31
0.0
  0
LINE
  5
35B
330
A
100
AcDbEntity
  8
1
  6
CONTINUOUS
370
    50
100
AcDbLine
 10
113.8729162324
 20
174.1664367194
 30
0.0
 11
113.8729162324
 21
171.5764367194
 31
0.0
  0
LINE
  5
35C
330
A
100
AcDbEntity
  8
1
  6
CONTINUOUS
370
    50
100
AcDbLine
 10
116.0729162324
 20
171.5764367194
 30
0.0
 11
116.0729162324
 21
174.1664367194
 31
0.0
  0
LINE
  5
35D
330
A
100
AcDbEntity
  8
1
  6
CONTINUOUS
370
    50
100
AcDbLine
 10
113.8729162324
 20
177.5764367194
 30
0.0
 11
113.8729162324
 21
174.1764367194
 31
0.0
  0
LINE
  5
35E
330
A
100
AcDbEntity
  8
1
  6
CONTINUOUS
370
    50
100
AcDbLine
 10
116.0729162324
 20
174.1764367194
 30
0.0
 11
116.0729162324
 21
177.5764367194
 31
0.0
  0
LINE
  5
35F
330
A
100
AcDbEntity
  8
1
  6
CONTINUOUS
370
    50
100
AcDbLine
 10
111.9346465364
 20
165.6740732178
 30
0.0
 11
97.8285802488
 21
161.6257876968
 31
0.0
  0
LINE
  5
360
330
A
100
AcDbEntity
  8
1
  6
CONTINUOUS
370
    50
100
AcDbLine
 10
100.0255476497
 20
158.8230833259
 30
0.0
 11
112.8449637427
 21
162.5021144248
 31
0.0
  0
LINE
  5
361
330
A
100
AcDbEntity
  8
1
  6
CONTINUOUS
370
    50
100
AcDbLine
 10
113.5501682341
 20
166.1377101357
 30
0.0
 11
111.9423069808
 21
165.6762716809
 31
0.0
  0
LINE
  5
362
330
A
100
AcDbEntity
  8
1
  6
CONTINUOUS
370
    50
100
AcDbLine
 10
120.0811571912
 20
168.0120319695
 30
0.0
 11
114.673312239
 21
166.4600400837
 31
0.0
  0
LINE
  5
363
330
A
100
AcDbEntity
  8
1
  6
CONTINUOUS
370
    50
100
AcDbLine
 10
112.8526241871
 20
162.5043128879
 30
0.0
 11
120.9914743975
 21
164.8400731766
 31
0.0
  0
LINE
  5
364
330
A
100
AcDbEntity
  8
1
  6
CONTINUOUS
370
    50
100
AcDbLine
 10
104.8729162324
 20
165.4143239275
 30
0.0
 11
113.6127312637
 21
163.321268603
 31
0.0
  0
LINE
  5
365
330
A
100
AcDbEntity
  8
1
  6
CONTINUOUS
370
    50
100
AcDbLine
 10
114.6754082394
 20
166.4600866432
 30
0.0
 11
104.8729162324
 21
168.8076372509
 31
0.0
  0
LINE
  5
366
330
A
100
AcDbEntity
  8
1
  6
CONTINUOUS
370
    50
100
AcDbLine
 10
122.9229162324
 20
169.2957504593
 30
0.0
 11
120.2446616907
 21
168.5271209306
 31
0.0
  0
LINE
  5
367
330
A
100
AcDbEntity
  8
1
  6
CONTINUOUS
370
    50
100
AcDbLine
 10
121.4032472259
 20
164.4900824669
 30
0.0
 11
122.9229162324
 21
164.9262107191
 31
0.0
  0
LINE
  5
368
330
A
100
AcDbEntity
  8
1
  6
CONTINUOUS
370
    50
100
AcDbLine
 10
119.4757162384
 20
167.0556731436
 30
0.0
 11
119.4757162384
 21
166.858356913
 31
0.0
  0
LINE
  5
369
330
A
100
AcDbEntity
  8
1
  6
CONTINUOUS
370
    50
100
AcDbLine
 10
119.8663808447
 20
165.4971039073
 30
0.0
 11
119.9710178291
 21
165.3298173377
 31
0.0
  0
LINE
  5
36A
330
A
100
AcDbEntity
  8
1
  6
CONTINUOUS
370
    50
100
AcDbLine
 10
119.0229162324
 20
156.3199983419
 30
0.0
 11
117.7490204125
 21
152.8199983419
 31
0.0
  0
LINE
  5
36B
330
A
100
AcDbEntity
  8
1
  6
CONTINUOUS
370
    50
100
AcDbLine
 10
117.7490204125
 20
152.8199983419
 30
0.0
 11
119.0229162324
 21
149.3199983419
 31
0.0
  0
LINE
  5
36C
330
A
100
AcDbEntity
  8
1
  6
CONTINUOUS
370
    50
100
AcDbLine
 10
119.0229162324
 20
149.3199983419
 30
0.0
 11
122.9229162324
 21
149.3199983419
 31
0.0
  0
LINE
  5
36D
330
A
100
AcDbEntity
  8
1
  6
CONTINUOUS
370
    50
100
AcDbLine
 10
122.9229162324
 20
156.3199983419
 30
0.0
 11
119.0229162324
 21
156.3199983419
 31
0.0
  0
LINE
  5
36E
330
A
100
AcDbEntity
  8
1
  6
CONTINUOUS
370
    50
100
AcDbLine
 10
119.0229162324
 20
164.146440996
 30
0.0
 11
117.7490204125
 21
160.646440996
 31
0.0
  0
LINE
  5
36F
330
A
100
AcDbEntity
  8
1
  6
CONTINUOUS
370
    50
100
AcDbLine
 10
117.7490204125
 20
160.646440996
 30
0.0
 11
119.0229162324
 21
157.146440996
 31
0.0
  0
LINE
  5
370
330
A
100
AcDbEntity
  8
1
  6
CONTINUOUS
370
    50
100
AcDbLine
 10
119.0229162324
 20
157.146440996
 30
0.0
 11
122.9229162324
 21
157.146440996
 31
0.0
  0
LINE
  5
371
330
A
100
AcDbEntity
  8
1
  6
CONTINUOUS
370
    50
100
AcDbLine
 10
122.9229162324
 20
164.146440996
 30
0.0
 11
119.0229162324
 21
164.146440996
 31
0.0
  0
LINE
  5
372
330
A
100
AcDbEntity
  8
1
  6
CONTINUOUS
370
    50
100
AcDbLine
 10
104.6729162324
 20
179.8014367194
 30
0.0
 11
104.6729162324
 21
135.9514367194
 31
0.0
  0
LINE
  5
373
330
A
100
AcDbEntity
  8
1
  6
CONTINUOUS
370
    50
100
AcDbLine
 10
104.415806509
 20
179.8482828259
 30
0.0
 11
104.415806509
 21
135.9045906129
 31
0.0
  0
LINE
  5
374
330
A
100
AcDbEntity
  8
1
  6
CONTINUOUS
370
    50
100
AcDbLine
 10
104.6271156399
 20
179.8014367194
 30
0.0
 11
104.6271156399
 21
135.9514367194
 31
0.0
  0
LINE
  5
375
330
A
100
AcDbEntity
  8
1
  6
CONTINUOUS
370
    50
100
AcDbLine
 10
36.3754001262
 20
170.2560447571
 30
0.0
 11
36.3754001262
 21
145.4968286817
 31
0.0
  0
LINE
  5
376
330
A
100
AcDbEntity
  8
1
  6
CONTINUOUS
370
    50
100
AcDbLine
 10
111.1514629566
 20
164.0880938213
 30
0.0
 11
111.1047085179
 21
164.6631815165
 31
0.0
  0
LINE
  5
377
330
A
100
AcDbEntity
  8
1
  6
CONTINUOUS
370
    50
100
AcDbLine
 10
111.1047085179
 20
164.6631815165
 30
0.0
 11
111.1721405536
 21
165.1871701463
 31
0.0
  0
LINE
  5
378
330
A
100
AcDbEntity
  8
1
  6
CONTINUOUS
370
    50
100
AcDbLine
 10
111.1721405536
 20
165.1871701463
 30
0.0
 11
111.3477674314
 21
165.6135010213
 31
0.0
  0
LINE
  5
379
330
A
100
AcDbEntity
  8
1
  6
CONTINUOUS
370
    50
100
AcDbLine
 10
111.3477674314
 20
165.6135010213
 30
0.0
 11
111.6159839324
 21
165.9042927725
 31
0.0
  0
LINE
  5
37A
330
A
100
AcDbEntity
  8
1
  6
CONTINUOUS
370
    50
100
AcDbLine
 10
111.6159839324
 20
165.9042927725
 30
0.0
 11
111.9529578436
 21
166.0337072766
 31
0.0
  0
LINE
  5
37B
330
A
100
AcDbEntity
  8
1
  6
CONTINUOUS
370
    50
100
AcDbLine
 10
111.9529578436
 20
166.0337072766
 30
0.0
 11
112.3287475541
 21
165.9902454871
 31
0.0
  0
LINE
  5
37C
330
A
100
AcDbEntity
  8
1
  6
CONTINUOUS
370
    50
100
AcDbLine
 10
112.3287475541
 20
165.9902454871
 30
0.0
 11
112.709962499
 21
165.7777691746
 31
0.0
  0
LINE
  5
37D
330
A
100
AcDbEntity
  8
1
  6
CONTINUOUS
370
    50
100
AcDbLine
 10
112.709962499
 20
165.7777691746
 30
0.0
 11
113.0627300576
 21
165.4151577919
 31
0.0
  0
LINE
  5
37E
330
A
100
AcDbEntity
  8
1
  6
CONTINUOUS
370
    50
100
AcDbLine
 10
113.0627300576
 20
165.4151577919
 30
0.0
 11
113.355705284
 21
164.9346309517
 31
0.0
  0
LINE
  5
37F
330
A
100
AcDbEntity
  8
1
  6
CONTINUOUS
370
    50
100
AcDbLine
 10
113.355705284
 20
164.9346309517
 30
0.0
 11
113.5628560439
 21
164.3788855725
 31
0.0
  0
LINE
  5
380
330
A
100
AcDbEntity
  8
1
  6
CONTINUOUS
370
    50
100
AcDbLine
 10
113.5628560439
 20
164.3788855725
 30
0.0
 11
113.6657760831
 21
163.7973020701
 31
0.0
  0
LINE
  5
381
330
A
100
AcDbEntity
  8
1
  6
CONTINUOUS
370
    50
100
AcDbLine
 10
113.6657760831
 20
163.7973020701
 30
0.0
 11
113.6553205044
 21
163.2415566909
 31
0.0
  0
LINE
  5
382
330
A
100
AcDbEntity
  8
1
  6
CONTINUOUS
370
    50
100
AcDbLine
 10
113.6553205044
 20
163.2415566909
 30
0.0
 11
113.5324183319
 21
162.7610298507
 31
0.0
  0
LINE
  5
383
330
A
100
AcDbEntity
  8
1
  6
CONTINUOUS
370
    50
100
AcDbLine
 10
113.5324183319
 20
162.7610298507
 30
0.0
 11
113.307989963
 21
162.398418468
 31
0.0
  0
LINE
  5
384
330
A
100
AcDbEntity
  8
1
  6
CONTINUOUS
370
    50
100
AcDbLine
 10
113.307989963
 20
162.398418468
 30
0.0
 11
113.0019768432
 21
162.1859421555
 31
0.0
  0
LINE
  5
385
330
A
100
AcDbEntity
  8
1
  6
CONTINUOUS
370
    50
100
AcDbLine
 10
113.0019768432
 20
162.1859421555
 30
0.0
 11
112.641569581
 21
162.142480366
 31
0.0
  0
LINE
  5
386
330
A
100
AcDbEntity
  8
1
  6
CONTINUOUS
370
    50
100
AcDbLine
 10
112.641569581
 20
162.142480366
 30
0.0
 11
112.2587919434
 21
162.2718948701
 31
0.0
  0
LINE
  5
387
330
A
100
AcDbEntity
  8
1
  6
CONTINUOUS
370
    50
100
AcDbLine
 10
112.2587919434
 20
162.2718948701
 30
0.0
 11
111.8876554031
 21
162.5626866213
 31
0.0
  0
LINE
  5
388
330
A
100
AcDbEntity
  8
1
  6
CONTINUOUS
370
    50
100
AcDbLine
 10
111.8876554031
 20
162.5626866213
 30
0.0
 11
111.5611370706
 21
162.9890174963
 31
0.0
  0
LINE
  5
389
330
A
100
AcDbEntity
  8
1
  6
CONTINUOUS
370
    50
100
AcDbLine
 10
111.5611370706
 20
162.9890174963
 30
0.0
 11
111.3082495326
 21
163.5130061261
 31
0.0
  0
LINE
  5
38A
330
A
100
AcDbEntity
  8
1
  6
CONTINUOUS
370
    50
100
AcDbLine
 10
111.3082495326
 20
163.5130061261
 30
0.0
 11
111.1514629566
 21
164.0880938213
 31
0.0
  0
LINE
  5
38B
330
A
100
AcDbEntity
  8
1
  6
CONTINUOUS
370
    50
100
AcDbLine
 10
119.3256623956
 20
167.5517342217
 30
0.0
 11
119.2519783903
 21
167.0320060981
 31
0.0
  0
LINE
  5
38C
330
A
100
AcDbEntity
  8
1
  6
CONTINUOUS
370
    50
100
AcDbLine
 10
119.2519783903
 20
167.0320060981
 30
0.0
 11
119.2924133996
 21
166.4584363446
 31
0.0
  0
LINE
  5
38D
330
A
100
AcDbEntity
  8
1
  6
CONTINUOUS
370
    50
100
AcDbLine
 10
119.2924133996
 20
166.4584363446
 30
0.0
 11
119.4433745954
 21
165.8819891509
 31
0.0
  0
LINE
  5
38E
330
A
100
AcDbEntity
  8
1
  6
CONTINUOUS
370
    50
100
AcDbLine
 10
119.4433745954
 20
165.8819891509
 30
0.0
 11
119.691448413
 21
165.3538843798
 31
0.0
  0
LINE
  5
38F
330
A
100
AcDbEntity
  8
1
  6
CONTINUOUS
370
    50
100
AcDbLine
 10
119.691448413
 20
165.3538843798
 30
0.0
 11
120.0145924051
 21
164.9210464578
 31
0.0
  0
LINE
  5
390
330
A
100
AcDbEntity
  8
1
  6
CONTINUOUS
370
    50
100
AcDbLine
 10
120.0145924051
 20
164.9210464578
 30
0.0
 11
120.3840938099
 21
164.6219349338
 31
0.0
  0
LINE
  5
391
330
A
100
AcDbEntity
  8
1
  6
CONTINUOUS
370
    50
100
AcDbLine
 10
120.3840938099
 20
164.6219349338
 30
0.0
 11
120.7671208061
 21
164.4831271793
 31
0.0
  0
LINE
  5
392
330
A
100
AcDbEntity
  8
1
  6
CONTINUOUS
370
    50
100
AcDbLine
 10
120.7671208061
 20
164.4831271793
 30
0.0
 11
121.129639764
 21
164.5169568724
 31
0.0
  0
LINE
  5
393
330
A
100
AcDbEntity
  8
1
  6
CONTINUOUS
370
    50
100
AcDbLine
 10
121.129639764
 20
164.5169568724
 30
0.0
 11
121.4394392835
 21
164.7204180964
 31
0.0
  0
LINE
  5
394
330
A
100
AcDbEntity
  8
1
  6
CONTINUOUS
370
    50
100
AcDbLine
 10
121.4394392835
 20
164.7204180964
 30
0.0
 11
121.6689923177
 21
165.0754324288
 31
0.0
  0
LINE
  5
395
330
A
100
AcDbEntity
  8
1
  6
CONTINUOUS
370
    50
100
AcDbLine
 10
121.6689923177
 20
165.0754324288
 30
0.0
 11
121.7979020722
 21
165.550455288
 31
0.0
  0
LINE
  5
396
330
A
100
AcDbEntity
  8
1
  6
CONTINUOUS
370
    50
100
AcDbLine
 10
121.7979020722
 20
165.550455288
 30
0.0
 11
121.8147143494
 21
166.1032788086
 31
0.0
  0
LINE
  5
397
330
A
100
AcDbEntity
  8
1
  6
CONTINUOUS
370
    50
100
AcDbLine
 10
121.8147143494
 20
166.1032788086
 30
0.0
 11
121.7179353049
 21
166.6847821945
 31
0.0
  0
LINE
  5
398
330
A
100
AcDbEntity
  8
1
  6
CONTINUOUS
370
    50
100
AcDbLine
 10
121.7179353049
 20
166.6847821945
 30
0.0
 11
121.5161641815
 21
167.2432963182
 31
0.0
  0
LINE
  5
399
330
A
100
AcDbEntity
  8
1
  6
CONTINUOUS
370
    50
100
AcDbLine
 10
121.5161641815
 20
167.2432963182
 30
0.0
 11
121.2273292288
 21
167.7291947488
 31
0.0
  0
LINE
  5
39A
330
A
100
AcDbEntity
  8
1
  6
CONTINUOUS
370
    50
100
AcDbLine
 10
121.2273292288
 20
167.7291947488
 30
0.0
 11
120.8770947
 21
168.0993032782
 31
0.0
  0
LINE
  5
39B
330
A
100
AcDbEntity
  8
1
  6
CONTINUOUS
370
    50
100
AcDbLine
 10
120.8770947
 20
168.0993032782
 30
0.0
 11
120.49658047
 21
168.3207361396
 31
0.0
  0
LINE
  5
39C
330
A
100
AcDbEntity
  8
1
  6
CONTINUOUS
370
    50
100
AcDbLine
 10
120.49658047
 20
168.3207361396
 30
0.0
 11
120.1195968979
 21
168.3738180514
 31
0.0
  0
LINE
  5
39D
330
A
100
AcDbEntity
  8
1
  6
CONTINUOUS
370
    50
100
AcDbLine
 10
120.1195968979
 20
168.3738180514
 30
0.0
 11
119.7796406286
 21
168.2538324528
 31
0.0
  0
LINE
  5
39E
330
A
100
AcDbEntity
  8
1
  6
CONTINUOUS
370
    50
100
AcDbLine
 10
119.7796406286
 20
168.2538324528
 30
0.0
 11
119.5069182683
 21
167.9714405909
 31
0.0
  0
LINE
  5
39F
330
A
100
AcDbEntity
  8
1
  6
CONTINUOUS
370
    50
100
AcDbLine
 10
119.5069182683
 20
167.9714405909
 30
0.0
 11
119.3256623956
 21
167.5517342217
 31
0.0
  0
LINE
  5
3A0
330
A
100
AcDbEntity
  8
1
  6
CONTINUOUS
370
    50
100
AcDbLine
 10
113.6358077669
 20
164.0902922844
 30
0.0
 11
113.6825622056
 21
163.5152045892
 31
0.0
  0
LINE
  5
3A1
330
A
100
AcDbEntity
  8
1
  6
CONTINUOUS
370
    50
100
AcDbLine
 10
113.6825622056
 20
163.5152045892
 30
0.0
 11
113.6151301699
 21
162.9912159594
 31
0.0
  0
LINE
  5
3A2
330
A
100
AcDbEntity
  8
1
  6
CONTINUOUS
370
    50
100
AcDbLine
 10
113.6151301699
 20
162.9912159594
 30
0.0
 11
113.4395032921
 21
162.5648850844
 31
0.0
  0
LINE
  5
3A3
330
A
100
AcDbEntity
  8
1
  6
CONTINUOUS
370
    50
100
AcDbLine
 10
113.4395032921
 20
162.5648850844
 30
0.0
 11
113.1712867911
 21
162.2740933332
 31
0.0
  0
LINE
  5
3A4
330
A
100
AcDbEntity
  8
1
  6
CONTINUOUS
370
    50
100
AcDbLine
 10
113.1712867911
 20
162.2740933332
 30
0.0
 11
112.8343128799
 21
162.1446788291
 31
0.0
  0
LINE
  5
3A5
330
A
100
AcDbEntity
  8
1
  6
CONTINUOUS
370
    50
100
AcDbLine
 10
112.8343128799
 20
162.1446788291
 30
0.0
 11
112.4585231694
 21
162.1881406186
 31
0.0
  0
LINE
  5
3A6
330
A
100
AcDbEntity
  8
1
  6
CONTINUOUS
370
    50
100
AcDbLine
 10
112.4585231694
 20
162.1881406186
 30
0.0
 11
112.0773082245
 21
162.4006169311
 31
0.0
  0
LINE
  5
3A7
330
A
100
AcDbEntity
  8
1
  6
CONTINUOUS
370
    50
100
AcDbLine
 10
112.0773082245
 20
162.4006169311
 30
0.0
 11
111.724540666
 21
162.7632283138
 31
0.0
  0
LINE
  5
3A8
330
A
100
AcDbEntity
  8
1
  6
CONTINUOUS
370
    50
100
AcDbLine
 10
111.724540666
 20
162.7632283138
 30
0.0
 11
111.4315654395
 21
163.243755154
 31
0.0
  0
LINE
  5
3A9
330
A
100
AcDbEntity
  8
1
  6
CONTINUOUS
370
    50
100
AcDbLine
 10
111.4315654395
 20
163.243755154
 30
0.0
 11
111.2244146796
 21
163.7995005332
 31
0.0
  0
LINE
  5
3AA
330
A
100
AcDbEntity
  8
1
  6
CONTINUOUS
370
    50
100
AcDbLine
 10
111.2244146796
 20
163.7995005332
 30
0.0
 11
111.1214946405
 21
164.3810840356
 31
0.0
  0
LINE
  5
3AB
330
A
100
AcDbEntity
  8
1
  6
CONTINUOUS
370
    50
100
AcDbLine
 10
111.1214946405
 20
164.3810840356
 30
0.0
 11
111.1319502191
 21
164.9368294148
 31
0.0
  0
LINE
  5
3AC
330
A
100
AcDbEntity
  8
1
  6
CONTINUOUS
370
    50
100
AcDbLine
 10
111.1319502191
 20
164.9368294148
 30
0.0
 11
111.2548523916
 21
165.417356255
 31
0.0
  0
LINE
  5
3AD
330
A
100
AcDbEntity
  8
1
  6
CONTINUOUS
370
    50
100
AcDbLine
 10
111.2548523916
 20
165.417356255
 30
0.0
 11
111.4792807605
 21
165.7799676377
 31
0.0
  0
LINE
  5
3AE
330
A
100
AcDbEntity
  8
1
  6
CONTINUOUS
370
    50
100
AcDbLine
 10
111.4792807605
 20
165.7799676377
 30
0.0
 11
111.7852938803
 21
165.9924439502
 31
0.0
  0
LINE
  5
3AF
330
A
100
AcDbEntity
  8
1
  6
CONTINUOUS
370
    50
100
AcDbLine
 10
111.7852938803
 20
165.9924439502
 30
0.0
 11
112.1457011425
 21
166.0359057398
 31
0.0
  0
LINE
  5
3B0
330
A
100
AcDbEntity
  8
1
  6
CONTINUOUS
370
    50
100
AcDbLine
 10
112.1457011425
 20
166.0359057398
 30
0.0
 11
112.5284787802
 21
165.9064912356
 31
0.0
  0
LINE
  5
3B1
330
A
100
AcDbEntity
  8
1
  6
CONTINUOUS
370
    50
100
AcDbLine
 10
112.5284787802
 20
165.9064912356
 30
0.0
 11
112.8996153204
 21
165.6156994844
 31
0.0
  0
LINE
  5
3B2
330
A
100
AcDbEntity
  8
1
  6
CONTINUOUS
370
    50
100
AcDbLine
 10
112.8996153204
 20
165.6156994844
 30
0.0
 11
113.2261336529
 21
165.1893686094
 31
0.0
  0
LINE
  5
3B3
330
A
100
AcDbEntity
  8
1
  6
CONTINUOUS
370
    50
100
AcDbLine
 10
113.2261336529
 20
165.1893686094
 30
0.0
 11
113.4790211909
 21
164.6653799796
 31
0.0
  0
LINE
  5
3B4
330
A
100
AcDbEntity
  8
1
  6
CONTINUOUS
370
    50
100
AcDbLine
 10
113.4790211909
 20
164.6653799796
 30
0.0
 11
113.6358077669
 21
164.0902922844
 31
0.0
  0
LINE
  5
3B5
330
A
100
AcDbEntity
  8
1
  6
CONTINUOUS
370
    50
100
AcDbLine
 10
111.1514629566
 20
151.6647796175
 30
0.0
 11
111.1047085179
 21
151.0896919223
 31
0.0
  0
LINE
  5
3B6
330
A
100
AcDbEntity
  8
1
  6
CONTINUOUS
370
    50
100
AcDbLine
 10
111.1047085179
 20
151.0896919223
 30
0.0
 11
111.1721405536
 21
150.5657032926
 31
0.0
  0
LINE
  5
3B7
330
A
100
AcDbEntity
  8
1
  6
CONTINUOUS
370
    50
100
AcDbLine
 10
111.1721405536
 20
150.5657032926
 30
0.0
 11
111.3477674314
 21
150.1393724175
 31
0.0
  0
LINE
  5
3B8
330
A
100
AcDbEntity
  8
1
  6
CONTINUOUS
370
    50
100
AcDbLine
 10
111.3477674314
 20
150.1393724175
 30
0.0
 11
111.6159839324
 21
149.8485806663
 31
0.0
  0
LINE
  5
3B9
330
A
100
AcDbEntity
  8
1
  6
CONTINUOUS
370
    50
100
AcDbLine
 10
111.6159839324
 20
149.8485806663
 30
0.0
 11
111.9529578436
 21
149.7191661622
 31
0.0
  0
LINE
  5
3BA
330
A
100
AcDbEntity
  8
1
  6
CONTINUOUS
370
    50
100
AcDbLine
 10
111.9529578436
 20
149.7191661622
 30
0.0
 11
112.3287475541
 21
149.7626279517
 31
0.0
  0
LINE
  5
3BB
330
A
100
AcDbEntity
  8
1
  6
CONTINUOUS
370
    50
100
AcDbLine
 10
112.3287475541
 20
149.7626279517
 30
0.0
 11
112.709962499
 21
149.9751042643
 31
0.0
  0
LINE
  5
3BC
330
A
100
AcDbEntity
  8
1
  6
CONTINUOUS
370
    50
100
AcDbLine
 10
112.709962499
 20
149.9751042643
 30
0.0
 11
113.0627300576
 21
150.3377156469
 31
0.0
  0
LINE
  5
3BD
330
A
100
AcDbEntity
  8
1
  6
CONTINUOUS
370
    50
100
AcDbLine
 10
113.0627300576
 20
150.3377156469
 30
0.0
 11
113.355705284
 21
150.8182424871
 31
0.0
  0
LINE
  5
3BE
330
A
100
AcDbEntity
  8
1
  6
CONTINUOUS
370
    50
100
AcDbLine
 10
113.355705284
 20
150.8182424871
 30
0.0
 11
113.5628560439
 21
151.3739878663
 31
0.0
  0
LINE
  5
3BF
330
A
100
AcDbEntity
  8
1
  6
CONTINUOUS
370
    50
100
AcDbLine
 10
113.5628560439
 20
151.3739878663
 30
0.0
 11
113.6657760831
 21
151.9555713687
 31
0.0
  0
LINE
  5
3C0
330
A
100
AcDbEntity
  8
1
  6
CONTINUOUS
370
    50
100
AcDbLine
 10
113.6657760831
 20
151.9555713687
 30
0.0
 11
113.6553205044
 21
152.5113167479
 31
0.0
  0
LINE
  5
3C1
330
A
100
AcDbEntity
  8
1
  6
CONTINUOUS
370
    50
100
AcDbLine
 10
113.6553205044
 20
152.5113167479
 30
0.0
 11
113.5324183319
 21
152.9918435881
 31
0.0
  0
LINE
  5
3C2
330
A
100
AcDbEntity
  8
1
  6
CONTINUOUS
370
    50
100
AcDbLine
 10
113.5324183319
 20
152.9918435881
 30
0.0
 11
113.307989963
 21
153.3544549708
 31
0.0
  0
LINE
  5
3C3
330
A
100
AcDbEntity
  8
1
  6
CONTINUOUS
370
    50
100
AcDbLine
 10
113.307989963
 20
153.3544549708
 30
0.0
 11
113.0019768432
 21
153.5669312833
 31
0.0
  0
LINE
  5
3C4
330
A
100
AcDbEntity
  8
1
  6
CONTINUOUS
370
    50
100
AcDbLine
 10
113.0019768432
 20
153.5669312833
 30
0.0
 11
112.641569581
 21
153.6103930729
 31
0.0
  0
LINE
  5
3C5
330
A
100
AcDbEntity
  8
1
  6
CONTINUOUS
370
    50
100
AcDbLine
 10
112.641569581
 20
153.6103930729
 30
0.0
 11
112.2587919434
 21
153.4809785687
 31
0.0
  0
LINE
  5
3C6
330
A
100
AcDbEntity
  8
1
  6
CONTINUOUS
370
    50
100
AcDbLine
 10
112.2587919434
 20
153.4809785687
 30
0.0
 11
111.8876554031
 21
153.1901868175
 31
0.0
  0
LINE
  5
3C7
330
A
100
AcDbEntity
  8
1
  6
CONTINUOUS
370
    50
100
AcDbLine
 10
111.8876554031
 20
153.1901868175
 30
0.0
 11
111.5611370706
 21
152.7638559425
 31
0.0
  0
LINE
  5
3C8
330
A
100
AcDbEntity
  8
1
  6
CONTINUOUS
370
    50
100
AcDbLine
 10
111.5611370706
 20
152.7638559425
 30
0.0
 11
111.3082495326
 21
152.2398673127
 31
0.0
  0
LINE
  5
3C9
330
A
100
AcDbEntity
  8
1
  6
CONTINUOUS
370
    50
100
AcDbLine
 10
111.3082495326
 20
152.2398673127
 30
0.0
 11
111.1514629566
 21
151.6647796175
 31
0.0
  0
LINE
  5
3CA
330
A
100
AcDbEntity
  8
1
  6
CONTINUOUS
370
    50
100
AcDbLine
 10
119.3256623956
 20
148.2011392171
 30
0.0
 11
119.2519783903
 21
148.7208673407
 31
0.0
  0
LINE
  5
3CB
330
A
100
AcDbEntity
  8
1
  6
CONTINUOUS
370
    50
100
AcDbLine
 10
119.2519783903
 20
148.7208673407
 30
0.0
 11
119.2924133996
 21
149.2944370942
 31
0.0
  0
LINE
  5
3CC
330
A
100
AcDbEntity
  8
1
  6
CONTINUOUS
370
    50
100
AcDbLine
 10
119.2924133996
 20
149.2944370942
 30
0.0
 11
119.4433745954
 21
149.870884288
 31
0.0
  0
LINE
  5
3CD
330
A
100
AcDbEntity
  8
1
  6
CONTINUOUS
370
    50
100
AcDbLine
 10
119.4433745954
 20
149.870884288
 30
0.0
 11
119.691448413
 21
150.398989059
 31
0.0
  0
LINE
  5
3CE
330
A
100
AcDbEntity
  8
1
  6
CONTINUOUS
370
    50
100
AcDbLine
 10
119.691448413
 20
150.398989059
 30
0.0
 11
120.0145924051
 21
150.831826981
 31
0.0
  0
LINE
  5
3CF
330
A
100
AcDbEntity
  8
1
  6
CONTINUOUS
370
    50
100
AcDbLine
 10
120.0145924051
 20
150.831826981
 30
0.0
 11
120.3840938099
 21
151.130938505
 31
0.0
  0
LINE
  5
3D0
330
A
100
AcDbEntity
  8
1
  6
CONTINUOUS
370
    50
100
AcDbLine
 10
120.3840938099
 20
151.130938505
 30
0.0
 11
120.7671208061
 21
151.2697462595
 31
0.0
  0
LINE
  5
3D1
330
A
100
AcDbEntity
  8
1
  6
CONTINUOUS
370
    50
100
AcDbLine
 10
120.7671208061
 20
151.2697462595
 30
0.0
 11
121.129639764
 21
151.2359165664
 31
0.0
  0
LINE
  5
3D2
330
A
100
AcDbEntity
  8
1
  6
CONTINUOUS
370
    50
100
AcDbLine
 10
121.129639764
 20
151.2359165664
 30
0.0
 11
121.4394392835
 21
151.0324553424
 31
0.0
  0
LINE
  5
3D3
330
A
100
AcDbEntity
  8
1
  6
CONTINUOUS
370
    50
100
AcDbLine
 10
121.4394392835
 20
151.0324553424
 30
0.0
 11
121.6689923177
 21
150.67744101
 31
0.0
  0
LINE
  5
3D4
330
A
100
AcDbEntity
  8
1
  6
CONTINUOUS
370
    50
100
AcDbLine
 10
121.6689923177
 20
150.67744101
 30
0.0
 11
121.7979020722
 21
150.2024181508
 31
0.0
  0
LINE
  5
3D5
330
A
100
AcDbEntity
  8
1
  6
CONTINUOUS
370
    50
100
AcDbLine
 10
121.7979020722
 20
150.2024181508
 30
0.0
 11
121.8147143494
 21
149.6495946302
 31
0.0
  0
LINE
  5
3D6
330
A
100
AcDbEntity
  8
1
  6
CONTINUOUS
370
    50
100
AcDbLine
 10
121.8147143494
 20
149.6495946302
 30
0.0
 11
121.7179353049
 21
149.0680912443
 31
0.0
  0
LINE
  5
3D7
330
A
100
AcDbEntity
  8
1
  6
CONTINUOUS
370
    50
100
AcDbLine
 10
121.7179353049
 20
149.0680912443
 30
0.0
 11
121.5161641815
 21
148.5095771206
 31
0.0
  0
LINE
  5
3D8
330
A
100
AcDbEntity
  8
1
  6
CONTINUOUS
370
    50
100
AcDbLine
 10
121.5161641815
 20
148.5095771206
 30
0.0
 11
121.2273292288
 21
148.0236786901
 31
0.0
  0
LINE
  5
3D9
330
A
100
AcDbEntity
  8
1
  6
CONTINUOUS
370
    50
100
AcDbLine
 10
121.2273292288
 20
148.0236786901
 30
0.0
 11
120.8770947
 21
147.6535701606
 31
0.0
  0
LINE
  5
3DA
330
A
100
AcDbEntity
  8
1
  6
CONTINUOUS
370
    50
100
AcDbLine
 10
120.8770947
 20
147.6535701606
 30
0.0
 11
120.49658047
 21
147.4321372992
 31
0.0
  0
LINE
  5
3DB
330
A
100
AcDbEntity
  8
1
  6
CONTINUOUS
370
    50
100
AcDbLine
 10
120.49658047
 20
147.4321372992
 30
0.0
 11
120.1195968979
 21
147.3790553874
 31
0.0
  0
LINE
  5
3DC
330
A
100
AcDbEntity
  8
1
  6
CONTINUOUS
370
    50
100
AcDbLine
 10
120.1195968979
 20
147.3790553874
 30
0.0
 11
119.7796406286
 21
147.499040986
 31
0.0
  0
LINE
  5
3DD
330
A
100
AcDbEntity
  8
1
  6
CONTINUOUS
370
    50
100
AcDbLine
 10
119.7796406286
 20
147.499040986
 30
0.0
 11
119.5069182683
 21
147.7814328479
 31
0.0
  0
LINE
  5
3DE
330
A
100
AcDbEntity
  8
1
  6
CONTINUOUS
370
    50
100
AcDbLine
 10
119.5069182683
 20
147.7814328479
 30
0.0
 11
119.3256623956
 21
148.2011392171
 31
0.0
  0
LINE
  5
3DF
330
A
100
AcDbEntity
  8
1
  6
CONTINUOUS
370
    50
100
AcDbLine
 10
111.159123401
 20
151.6625811544
 30
0.0
 11
111.1123689623
 21
151.0874934592
 31
0.0
  0
LINE
  5
3E0
330
A
100
AcDbEntity
  8
1
  6
CONTINUOUS
370
    50
100
AcDbLine
 10
111.1123689623
 20
151.0874934592
 30
0.0
 11
111.179800998
 21
150.5635048295
 31
0.0
  0
LINE
  5
3E1
330
A
100
AcDbEntity
  8
1
  6
CONTINUOUS
370
    50
100
AcDbLine
 10
111.179800998
 20
150.5635048295
 30
0.0
 11
111.3554278758
 21
150.1371739544
 31
0.0
  0
LINE
  5
3E2
330
A
100
AcDbEntity
  8
1
  6
CONTINUOUS
370
    50
100
AcDbLine
 10
111.3554278758
 20
150.1371739544
 30
0.0
 11
111.6236443769
 21
149.8463822032
 31
0.0
  0
LINE
  5
3E3
330
A
100
AcDbEntity
  8
1
  6
CONTINUOUS
370
    50
100
AcDbLine
 10
111.6236443769
 20
149.8463822032
 30
0.0
 11
111.9606182881
 21
149.7169676991
 31
0.0
  0
LINE
  5
3E4
330
A
100
AcDbEntity
  8
1
  6
CONTINUOUS
370
    50
100
AcDbLine
 10
111.9606182881
 20
149.7169676991
 30
0.0
 11
112.3364079985
 21
149.7604294886
 31
0.0
  0
LINE
  5
3E5
330
A
100
AcDbEntity
  8
1
  6
CONTINUOUS
370
    50
100
AcDbLine
 10
112.3364079985
 20
149.7604294886
 30
0.0
 11
112.7176229435
 21
149.9729058012
 31
0.0
  0
LINE
  5
3E6
330
A
100
AcDbEntity
  8
1
  6
CONTINUOUS
370
    50
100
AcDbLine
 10
112.7176229435
 20
149.9729058012
 30
0.0
 11
113.070390502
 21
150.3355171838
 31
0.0
  0
LINE
  5
3E7
330
A
100
AcDbEntity
  8
1
  6
CONTINUOUS
370
    50
100
AcDbLine
 10
113.070390502
 20
150.3355171838
 30
0.0
 11
113.3633657285
 21
150.816044024
 31
0.0
  0
LINE
  5
3E8
330
A
100
AcDbEntity
  8
1
  6
CONTINUOUS
370
    50
100
AcDbLine
 10
113.3633657285
 20
150.816044024
 30
0.0
 11
113.5705164883
 21
151.3717894032
 31
0.0
  0
LINE
  5
3E9
330
A
100
AcDbEntity
  8
1
  6
CONTINUOUS
370
    50
100
AcDbLine
 10
113.5705164883
 20
151.3717894032
 30
0.0
 11
113.6734365275
 21
151.9533729056
 31
0.0
  0
LINE
  5
3EA
330
A
100
AcDbEntity
  8
1
  6
CONTINUOUS
370
    50
100
AcDbLine
 10
113.6734365275
 20
151.9533729056
 30
0.0
 11
113.6629809488
 21
152.5091182848
 31
0.0
  0
LINE
  5
3EB
330
A
100
AcDbEntity
  8
1
  6
CONTINUOUS
370
    50
100
AcDbLine
 10
113.6629809488
 20
152.5091182848
 30
0.0
 11
113.5400787763
 21
152.989645125
 31
0.0
  0
LINE
  5
3EC
330
A
100
AcDbEntity
  8
1
  6
CONTINUOUS
370
    50
100
AcDbLine
 10
113.5400787763
 20
152.989645125
 30
0.0
 11
113.3156504075
 21
153.3522565077
 31
0.0
  0
LINE
  5
3ED
330
A
100
AcDbEntity
  8
1
  6
CONTINUOUS
370
    50
100
AcDbLine
 10
113.3156504075
 20
153.3522565077
 30
0.0
 11
113.0096372876
 21
153.5647328202
 31
0.0
  0
LINE
  5
3EE
330
A
100
AcDbEntity
  8
1
  6
CONTINUOUS
370
    50
100
AcDbLine
 10
113.0096372876
 20
153.5647328202
 30
0.0
 11
112.6492300254
 21
153.6081946098
 31
0.0
  0
LINE
  5
3EF
330
A
100
AcDbEntity
  8
1
  6
CONTINUOUS
370
    50
100
AcDbLine
 10
112.6492300254
 20
153.6081946098
 30
0.0
 11
112.2664523878
 21
153.4787801056
 31
0.0
  0
LINE
  5
3F0
330
A
100
AcDbEntity
  8
1
  6
CONTINUOUS
370
    50
100
AcDbLine
 10
112.2664523878
 20
153.4787801056
 30
0.0
 11
111.8953158476
 21
153.1879883544
 31
0.0
  0
LINE
  5
3F1
330
A
100
AcDbEntity
  8
1
  6
CONTINUOUS
370
    50
100
AcDbLine
 10
111.8953158476
 20
153.1879883544
 30
0.0
 11
111.5687975151
 21
152.7616574794
 31
0.0
  0
LINE
  5
3F2
330
A
100
AcDbEntity
  8
1
  6
CONTINUOUS
370
    50
100
AcDbLine
 10
111.5687975151
 20
152.7616574794
 30
0.0
 11
111.315909977
 21
152.2376688496
 31
0.0
  0
LINE
  5
3F3
330
A
100
AcDbEntity
  8
1
  6
CONTINUOUS
370
    50
100
AcDbLine
 10
111.315909977
 20
152.2376688496
 30
0.0
 11
111.159123401
 21
151.6625811544
 31
0.0
  0
LINE
  5
3F4
330
A
100
AcDbEntity
  8
1
  6
CONTINUOUS
370
    50
100
AcDbLine
 10
69.5329162324
 20
165.8764367194
 30
0.0
 11
44.4981939074
 21
165.8764367194
 31
0.0
  0
LINE
  5
3F5
330
A
100
AcDbEntity
  8
1
  6
CONTINUOUS
370
    50
100
AcDbLine
 10
44.4981939074
 20
149.8764367194
 30
0.0
 11
69.5329162324
 21
149.8764367194
 31
0.0
  0
LINE
  5
3F6
330
A
100
AcDbEntity
  8
1
  6
CONTINUOUS
370
    50
100
AcDbLine
 10
69.5329162324
 20
165.8764367194
 30
0.0
 11
69.5329162324
 21
165.8540670969
 31
0.0
  0
LINE
  5
3F7
330
A
100
AcDbEntity
  8
1
  6
CONTINUOUS
370
    50
100
AcDbLine
 10
69.5329162324
 20
165.8540670969
 30
0.0
 11
69.5329162324
 21
149.8764367194
 31
0.0
  0
LINE
  5
3F8
330
A
100
AcDbEntity
  8
1
  6
CONTINUOUS
370
    50
100
AcDbLine
 10
147.8672320131
 20
160.3764367194
 30
0.0
 11
135.2972320131
 21
160.3764367194
 31
0.0
  0
LINE
  5
3F9
330
A
100
AcDbEntity
  8
1
  6
CONTINUOUS
370
    50
100
AcDbLine
 10
135.2972320131
 20
155.3764367194
 30
0.0
 11
147.8672320131
 21
155.3764367194
 31
0.0
  0
LINE
  5
3FA
330
A
100
AcDbEntity
  8
1
  6
CONTINUOUS
370
    50
100
AcDbLine
 10
147.8672320131
 20
160.3764367194
 30
0.0
 11
147.8672320131
 21
160.3706086424
 31
0.0
  0
LINE
  5
3FB
330
A
100
AcDbEntity
  8
1
  6
CONTINUOUS
370
    50
100
AcDbLine
 10
147.8672320131
 20
160.3706086424
 30
0.0
 11
147.8672320131
 21
155.3764367194
 31
0.0
  0
ENDSEC
  0
SECTION
  2
OBJECTS
  0
DICTIONARY
  5
19
330
0
100
AcDbDictionary
281
     1
  3
ACAD_GROUP
350
1A
  3
ACAD_LAYOUT
350
420
  3
ACAD_MATERIAL
350
434
  3
ACAD_MLEADERSTYLE
350
43C
  3
ACAD_MLINESTYLE
350
1B
  3
ACAD_SCALELIST
350
3FE
  3
ACAD_VISUALSTYLE
350
423
  3
ACDB_RECOMPOSE_DATA
350
469
  3
AcDbVariableDictionary
350
43A
  0
DICTIONARY
  5
440
330
7
100
AcDbDictionary
280
     1
281
     1
  3
ACAD_XREC_ROUNDTRIP
360
441
  0
DICTIONARY
  5
1A
102
{ACAD_REACTORS
330
19
102
}
330
19
100
AcDbDictionary
281
     1
  0
DICTIONARY
  5
420
102
{ACAD_REACTORS
330
19
102
}
330
19
100
AcDbDictionary
281
     1
  3
Layout1
350
422
  3
Model
350
421
  0
DICTIONARY
  5
434
102
{ACAD_REACTORS
330
19
102
}
330
19
100
AcDbDictionary
281
     1
  3
ByBlock
350
436
  3
ByLayer
350
435
  3
Global
350
437
  0
DICTIONARY
  5
43C
102
{ACAD_REACTORS
330
19
102
}
330
19
100
AcDbDictionary
281
     1
  0
DICTIONARY
  5
1B
102
{ACAD_REACTORS
330
19
102
}
330
19
100
AcDbDictionary
281
     1
  3
STANDARD
350
1C
  0
DICTIONARY
  5
3FE
102
{ACAD_REACTORS
330
19
102
}
330
19
100
AcDbDictionary
281
     1
  3
A0
350
3FF
  3
A1
350
400
  3
A2
350
401
  3
A3
350
402
  3
A4
350
403
  3
A5
350
404
  3
A6
350
405
  3
A7
350
406
  3
A8
350
407
  3
A9
350
408
  3
B0
350
409
  3
B1
350
40A
  3
B2
350
40B
  3
B3
350
40C
  3
B4
350
40D
  3
B5
350
40E
  3
B6
350
40F
  3
B7
350
410
  3
B8
350
411
  3
B9
350
412
  3
C0
350
413
  3
C1
350
414
  3
C2
350
415
  3
C3
350
416
  3
C4
350
417
  3
C5
350
418
  3
C6
350
419
  3
C7
350
41A
  3
C8
350
41B
  3
C9
350
41C
  3
D0
350
41D
  3
D1
350
41E
  3
D2
350
41F
  0
DICTIONARY
  5
423
102
{ACAD_REACTORS
330
19
102
}
330
19
100
AcDbDictionary
281
     1
  3
2dWireframe
350
428
  3
3D Hidden
350
42A
  3
3dWireframe
350
429
  3
Basic
350
42B
  3
Brighten
350
42F
  3
ColorChange
350
433
  3
Conceptual
350
42D
  3
Dim
350
42E
  3
Facepattern
350
432
  3
Flat
350
424
  3
FlatWithEdges
350
425
  3
Gouraud
350
426
  3
GouraudWithEdges
350
427
  3
Linepattern
350
431
  3
Realistic
350
42C
  3
Thicken
350
430
  0
XRECORD
  5
469
102
{ACAD_REACTORS
330
19
102
}
330
19
100
AcDbXrecord
280
     1
  0
DICTIONARY
  5
43A
102
{ACAD_REACTORS
330
19
102
}
330
19
100
AcDbDictionary
281
     1
  3
CANNOSCALE
350
442
  3
DIMASSOC
350
43E
  3
HIDETEXT
350
43F
  3
MSLTSCALE
350
43D
  0
XRECORD
  5
441
102
{ACAD_REACTORS
330
440
102
}
330
440
100
AcDbXrecord
280
     1
102
VTR_0.000_0.000_1.000_1.000_VISUALSTYLE
340
428
102
VTR_0.000_0.000_1.000_1.000_GRIDDISPLAY
 70
     3
102
VTR_0.000_0.000_1.000_1.000_GRIDMAJOR
 70
     5
102
VTR_0.000_0.000_1.000_1.000_DEFAULTLIGHTING
280
     1
102
VTR_0.000_0.000_1.000_1.000_DEFAULTLIGHTINGTYPE
 70
     1
102
VTR_0.000_0.000_1.000_1.000_BRIGHTNESS
141
0.0
102
VTR_0.000_0.000_1.000_1.000_CONTRAST
142
0.0
  0
LAYOUT
  5
422
102
{ACAD_REACTORS
330
420
102
}
330
420
100
AcDbPlotSettings
  1

  2
none_device
  4

  6

 40
0.0
 41
0.0
 42
0.0
 43
0.0
 44
0.0
 45
0.0
 46
0.0
 47
0.0
 48
0.0
 49
0.0
140
0.0
141
0.0
142
1.0
143
1.0
 70
   688
 72
     0
 73
     0
 74
     5
  7

 75
    16
147
1.0
148
0.0
149
0.0
100
AcDbLayout
  1
Layout1
 70
     1
 71
     1
 10
0.0
 20
0.0
 11
12.0
 21
9.0
 12
0.0
 22
0.0
 32
0.0
 14
1.000000000000000E+20
 24
1.000000000000000E+20
 34
1.000000000000000E+20
 15
-1.000000000000000E+20
 25
-1.000000000000000E+20
 35
-1.000000000000000E+20
146
0.0
 13
0.0
 23
0.0
 33
0.0
 16
1.0
 26
0.0
 36
0.0
 17
0.0
 27
1.0
 37
0.0
 76
     0
330
B
  0
LAYOUT
  5
421
102
{ACAD_REACTORS
330
420
102
}
330
420
100
AcDbPlotSettings
  1

  2
none_device
  4

  6

 40
0.0
 41
0.0
 42
0.0
 43
0.0
 44
0.0
 45
0.0
 46
0.0
 47
0.0
 48
0.0
 49
0.0
140
0.0
141
0.0
142
1.0
143
1.0
 70
  1712
 72
     0
 73
     0
 74
     0
  7

 75
     0
147
1.0
148
2667.54428576817
149
0.0
100
AcDbLayout
  1
Model
 70
     1
 71
     0
 10
0.0
 20
0.0
 11
0.0
 21
0.0
 12
0.0
 22
0.0
 32
0.0
 14
0.0
 24
0.0
 34
0.0
 15
210.0
 25
297.0
 35
0.0
146
0.0
 13
0.0
 23
0.0
 33
0.0
 16
1.0
 26
0.0
 36
0.0
 17
0.0
 27
1.0
 37
0.0
 76
     0
330
A
331
15
  0
MATERIAL
  5
436
102
{ACAD_REACTORS
330
434
102
}
102
{ACAD_XDICTIONARY
360
465
102
}
330
434
100
AcDbMaterial
  1
ByBlock
  0
MATERIAL
  5
435
102
{ACAD_REACTORS
330
434
102
}
102
{ACAD_XDICTIONARY
360
463
102
}
330
434
100
AcDbMaterial
  1
ByLayer
  0
MATERIAL
  5
437
102
{ACAD_REACTORS
330
434
102
}
102
{ACAD_XDICTIONARY
360
467
102
}
330
434
100
AcDbMaterial
  1
Global
  0
MLINESTYLE
  5
1C
102
{ACAD_REACTORS
330
1B
102
}
330
1B
100
AcDbMlineStyle
  2
STANDARD
 70
     0
  3

 62
     0
 51
90.0
 52
90.0
 71
     2
 49
0.5
 62
   256
  6
BYLAYER
 49
-0.5
 62
   256
  6
BYLAYER
  0
SCALE
  5
3FF
102
{ACAD_REACTORS
330
3FE
102
}
330
3FE
100
AcDbScale
 70
     0
300
1:1
140
1.0
141
1.0
290
     1
  0
SCALE
  5
400
102
{ACAD_REACTORS
330
3FE
102
}
330
3FE
100
AcDbScale
 70
     0
300
1:2
140
1.0
141
2.0
290
     0
  0
SCALE
  5
401
102
{ACAD_REACTORS
330
3FE
102
}
330
3FE
100
AcDbScale
 70
     0
300
1:4
140
1.0
141
4.0
290
     0
  0
SCALE
  5
402
102
{ACAD_REACTORS
330
3FE
102
}
330
3FE
100
AcDbScale
 70
     0
300
1:5
140
1.0
141
5.0
290
     0
  0
SCALE
  5
403
102
{ACAD_REACTORS
330
3FE
102
}
330
3FE
100
AcDbScale
 70
     0
300
1:8
140
1.0
141
8.0
290
     0
  0
SCALE
  5
404
102
{ACAD_REACTORS
330
3FE
102
}
330
3FE
100
AcDbScale
 70
     0
300
1:10
140
1.0
141
10.0
290
     0
  0
SCALE
  5
405
102
{ACAD_REACTORS
330
3FE
102
}
330
3FE
100
AcDbScale
 70
     0
300
1:16
140
1.0
141
16.0
290
     0
  0
SCALE
  5
406
102
{ACAD_REACTORS
330
3FE
102
}
330
3FE
100
AcDbScale
 70
     0
300
1:20
140
1.0
141
20.0
290
     0
  0
SCALE
  5
407
102
{ACAD_REACTORS
330
3FE
102
}
330
3FE
100
AcDbScale
 70
     0
300
1:30
140
1.0
141
30.0
290
     0
  0
SCALE
  5
408
102
{ACAD_REACTORS
330
3FE
102
}
330
3FE
100
AcDbScale
 70
     0
300
1:40
140
1.0
141
40.0
290
     0
  0
SCALE
  5
409
102
{ACAD_REACTORS
330
3FE
102
}
330
3FE
100
AcDbScale
 70
     0
300
1:50
140
1.0
141
50.0
290
     0
  0
SCALE
  5
40A
102
{ACAD_REACTORS
330
3FE
102
}
330
3FE
100
AcDbScale
 70
     0
300
1:100
140
1.0
141
100.0
290
     0
  0
SCALE
  5
40B
102
{ACAD_REACTORS
330
3FE
102
}
330
3FE
100
AcDbScale
 70
     0
300
2:1
140
2.0
141
1.0
290
     0
  0
SCALE
  5
40C
102
{ACAD_REACTORS
330
3FE
102
}
330
3FE
100
AcDbScale
 70
     0
300
4:1
140
4.0
141
1.0
290
     0
  0
SCALE
  5
40D
102
{ACAD_REACTORS
330
3FE
102
}
330
3FE
100
AcDbScale
 70
     0
300
8:1
140
8.0
141
1.0
290
     0
  0
SCALE
  5
40E
102
{ACAD_REACTORS
330
3FE
102
}
330
3FE
100
AcDbScale
 70
     0
300
10:1
140
10.0
141
1.0
290
     0
  0
SCALE
  5
40F
102
{ACAD_REACTORS
330
3FE
102
}
330
3FE
100
AcDbScale
 70
     0
300
100:1
140
100.0
141
1.0
290
     0
  0
SCALE
  5
410
102
{ACAD_REACTORS
330
3FE
102
}
330
3FE
100
AcDbScale
 70
     0
300
1/128" = 1'-0"
140
0.0078125
141
12.0
290
     0
  0
SCALE
  5
411
102
{ACAD_REACTORS
330
3FE
102
}
330
3FE
100
AcDbScale
 70
     0
300
1/64" = 1'-0"
140
0.015625
141
12.0
290
     0
  0
SCALE
  5
412
102
{ACAD_REACTORS
330
3FE
102
}
330
3FE
100
AcDbScale
 70
     0
300
1/32" = 1'-0"
140
0.03125
141
12.0
290
     0
  0
SCALE
  5
413
102
{ACAD_REACTORS
330
3FE
102
}
330
3FE
100
AcDbScale
 70
     0
300
1/16" = 1'-0"
140
0.0625
141
12.0
290
     0
  0
SCALE
  5
414
102
{ACAD_REACTORS
330
3FE
102
}
330
3FE
100
AcDbScale
 70
     0
300
3/32" = 1'-0"
140
0.09375
141
12.0
290
     0
  0
SCALE
  5
415
102
{ACAD_REACTORS
330
3FE
102
}
330
3FE
100
AcDbScale
 70
     0
300
1/8" = 1'-0"
140
0.125
141
12.0
290
     0
  0
SCALE
  5
416
102
{ACAD_REACTORS
330
3FE
102
}
330
3FE
100
AcDbScale
 70
     0
300
3/16" = 1'-0"
140
0.1875
141
12.0
290
     0
  0
SCALE
  5
417
102
{ACAD_REACTORS
330
3FE
102
}
330
3FE
100
AcDbScale
 70
     0
300
1/4" = 1'-0"
140
0.25
141
12.0
290
     0
  0
SCALE
  5
418
102
{ACAD_REACTORS
330
3FE
102
}
330
3FE
100
AcDbScale
 70
     0
300
3/8" = 1'-0"
140
0.375
141
12.0
290
     0
  0
SCALE
  5
419
102
{ACAD_REACTORS
330
3FE
102
}
330
3FE
100
AcDbScale
 70
     0
300
1/2" = 1'-0"
140
0.5
141
12.0
290
     0
  0
SCALE
  5
41A
102
{ACAD_REACTORS
330
3FE
102
}
330
3FE
100
AcDbScale
 70
     0
300
3/4" = 1'-0"
140
0.75
141
12.0
290
     0
  0
SCALE
  5
41B
102
{ACAD_REACTORS
330
3FE
102
}
330
3FE
100
AcDbScale
 70
     0
300
1" = 1'-0"
140
1.0
141
12.0
290
     0
  0
SCALE
  5
41C
102
{ACAD_REACTORS
330
3FE
102
}
330
3FE
100
AcDbScale
 70
     0
300
1-1/2" = 1'-0"
140
1.5
141
12.0
290
     0
  0
SCALE
  5
41D
102
{ACAD_REACTORS
330
3FE
102
}
330
3FE
100
AcDbScale
 70
     0
300
3" = 1'-0"
140
3.0
141
12.0
290
     0
  0
SCALE
  5
41E
102
{ACAD_REACTORS
330
3FE
102
}
330
3FE
100
AcDbScale
 70
     0
300
6" = 1'-0"
140
6.0
141
12.0
290
     0
  0
SCALE
  5
41F
102
{ACAD_REACTORS
330
3FE
102
}
330
3FE
100
AcDbScale
 70
     0
300
1'-0" = 1'-0"
140
12.0
141
12.0
290
     0
  0
VISUALSTYLE
  5
428
102
{ACAD_REACTORS
330
423
102
}
102
{ACAD_XDICTIONARY
360
44B
102
}
330
423
100
AcDbVisualStyle
  2
2dWireframe
 70
     4
 71
     0
 72
     2
 73
     0
 90
        0
 40
-0.6
 41
-30.0
 62
     5
 63
     7
 74
     1
 91
        4
 64
     7
 65
   257
 75
     1
175
     1
 42
1.0
 92
        0
 66
   257
 43
1.0
 76
     1
 77
     6
 78
     2
 67
     7
 79
     5
170
     0
171
     0
290
     0
174
     0
 93
        1
 44
0.0
173
     0
291
     0
 45
0.0
1001
ACAD
1000
AcDbSavedByObjectVersion
1070
     0
  0
VISUALSTYLE
  5
42A
102
{ACAD_REACTORS
330
423
102
}
102
{ACAD_XDICTIONARY
360
44F
102
}
330
423
100
AcDbVisualStyle
  2
3D Hidden
 70
     6
 71
     1
 72
     2
 73
     2
 90
        0
 40
-0.6
 41
-30.0
 62
     5
 63
     7
 74
     2
 91
        2
 64
     7
 65
   257
 75
     2
175
     1
 42
40.0
 92
        0
 66
   257
 43
1.0
 76
     1
 77
     6
 78
     2
 67
     7
 79
     3
170
     0
171
     0
290
     0
174
     0
 93
        1
 44
0.0
173
     0
291
     0
 45
0.0
1001
ACAD
1000
AcDbSavedByObjectVersion
1070
     0
  0
VISUALSTYLE
  5
429
102
{ACAD_REACTORS
330
423
102
}
102
{ACAD_XDICTIONARY
360
44D
102
}
330
423
100
AcDbVisualStyle
  2
3dWireframe
 70
     5
 71
     0
 72
     2
 73
     0
 90
        0
 40
-0.6
 41
-30.0
 62
     5
 63
     7
 74
     1
 91
        4
 64
     7
 65
   257
 75
     1
175
     1
 42
1.0
 92
        0
 66
   257
 43
1.0
 76
     1
 77
     6
 78
     2
 67
     7
 79
     5
170
     0
171
     0
290
     0
174
     0
 93
        1
 44
0.0
173
     0
291
     0
 45
0.0
1001
ACAD
1000
AcDbSavedByObjectVersion
1070
     0
  0
VISUALSTYLE
  5
42B
102
{ACAD_REACTORS
330
423
102
}
102
{ACAD_XDICTIONARY
360
451
102
}
330
423
100
AcDbVisualStyle
  2
Basic
 70
     7
 71
     1
 72
     0
 73
     1
 90
        0
 40
-0.6
 41
-30.0
 62
     5
 63
     7
 74
     0
 91
        4
 64
     7
 65
   257
 75
     1
175
     1
 42
1.0
 92
        8
 66
     7
 43
1.0
 76
     1
 77
     6
 78
     2
 67
     7
 79
     5
170
     0
171
     0
290
     0
174
     0
 93
        1
 44
0.0
173
     0
291
     1
 45
0.0
1001
ACAD
1000
AcDbSavedByObjectVersion
1070
     0
  0
VISUALSTYLE
  5
42F
102
{ACAD_REACTORS
330
423
102
}
102
{ACAD_XDICTIONARY
360
459
102
}
330
423
100
AcDbVisualStyle
  2
Brighten
 70
    12
 71
     2
 72
     2
 73
     0
 90
        0
 40
-0.6
 41
-30.0
 62
     5
 63
     7
 74
     1
 91
        4
 64
     7
 65
   257
 75
     1
175
     1
 42
1.0
 92
        8
 66
     7
 43
1.0
 76
     1
 77
     6
 78
     2
 67
     7
 79
     5
170
     0
171
     0
290
     0
174
     0
 93
        1
 44
50.0
173
     0
291
     1
 45
0.0
1001
ACAD
1000
AcDbSavedByObjectVersion
1070
     0
  0
VISUALSTYLE
  5
433
102
{ACAD_REACTORS
330
423
102
}
102
{ACAD_XDICTIONARY
360
461
102
}
330
423
100
AcDbVisualStyle
  2
ColorChange
 70
    16
 71
     2
 72
     2
 73
     3
 90
        0
 40
-0.6
 41
-30.0
 62
     5
 63
     8
 74
     1
 91
        4
 64
     7
 65
   257
 75
     1
175
     1
 42
1.0
 92
        8
 66
     8
 43
1.0
 76
     1
 77
     6
 78
     2
 67
     7
 79
     5
170
     0
171
     0
290
     0
174
     0
 93
        1
 44
0.0
173
     0
291
     1
 45
0.0
1001
ACAD
1000
AcDbSavedByObjectVersion
1070
     0
  0
VISUALSTYLE
  5
42D
102
{ACAD_REACTORS
330
423
102
}
102
{ACAD_XDICTIONARY
360
455
102
}
330
423
100
AcDbVisualStyle
  2
Conceptual
 70
     9
 71
     3
 72
     2
 73
     0
 90
        0
 40
-0.6
 41
-30.0
 62
     5
 63
     7
 74
     2
 91
        2
 64
     7
 65
   257
 75
     1
175
     1
 42
40.0
 92
        8
 66
     7
 43
1.0
 76
     1
 77
     6
 78
     2
 67
     7
 79
     3
170
     0
171
     0
290
     0
174
     0
 93
        1
 44
0.0
173
     0
291
     0
 45
0.0
1001
ACAD
1000
AcDbSavedByObjectVersion
1070
     0
  0
VISUALSTYLE
  5
42E
102
{ACAD_REACTORS
330
423
102
}
102
{ACAD_XDICTIONARY
360
457
102
}
330
423
100
AcDbVisualStyle
  2
Dim
 70
    11
 71
     2
 72
     2
 73
     0
 90
        0
 40
-0.6
 41
-30.0
 62
     5
 63
     7
 74
     1
 91
        4
 64
     7
 65
   257
 75
     1
175
     1
 42
1.0
 92
        8
 66
     7
 43
1.0
 76
     1
 77
     6
 78
     2
 67
     7
 79
     5
170
     0
171
     0
290
     0
174
     0
 93
        1
 44
-50.0
173
     0
291
     1
 45
0.0
1001
ACAD
1000
AcDbSavedByObjectVersion
1070
     0
  0
VISUALSTYLE
  5
432
102
{ACAD_REACTORS
330
423
102
}
102
{ACAD_XDICTIONARY
360
45F
102
}
330
423
100
AcDbVisualStyle
  2
Facepattern
 70
    15
 71
     2
 72
     2
 73
     0
 90
        0
 40
-0.6
 41
-30.0
 62
     5
 63
     7
 74
     1
 91
        4
 64
     7
 65
   257
 75
     1
175
     1
 42
1.0
 92
        8
 66
     7
 43
1.0
 76
     1
 77
     6
 78
     2
 67
     7
 79
     5
170
     0
171
     0
290
     0
174
     0
 93
        1
 44
0.0
173
     0
291
     1
 45
0.0
1001
ACAD
1000
AcDbSavedByObjectVersion
1070
     0
  0
VISUALSTYLE
  5
424
102
{ACAD_REACTORS
330
423
102
}
102
{ACAD_XDICTIONARY
360
443
102
}
330
423
100
AcDbVisualStyle
  2
Flat
 70
     0
 71
     2
 72
     1
 73
     1
 90
        2
 40
-0.6
 41
30.0
 62
     5
 63
     7
 74
     0
 91
        4
 64
     7
 65
   257
 75
     1
175
     1
 42
1.0
 92
        8
 66
     7
 43
1.0
 76
     1
 77
     6
 78
     2
 67
     7
 79
     5
170
     0
171
     0
290
     0
174
     0
 93
       13
 44
0.0
173
     0
291
     1
 45
0.0
1001
ACAD
1000
AcDbSavedByObjectVersion
1070
     0
  0
VISUALSTYLE
  5
425
102
{ACAD_REACTORS
330
423
102
}
102
{ACAD_XDICTIONARY
360
445
102
}
330
423
100
AcDbVisualStyle
  2
FlatWithEdges
 70
     1
 71
     2
 72
     1
 73
     1
 90
        2
 40
-0.6
 41
30.0
 62
     5
 63
     7
 74
     1
 91
        4
 64
     7
 65
   257
 75
     1
175
     1
 42
1.0
 92
        0
 66
   257
 43
1.0
 76
     1
 77
     6
 78
     2
 67
     7
 79
     5
170
     0
171
     0
290
     0
174
     0
 93
       13
 44
0.0
173
     0
291
     1
 45
0.0
1001
ACAD
1000
AcDbSavedByObjectVersion
1070
     0
  0
VISUALSTYLE
  5
426
102
{ACAD_REACTORS
330
423
102
}
102
{ACAD_XDICTIONARY
360
447
102
}
330
423
100
AcDbVisualStyle
  2
Gouraud
 70
     2
 71
     2
 72
     2
 73
     1
 90
        2
 40
-0.6
 41
30.0
 62
     5
 63
     7
 74
     0
 91
        4
 64
     7
 65
   257
 75
     1
175
     1
 42
1.0
 92
        0
 66
     7
 43
1.0
 76
     1
 77
     6
 78
     2
 67
     7
 79
     5
170
     0
171
     0
290
     0
174
     0
 93
       13
 44
0.0
173
     0
291
     1
 45
0.0
1001
ACAD
1000
AcDbSavedByObjectVersion
1070
     0
  0
VISUALSTYLE
  5
427
102
{ACAD_REACTORS
330
423
102
}
102
{ACAD_XDICTIONARY
360
449
102
}
330
423
100
AcDbVisualStyle
  2
GouraudWithEdges
 70
     3
 71
     2
 72
     2
 73
     1
 90
        2
 40
-0.6
 41
30.0
 62
     5
 63
     7
 74
     1
 91
        4
 64
     7
 65
   257
 75
     1
175
     1
 42
1.0
 92
        0
 66
   257
 43
1.0
 76
     1
 77
     6
 78
     2
 67
     7
 79
     5
170
     0
171
     0
290
     0
174
     0
 93
       13
 44
0.0
173
     0
291
     1
 45
0.0
1001
ACAD
1000
AcDbSavedByObjectVersion
1070
     0
  0
VISUALSTYLE
  5
431
102
{ACAD_REACTORS
330
423
102
}
102
{ACAD_XDICTIONARY
360
45D
102
}
330
423
100
AcDbVisualStyle
  2
Linepattern
 70
    14
 71
     2
 72
     2
 73
     0
 90
        0
 40
-0.6
 41
-30.0
 62
     5
 63
     7
 74
     1
 91
        4
 64
     7
 65
   257
 75
     7
175
     7
 42
1.0
 92
        8
 66
     7
 43
1.0
 76
     1
 77
     6
 78
     2
 67
     7
 79
     5
170
     0
171
     0
290
     0
174
     0
 93
        1
 44
0.0
173
     0
291
     1
 45
0.0
1001
ACAD
1000
AcDbSavedByObjectVersion
1070
     0
  0
VISUALSTYLE
  5
42C
102
{ACAD_REACTORS
330
423
102
}
102
{ACAD_XDICTIONARY
360
453
102
}
330
423
100
AcDbVisualStyle
  2
Realistic
 70
     8
 71
     2
 72
     2
 73
     0
 90
        0
 40
-0.6
 41
-30.0
 62
     5
 63
     7
 74
     1
 91
        0
 64
     7
 65
   257
 75
     1
175
     1
 42
1.0
 92
        8
 66
     8
 43
1.0
 76
     1
 77
     6
 78
     2
 67
     7
 79
     5
170
     0
171
     0
290
     0
174
     0
 93
       13
 44
0.0
173
     0
291
     0
 45
0.0
1001
ACAD
1000
AcDbSavedByObjectVersion
1070
     0
  0
VISUALSTYLE
  5
430
102
{ACAD_REACTORS
330
423
102
}
102
{ACAD_XDICTIONARY
360
45B
102
}
330
423
100
AcDbVisualStyle
  2
Thicken
 70
    13
 71
     2
 72
     2
 73
     0
 90
        0
 40
-0.6
 41
-30.0
 62
     5
 63
     7
 74
     1
 91
        4
 64
     7
 65
   257
 75
     1
175
     1
 42
1.0
 92
       12
 66
     7
 43
1.0
 76
     1
 77
     6
 78
     2
 67
     7
 79
     5
170
     0
171
     0
290
     0
174
     0
 93
        1
 44
0.0
173
     0
291
     1
 45
0.0
1001
ACAD
1000
AcDbSavedByObjectVersion
1070
     0
  0
DICTIONARYVAR
  5
442
102
{ACAD_REACTORS
330
43A
102
}
330
43A
100
DictionaryVariables
280
     0
  1
1:1
  0
DICTIONARYVAR
  5
43E
102
{ACAD_REACTORS
330
43A
102
}
330
43A
100
DictionaryVariables
280
     0
  1
2
  0
DICTIONARYVAR
  5
43F
102
{ACAD_REACTORS
330
43A
102
}
330
43A
100
DictionaryVariables
280
     0
  1
1
  0
DICTIONARYVAR
  5
43D
102
{ACAD_REACTORS
330
43A
102
}
330
43A
100
DictionaryVariables
280
     0
  1
0
  0
DICTIONARY
  5
465
330
436
100
AcDbDictionary
280
     1
281
     1
  3
ACAD_XREC_ROUNDTRIP
360
466
  0
DICTIONARY
  5
463
330
435
100
AcDbDictionary
280
     1
281
     1
  3
ACAD_XREC_ROUNDTRIP
360
464
  0
DICTIONARY
  5
467
330
437
100
AcDbDictionary
280
     1
281
     1
  3
ACAD_XREC_ROUNDTRIP
360
468
  0
DICTIONARY
  5
44B
330
428
100
AcDbDictionary
280
     1
281
     1
  3
ACAD_XREC_ROUNDTRIP
360
44C
  0
DICTIONARY
  5
44F
330
42A
100
AcDbDictionary
280
     1
281
     1
  3
ACAD_XREC_ROUNDTRIP
360
450
  0
DICTIONARY
  5
44D
330
429
100
AcDbDictionary
280
     1
281
     1
  3
ACAD_XREC_ROUNDTRIP
360
44E
  0
DICTIONARY
  5
451
330
42B
100
AcDbDictionary
280
     1
281
     1
  3
ACAD_XREC_ROUNDTRIP
360
452
  0
DICTIONARY
  5
459
330
42F
100
AcDbDictionary
280
     1
281
     1
  3
ACAD_XREC_ROUNDTRIP
360
45A
  0
DICTIONARY
  5
461
330
433
100
AcDbDictionary
280
     1
281
     1
  3
ACAD_XREC_ROUNDTRIP
360
462
  0
DICTIONARY
  5
455
330
42D
100
AcDbDictionary
280
     1
281
     1
  3
ACAD_XREC_ROUNDTRIP
360
456
  0
DICTIONARY
  5
457
330
42E
100
AcDbDictionary
280
     1
281
     1
  3
ACAD_XREC_ROUNDTRIP
360
458
  0
DICTIONARY
  5
45F
330
432
100
AcDbDictionary
280
     1
281
     1
  3
ACAD_XREC_ROUNDTRIP
360
460
  0
DICTIONARY
  5
443
330
424
100
AcDbDictionary
280
     1
281
     1
  3
ACAD_XREC_ROUNDTRIP
360
444
  0
DICTIONARY
  5
445
330
425
100
AcDbDictionary
280
     1
281
     1
  3
ACAD_XREC_ROUNDTRIP
360
446
  0
DICTIONARY
  5
447
330
426
100
AcDbDictionary
280
     1
281
     1
  3
ACAD_XREC_ROUNDTRIP
360
448
  0
DICTIONARY
  5
449
330
427
100
AcDbDictionary
280
     1
281
     1
  3
ACAD_XREC_ROUNDTRIP
360
44A
  0
DICTIONARY
  5
45D
330
431
100
AcDbDictionary
280
     1
281
     1
  3
ACAD_XREC_ROUNDTRIP
360
45E
  0
DICTIONARY
  5
453
330
42C
100
AcDbDictionary
280
     1
281
     1
  3
ACAD_XREC_ROUNDTRIP
360
454
  0
DICTIONARY
  5
45B
330
430
100
AcDbDictionary
280
     1
281
     1
  3
ACAD_XREC_ROUNDTRIP
360
45C
  0
XRECORD
  5
466
102
{ACAD_REACTORS
330
465
102
}
330
465
100
AcDbXrecord
280
     1
102
MATERIAL
148
0.0
149
0.0
149
0.0
 93
        0
 94
      127
282
     0
 72
     1
 77
     1
171
     1
175
     1
179
     1
273
     0
  0
XRECORD
  5
464
102
{ACAD_REACTORS
330
463
102
}
330
463
100
AcDbXrecord
280
     1
102
MATERIAL
148
0.0
149
0.0
149
0.0
 93
        0
 94
      127
282
     0
 72
     1
 77
     1
171
     1
175
     1
179
     1
273
     0
  0
XRECORD
  5
468
102
{ACAD_REACTORS
330
467
102
}
330
467
100
AcDbXrecord
280
     1
102
MATERIAL
148
0.0
149
0.0
149
0.0
 93
        0
 94
      127
282
     0
 72
     1
 77
     1
171
     1
175
     1
179
     1
273
     0
  0
XRECORD
  5
44C
102
{ACAD_REACTORS
330
44B
102
}
330
44B
100
AcDbXrecord
280
     1
102
RTVSPropertyOp0
 70
     1
102
RTVSPropertyOp1
 70
     1
102
RTVSPropertyOp2
 70
     1
102
RTVSPropertyOp3
 70
     1
102
RTVSPropertyOp4
 70
     1
102
RTVSPropertyOp5
 70
     1
102
RTVSPropertyOp6
 70
     1
102
RTVSPropertyOp7
 70
     1
102
RTVSPropertyOp8
 70
     1
102
RTVSPropertyOp9
 70
     1
102
RTVSPropertyOp10
 70
     1
102
RTVSPropertyOp11
 70
     1
102
RTVSPropertyOp12
 70
     1
102
RTVSPropertyOp13
 70
     1
102
RTVSPropertyOp14
 70
     1
102
RTVSPropertyOp15
 70
     1
102
RTVSPropertyOp16
 70
     1
102
RTVSPropertyOp17
 70
     1
102
RTVSPropertyOp18
 70
     1
102
RTVSPropertyOp19
 70
     1
102
RTVSPropertyOp20
 70
     1
102
RTVSPropertyOp21
 70
     1
102
RTVSPropertyOp22
 70
     1
102
RTVSPropertyOp23
 70
     1
102
RTVSPropertyOp24
 70
     1
102
RTVSPropertyOp25
 70
     1
102
RTVSPropertyOp26
 70
     1
102
RTVSPropertyOp27
 70
     1
102
RTVSPropertyOp28
 70
     1
102
RTVSPropertyOp29
 70
     1
102
RTVSPropertyOp30
 70
     1
102
RTVSPropertyOp31
 70
     1
102
RTVSPropertyOp32
 70
     1
  0
XRECORD
  5
450
102
{ACAD_REACTORS
330
44F
102
}
330
44F
100
AcDbXrecord
280
     1
102
RTVSPropertyOp0
 70
     1
102
RTVSPropertyOp1
 70
     1
102
RTVSPropertyOp2
 70
     1
102
RTVSPropertyOp3
 70
     1
102
RTVSPropertyOp4
 70
     1
102
RTVSPropertyOp5
 70
     1
102
RTVSPropertyOp6
 70
     1
102
RTVSPropertyOp7
 70
     1
102
RTVSPropertyOp8
 70
     1
102
RTVSPropertyOp9
 70
     1
102
RTVSPropertyOp10
 70
     1
102
RTVSPropertyOp11
 70
     1
102
RTVSPropertyOp12
 70
     1
102
RTVSPropertyOp13
 70
     1
102
RTVSPropertyOp14
 70
     1
102
RTVSPropertyOp15
 70
     1
102
RTVSPropertyOp16
 70
     1
102
RTVSPropertyOp17
 70
     1
102
RTVSPropertyOp18
 70
     1
102
RTVSPropertyOp19
 70
     1
102
RTVSPropertyOp20
 70
     1
102
RTVSPropertyOp21
 70
     1
102
RTVSPropertyOp22
 70
     1
102
RTVSPropertyOp23
 70
     1
102
RTVSPropertyOp24
 70
     1
102
RTVSPropertyOp25
 70
     1
102
RTVSPropertyOp26
 70
     1
102
RTVSPropertyOp27
 70
     1
102
RTVSPropertyOp28
 70
     1
102
RTVSPropertyOp29
 70
     1
102
RTVSPropertyOp30
 70
     1
102
RTVSPropertyOp31
 70
     1
102
RTVSPropertyOp32
 70
     1
  0
XRECORD
  5
44E
102
{ACAD_REACTORS
330
44D
102
}
330
44D
100
AcDbXrecord
280
     1
102
RTVSPropertyOp0
 70
     1
102
RTVSPropertyOp1
 70
     1
102
RTVSPropertyOp2
 70
     1
102
RTVSPropertyOp3
 70
     1
102
RTVSPropertyOp4
 70
     1
102
RTVSPropertyOp5
 70
     1
102
RTVSPropertyOp6
 70
     1
102
RTVSPropertyOp7
 70
     1
102
RTVSPropertyOp8
 70
     1
102
RTVSPropertyOp9
 70
     1
102
RTVSPropertyOp10
 70
     1
102
RTVSPropertyOp11
 70
     1
102
RTVSPropertyOp12
 70
     1
102
RTVSPropertyOp13
 70
     1
102
RTVSPropertyOp14
 70
     1
102
RTVSPropertyOp15
 70
     1
102
RTVSPropertyOp16
 70
     1
102
RTVSPropertyOp17
 70
     1
102
RTVSPropertyOp18
 70
     1
102
RTVSPropertyOp19
 70
     1
102
RTVSPropertyOp20
 70
     1
102
RTVSPropertyOp21
 70
     1
102
RTVSPropertyOp22
 70
     1
102
RTVSPropertyOp23
 70
     1
102
RTVSPropertyOp24
 70
     1
102
RTVSPropertyOp25
 70
     1
102
RTVSPropertyOp26
 70
     1
102
RTVSPropertyOp27
 70
     1
102
RTVSPropertyOp28
 70
     1
102
RTVSPropertyOp29
 70
     1
102
RTVSPropertyOp30
 70
     1
102
RTVSPropertyOp31
 70
     1
102
RTVSPropertyOp32
 70
     1
  0
XRECORD
  5
452
102
{ACAD_REACTORS
330
451
102
}
330
451
100
AcDbXrecord
280
     1
102
RTVSPropertyOp0
 70
     1
102
RTVSPropertyOp1
 70
     1
102
RTVSPropertyOp2
 70
     1
102
RTVSPropertyOp3
 70
     1
102
RTVSPropertyOp4
 70
     1
102
RTVSPropertyOp5
 70
     1
102
RTVSPropertyOp6
 70
     1
102
RTVSPropertyOp7
 70
     1
102
RTVSPropertyOp8
 70
     1
102
RTVSPropertyOp9
 70
     1
102
RTVSPropertyOp10
 70
     1
102
RTVSPropertyOp11
 70
     1
102
RTVSPropertyOp12
 70
     1
102
RTVSPropertyOp13
 70
     1
102
RTVSPropertyOp14
 70
     1
102
RTVSPropertyOp15
 70
     1
102
RTVSPropertyOp16
 70
     1
102
RTVSPropertyOp17
 70
     1
102
RTVSPropertyOp18
 70
     1
102
RTVSPropertyOp19
 70
     1
102
RTVSPropertyOp20
 70
     1
102
RTVSPropertyOp21
 70
     1
102
RTVSPropertyOp22
 70
     1
102
RTVSPropertyOp23
 70
     1
102
RTVSPropertyOp24
 70
     1
102
RTVSPropertyOp25
 70
     1
102
RTVSPropertyOp26
 70
     1
102
RTVSPropertyOp27
 70
     1
102
RTVSPropertyOp28
 70
     1
102
RTVSPropertyOp29
 70
     1
102
RTVSPropertyOp30
 70
     1
102
RTVSPropertyOp31
 70
     1
102
RTVSPropertyOp32
 70
     1
  0
XRECORD
  5
45A
102
{ACAD_REACTORS
330
459
102
}
330
459
100
AcDbXrecord
280
     1
102
RTVSPropertyOp0
 70
     1
102
RTVSPropertyOp1
 70
     1
102
RTVSPropertyOp2
 70
     1
102
RTVSPropertyOp3
 70
     1
102
RTVSPropertyOp4
 70
     1
102
RTVSPropertyOp5
 70
     1
102
RTVSPropertyOp6
 70
     1
102
RTVSPropertyOp7
 70
     1
102
RTVSPropertyOp8
 70
     1
102
RTVSPropertyOp9
 70
     1
102
RTVSPropertyOp10
 70
     1
102
RTVSPropertyOp11
 70
     1
102
RTVSPropertyOp12
 70
     1
102
RTVSPropertyOp13
 70
     1
102
RTVSPropertyOp14
 70
     1
102
RTVSPropertyOp15
 70
     1
102
RTVSPropertyOp16
 70
     1
102
RTVSPropertyOp17
 70
     1
102
RTVSPropertyOp18
 70
     1
102
RTVSPropertyOp19
 70
     1
102
RTVSPropertyOp20
 70
     1
102
RTVSPropertyOp21
 70
     1
102
RTVSPropertyOp22
 70
     1
102
RTVSPropertyOp23
 70
     1
102
RTVSPropertyOp24
 70
     1
102
RTVSPropertyOp25
 70
     1
102
RTVSPropertyOp26
 70
     1
102
RTVSPropertyOp27
 70
     1
102
RTVSPropertyOp28
 70
     1
102
RTVSPropertyOp29
 70
     1
102
RTVSPropertyOp30
 70
     1
102
RTVSPropertyOp31
 70
     1
102
RTVSPropertyOp32
 70
     1
  0
XRECORD
  5
462
102
{ACAD_REACTORS
330
461
102
}
330
461
100
AcDbXrecord
280
     1
102
RTVSPropertyOp0
 70
     1
102
RTVSPropertyOp1
 70
     1
102
RTVSPropertyOp2
 70
     1
102
RTVSPropertyOp3
 70
     1
102
RTVSPropertyOp4
 70
     1
102
RTVSPropertyOp5
 70
     1
102
RTVSPropertyOp6
 70
     1
102
RTVSPropertyOp7
 70
     1
102
RTVSPropertyOp8
 70
     1
102
RTVSPropertyOp9
 70
     1
102
RTVSPropertyOp10
 70
     1
102
RTVSPropertyOp11
 70
     1
102
RTVSPropertyOp12
 70
     1
102
RTVSPropertyOp13
 70
     1
102
RTVSPropertyOp14
 70
     1
102
RTVSPropertyOp15
 70
     1
102
RTVSPropertyOp16
 70
     1
102
RTVSPropertyOp17
 70
     1
102
RTVSPropertyOp18
 70
     1
102
RTVSPropertyOp19
 70
     1
102
RTVSPropertyOp20
 70
     1
102
RTVSPropertyOp21
 70
     1
102
RTVSPropertyOp22
 70
     1
102
RTVSPropertyOp23
 70
     1
102
RTVSPropertyOp24
 70
     1
102
RTVSPropertyOp25
 70
     1
102
RTVSPropertyOp26
 70
     1
102
RTVSPropertyOp27
 70
     1
102
RTVSPropertyOp28
 70
     1
102
RTVSPropertyOp29
 70
     1
102
RTVSPropertyOp30
 70
     1
102
RTVSPropertyOp31
 70
     1
102
RTVSPropertyOp32
 70
     1
  0
XRECORD
  5
456
102
{ACAD_REACTORS
330
455
102
}
330
455
100
AcDbXrecord
280
     1
102
RTVSPropertyOp0
 70
     1
102
RTVSPropertyOp1
 70
     1
102
RTVSPropertyOp2
 70
     1
102
RTVSPropertyOp3
 70
     1
102
RTVSPropertyOp4
 70
     1
102
RTVSPropertyOp5
 70
     1
102
RTVSPropertyOp6
 70
     1
102
RTVSPropertyOp7
 70
     1
102
RTVSPropertyOp8
 70
     1
102
RTVSPropertyOp9
 70
     1
102
RTVSPropertyOp10
 70
     1
102
RTVSPropertyOp11
 70
     1
102
RTVSPropertyOp12
 70
     1
102
RTVSPropertyOp13
 70
     1
102
RTVSPropertyOp14
 70
     1
102
RTVSPropertyOp15
 70
     1
102
RTVSPropertyOp16
 70
     1
102
RTVSPropertyOp17
 70
     1
102
RTVSPropertyOp18
 70
     1
102
RTVSPropertyOp19
 70
     1
102
RTVSPropertyOp20
 70
     1
102
RTVSPropertyOp21
 70
     1
102
RTVSPropertyOp22
 70
     1
102
RTVSPropertyOp23
 70
     1
102
RTVSPropertyOp24
 70
     1
102
RTVSPropertyOp25
 70
     1
102
RTVSPropertyOp26
 70
     1
102
RTVSPropertyOp27
 70
     1
102
RTVSPropertyOp28
 70
     1
102
RTVSPropertyOp29
 70
     1
102
RTVSPropertyOp30
 70
     1
102
RTVSPropertyOp31
 70
     1
102
RTVSPropertyOp32
 70
     1
  0
XRECORD
  5
458
102
{ACAD_REACTORS
330
457
102
}
330
457
100
AcDbXrecord
280
     1
102
RTVSPropertyOp0
 70
     1
102
RTVSPropertyOp1
 70
     1
102
RTVSPropertyOp2
 70
     1
102
RTVSPropertyOp3
 70
     1
102
RTVSPropertyOp4
 70
     1
102
RTVSPropertyOp5
 70
     1
102
RTVSPropertyOp6
 70
     1
102
RTVSPropertyOp7
 70
     1
102
RTVSPropertyOp8
 70
     1
102
RTVSPropertyOp9
 70
     1
102
RTVSPropertyOp10
 70
     1
102
RTVSPropertyOp11
 70
     1
102
RTVSPropertyOp12
 70
     1
102
RTVSPropertyOp13
 70
     1
102
RTVSPropertyOp14
 70
     1
102
RTVSPropertyOp15
 70
     1
102
RTVSPropertyOp16
 70
     1
102
RTVSPropertyOp17
 70
     1
102
RTVSPropertyOp18
 70
     1
102
RTVSPropertyOp19
 70
     1
102
RTVSPropertyOp20
 70
     1
102
RTVSPropertyOp21
 70
     1
102
RTVSPropertyOp22
 70
     1
102
RTVSPropertyOp23
 70
     1
102
RTVSPropertyOp24
 70
     1
102
RTVSPropertyOp25
 70
     1
102
RTVSPropertyOp26
 70
     1
102
RTVSPropertyOp27
 70
     1
102
RTVSPropertyOp28
 70
     1
102
RTVSPropertyOp29
 70
     1
102
RTVSPropertyOp30
 70
     1
102
RTVSPropertyOp31
 70
     1
102
RTVSPropertyOp32
 70
     1
  0
XRECORD
  5
460
102
{ACAD_REACTORS
330
45F
102
}
330
45F
100
AcDbXrecord
280
     1
102
RTVSPropertyOp0
 70
     1
102
RTVSPropertyOp1
 70
     1
102
RTVSPropertyOp2
 70
     1
102
RTVSPropertyOp3
 70
     1
102
RTVSPropertyOp4
 70
     1
102
RTVSPropertyOp5
 70
     1
102
RTVSPropertyOp6
 70
     1
102
RTVSPropertyOp7
 70
     1
102
RTVSPropertyOp8
 70
     1
102
RTVSPropertyOp9
 70
     1
102
RTVSPropertyOp10
 70
     1
102
RTVSPropertyOp11
 70
     1
102
RTVSPropertyOp12
 70
     1
102
RTVSPropertyOp13
 70
     1
102
RTVSPropertyOp14
 70
     1
102
RTVSPropertyOp15
 70
     1
102
RTVSPropertyOp16
 70
     1
102
RTVSPropertyOp17
 70
     1
102
RTVSPropertyOp18
 70
     1
102
RTVSPropertyOp19
 70
     1
102
RTVSPropertyOp20
 70
     1
102
RTVSPropertyOp21
 70
     1
102
RTVSPropertyOp22
 70
     1
102
RTVSPropertyOp23
 70
     1
102
RTVSPropertyOp24
 70
     1
102
RTVSPropertyOp25
 70
     1
102
RTVSPropertyOp26
 70
     1
102
RTVSPropertyOp27
 70
     1
102
RTVSPropertyOp28
 70
     1
102
RTVSPropertyOp29
 70
     1
102
RTVSPropertyOp30
 70
     1
102
RTVSPropertyOp31
 70
     1
102
RTVSPropertyOp32
 70
     1
  0
XRECORD
  5
444
102
{ACAD_REACTORS
330
443
102
}
330
443
100
AcDbXrecord
280
     1
102
RTVSPropertyOp0
 70
     1
102
RTVSPropertyOp1
 70
     1
102
RTVSPropertyOp2
 70
     1
102
RTVSPropertyOp3
 70
     1
102
RTVSPropertyOp4
 70
     1
102
RTVSPropertyOp5
 70
     1
102
RTVSPropertyOp6
 70
     1
102
RTVSPropertyOp7
 70
     1
102
RTVSPropertyOp8
 70
     1
102
RTVSPropertyOp9
 70
     1
102
RTVSPropertyOp10
 70
     1
102
RTVSPropertyOp11
 70
     1
102
RTVSPropertyOp12
 70
     1
102
RTVSPropertyOp13
 70
     1
102
RTVSPropertyOp14
 70
     1
102
RTVSPropertyOp15
 70
     1
102
RTVSPropertyOp16
 70
     1
102
RTVSPropertyOp17
 70
     1
102
RTVSPropertyOp18
 70
     1
102
RTVSPropertyOp19
 70
     1
102
RTVSPropertyOp20
 70
     1
102
RTVSPropertyOp21
 70
     1
102
RTVSPropertyOp22
 70
     1
102
RTVSPropertyOp23
 70
     1
102
RTVSPropertyOp24
 70
     1
102
RTVSPropertyOp25
 70
     1
102
RTVSPropertyOp26
 70
     1
102
RTVSPropertyOp27
 70
     1
102
RTVSPropertyOp28
 70
     1
102
RTVSPropertyOp29
 70
     1
102
RTVSPropertyOp30
 70
     1
102
RTVSPropertyOp31
 70
     1
102
RTVSPropertyOp32
 70
     1
  0
XRECORD
  5
446
102
{ACAD_REACTORS
330
445
102
}
330
445
100
AcDbXrecord
280
     1
102
RTVSPropertyOp0
 70
     1
102
RTVSPropertyOp1
 70
     1
102
RTVSPropertyOp2
 70
     1
102
RTVSPropertyOp3
 70
     1
102
RTVSPropertyOp4
 70
     1
102
RTVSPropertyOp5
 70
     1
102
RTVSPropertyOp6
 70
     1
102
RTVSPropertyOp7
 70
     1
102
RTVSPropertyOp8
 70
     1
102
RTVSPropertyOp9
 70
     1
102
RTVSPropertyOp10
 70
     1
102
RTVSPropertyOp11
 70
     1
102
RTVSPropertyOp12
 70
     1
102
RTVSPropertyOp13
 70
     1
102
RTVSPropertyOp14
 70
     1
102
RTVSPropertyOp15
 70
     1
102
RTVSPropertyOp16
 70
     1
102
RTVSPropertyOp17
 70
     1
102
RTVSPropertyOp18
 70
     1
102
RTVSPropertyOp19
 70
     1
102
RTVSPropertyOp20
 70
     1
102
RTVSPropertyOp21
 70
     1
102
RTVSPropertyOp22
 70
     1
102
RTVSPropertyOp23
 70
     1
102
RTVSPropertyOp24
 70
     1
102
RTVSPropertyOp25
 70
     1
102
RTVSPropertyOp26
 70
     1
102
RTVSPropertyOp27
 70
     1
102
RTVSPropertyOp28
 70
     1
102
RTVSPropertyOp29
 70
     1
102
RTVSPropertyOp30
 70
     1
102
RTVSPropertyOp31
 70
     1
102
RTVSPropertyOp32
 70
     1
  0
XRECORD
  5
448
102
{ACAD_REACTORS
330
447
102
}
330
447
100
AcDbXrecord
280
     1
102
RTVSPropertyOp0
 70
     1
102
RTVSPropertyOp1
 70
     1
102
RTVSPropertyOp2
 70
     1
102
RTVSPropertyOp3
 70
     1
102
RTVSPropertyOp4
 70
     1
102
RTVSPropertyOp5
 70
     1
102
RTVSPropertyOp6
 70
     1
102
RTVSPropertyOp7
 70
     1
102
RTVSPropertyOp8
 70
     1
102
RTVSPropertyOp9
 70
     1
102
RTVSPropertyOp10
 70
     1
102
RTVSPropertyOp11
 70
     1
102
RTVSPropertyOp12
 70
     1
102
RTVSPropertyOp13
 70
     1
102
RTVSPropertyOp14
 70
     1
102
RTVSPropertyOp15
 70
     1
102
RTVSPropertyOp16
 70
     1
102
RTVSPropertyOp17
 70
     1
102
RTVSPropertyOp18
 70
     1
102
RTVSPropertyOp19
 70
     1
102
RTVSPropertyOp20
 70
     1
102
RTVSPropertyOp21
 70
     1
102
RTVSPropertyOp22
 70
     1
102
RTVSPropertyOp23
 70
     1
102
RTVSPropertyOp24
 70
     1
102
RTVSPropertyOp25
 70
     1
102
RTVSPropertyOp26
 70
     1
102
RTVSPropertyOp27
 70
     1
102
RTVSPropertyOp28
 70
     1
102
RTVSPropertyOp29
 70
     1
102
RTVSPropertyOp30
 70
     1
102
RTVSPropertyOp31
 70
     1
102
RTVSPropertyOp32
 70
     1
  0
XRECORD
  5
44A
102
{ACAD_REACTORS
330
449
102
}
330
449
100
AcDbXrecord
280
     1
102
RTVSPropertyOp0
 70
     1
102
RTVSPropertyOp1
 70
     1
102
RTVSPropertyOp2
 70
     1
102
RTVSPropertyOp3
 70
     1
102
RTVSPropertyOp4
 70
     1
102
RTVSPropertyOp5
 70
     1
102
RTVSPropertyOp6
 70
     1
102
RTVSPropertyOp7
 70
     1
102
RTVSPropertyOp8
 70
     1
102
RTVSPropertyOp9
 70
     1
102
RTVSPropertyOp10
 70
     1
102
RTVSPropertyOp11
 70
     1
102
RTVSPropertyOp12
 70
     1
102
RTVSPropertyOp13
 70
     1
102
RTVSPropertyOp14
 70
     1
102
RTVSPropertyOp15
 70
     1
102
RTVSPropertyOp16
 70
     1
102
RTVSPropertyOp17
 70
     1
102
RTVSPropertyOp18
 70
     1
102
RTVSPropertyOp19
 70
     1
102
RTVSPropertyOp20
 70
     1
102
RTVSPropertyOp21
 70
     1
102
RTVSPropertyOp22
 70
     1
102
RTVSPropertyOp23
 70
     1
102
RTVSPropertyOp24
 70
     1
102
RTVSPropertyOp25
 70
     1
102
RTVSPropertyOp26
 70
     1
102
RTVSPropertyOp27
 70
     1
102
RTVSPropertyOp28
 70
     1
102
RTVSPropertyOp29
 70
     1
102
RTVSPropertyOp30
 70
     1
102
RTVSPropertyOp31
 70
     1
102
RTVSPropertyOp32
 70
     1
  0
XRECORD
  5
45E
102
{ACAD_REACTORS
330
45D
102
}
330
45D
100
AcDbXrecord
280
     1
102
RTVSPropertyOp0
 70
     1
102
RTVSPropertyOp1
 70
     1
102
RTVSPropertyOp2
 70
     1
102
RTVSPropertyOp3
 70
     1
102
RTVSPropertyOp4
 70
     1
102
RTVSPropertyOp5
 70
     1
102
RTVSPropertyOp6
 70
     1
102
RTVSPropertyOp7
 70
     1
102
RTVSPropertyOp8
 70
     1
102
RTVSPropertyOp9
 70
     1
102
RTVSPropertyOp10
 70
     1
102
RTVSPropertyOp11
 70
     1
102
RTVSPropertyOp12
 70
     1
102
RTVSPropertyOp13
 70
     1
102
RTVSPropertyOp14
 70
     1
102
RTVSPropertyOp15
 70
     1
102
RTVSPropertyOp16
 70
     1
102
RTVSPropertyOp17
 70
     1
102
RTVSPropertyOp18
 70
     1
102
RTVSPropertyOp19
 70
     1
102
RTVSPropertyOp20
 70
     1
102
RTVSPropertyOp21
 70
     1
102
RTVSPropertyOp22
 70
     1
102
RTVSPropertyOp23
 70
     1
102
RTVSPropertyOp24
 70
     1
102
RTVSPropertyOp25
 70
     1
102
RTVSPropertyOp26
 70
     1
102
RTVSPropertyOp27
 70
     1
102
RTVSPropertyOp28
 70
     1
102
RTVSPropertyOp29
 70
     1
102
RTVSPropertyOp30
 70
     1
102
RTVSPropertyOp31
 70
     1
102
RTVSPropertyOp32
 70
     1
  0
XRECORD
  5
454
102
{ACAD_REACTORS
330
453
102
}
330
453
100
AcDbXrecord
280
     1
102
RTVSPropertyOp0
 70
     1
102
RTVSPropertyOp1
 70
     1
102
RTVSPropertyOp2
 70
     1
102
RTVSPropertyOp3
 70
     1
102
RTVSPropertyOp4
 70
     1
102
RTVSPropertyOp5
 70
     1
102
RTVSPropertyOp6
 70
     1
102
RTVSPropertyOp7
 70
     1
102
RTVSPropertyOp8
 70
     1
102
RTVSPropertyOp9
 70
     1
102
RTVSPropertyOp10
 70
     1
102
RTVSPropertyOp11
 70
     1
102
RTVSPropertyOp12
 70
     1
102
RTVSPropertyOp13
 70
     1
102
RTVSPropertyOp14
 70
     1
102
RTVSPropertyOp15
 70
     1
102
RTVSPropertyOp16
 70
     1
102
RTVSPropertyOp17
 70
     1
102
RTVSPropertyOp18
 70
     1
102
RTVSPropertyOp19
 70
     1
102
RTVSPropertyOp20
 70
     1
102
RTVSPropertyOp21
 70
     1
102
RTVSPropertyOp22
 70
     1
102
RTVSPropertyOp23
 70
     1
102
RTVSPropertyOp24
 70
     1
102
RTVSPropertyOp25
 70
     1
102
RTVSPropertyOp26
 70
     1
102
RTVSPropertyOp27
 70
     1
102
RTVSPropertyOp28
 70
     1
102
RTVSPropertyOp29
 70
     1
102
RTVSPropertyOp30
 70
     1
102
RTVSPropertyOp31
 70
     1
102
RTVSPropertyOp32
 70
     1
  0
XRECORD
  5
45C
102
{ACAD_REACTORS
330
45B
102
}
330
45B
100
AcDbXrecord
280
     1
102
RTVSPropertyOp0
 70
     1
102
RTVSPropertyOp1
 70
     1
102
RTVSPropertyOp2
 70
     1
102
RTVSPropertyOp3
 70
     1
102
RTVSPropertyOp4
 70
     1
102
RTVSPropertyOp5
 70
     1
102
RTVSPropertyOp6
 70
     1
102
RTVSPropertyOp7
 70
     1
102
RTVSPropertyOp8
 70
     1
102
RTVSPropertyOp9
 70
     1
102
RTVSPropertyOp10
 70
     1
102
RTVSPropertyOp11
 70
     1
102
RTVSPropertyOp12
 70
     1
102
RTVSPropertyOp13
 70
     1
102
RTVSPropertyOp14
 70
     1
102
RTVSPropertyOp15
 70
     1
102
RTVSPropertyOp16
 70
     1
102
RTVSPropertyOp17
 70
     1
102
RTVSPropertyOp18
 70
     1
102
RTVSPropertyOp19
 70
     1
102
RTVSPropertyOp20
 70
     1
102
RTVSPropertyOp21
 70
     1
102
RTVSPropertyOp22
 70
     1
102
RTVSPropertyOp23
 70
     1
102
RTVSPropertyOp24
 70
     1
102
RTVSPropertyOp25
 70
     1
102
RTVSPropertyOp26
 70
     1
102
RTVSPropertyOp27
 70
     1
102
RTVSPropertyOp28
 70
     1
102
RTVSPropertyOp29
 70
     1
102
RTVSPropertyOp30
 70
     1
102
RTVSPropertyOp31
 70
     1
102
RTVSPropertyOp32
 70
     1
  0
ENDSEC
  0
EOF
