  0
SECTION
  2
HEADER
  9
$ACADVER
  1
AC1015
  9
$ACADMAINTVER
 70
     6
  9
$DWGCODEPAGE
  3
ANSI_1252
  9
$INSBASE
 10
0.0
 20
0.0
 30
0.0
  9
$EXTMIN
 10
0.0
 20
0.0
 30
0.0
  9
$EXTMAX
 10
210.0
 20
297.0
 30
0.0
  9
$LIMMIN
 10
0.0
 20
0.0
  9
$LIMMAX
 10
0.0
 20
0.0
  9
$ORTHOMODE
 70
     0
  9
$REGENMODE
 70
     1
  9
$FILLMODE
 70
     1
  9
$QTEXTMODE
 70
     0
  9
$MIRRTEXT
 70
     1
  9
$LTSCALE
 40
1.0
  9
$ATTMODE
 70
     1
  9
$TEXTSIZE
 40
0.0
  9
$TRACEWID
 40
0.05
  9
$TEXTSTYLE
  7
STANDARD
  9
$CLAYER
  8
0
  9
$CELTYPE
  6
CONTINUOUS
  9
$CECOLOR
 62
   256
  9
$CELTSCALE
 40
1.0
  9
$DISPSILH
 70
     0
  9
$DIMSCALE
 40
1.0
  9
$DIMASZ
 40
0.0
  9
$DIMEXO
 40
0.0
  9
$DIMDLI
 40
0.38
  9
$DIMRND
 40
0.0
  9
$DIMDLE
 40
1000.0
  9
$DIMEXE
 40
0.18
  9
$DIMTP
 40
0.0
  9
$DIMTM
 40
0.0
  9
$DIMTXT
 40
3.5
  9
$DIMCEN
 40
0.09
  9
$DIMTSZ
 40
0.0
  9
$DIMTOL
 70
     0
  9
$DIMLIM
 70
     0
  9
$DIMTIH
 70
     1
  9
$DIMTOH
 70
     1
  9
$DIMSE1
 70
     0
  9
$DIMSE2
 70
     0
  9
$DIMTAD
 70
     1
  9
$DIMZIN
 70
     0
  9
$DIMBLK
  1

  9
$DIMASO
 70
     1
  9
$DIMSHO
 70
     1
  9
$DIMPOST
  1

  9
$DIMAPOST
  1

  9
$DIMALT
 70
     0
  9
$DIMALTD
 70
     2
  9
$DIMALTF
 40
0.0394
  9
$DIMLFAC
 40
1.0
  9
$DIMTOFL
 70
     0
  9
$DIMTVP
 40
0.0
  9
$DIMTIX
 70
     0
  9
$DIMSOXD
 70
     0
  9
$DIMSAH
 70
     0
  9
$DIMBLK1
  1

  9
$DIMBLK2
  1

  9
$DIMSTYLE
  2
STANDARD
  9
$DIMCLRD
 70
     0
  9
$DIMCLRE
 70
     0
  9
$DIMCLRT
 70
     0
  9
$DIMTFAC
 40
1.0
  9
$DIMGAP
 40
0.0
  9
$DIMJUST
 70
     0
  9
$DIMSD1
 70
     0
  9
$DIMSD2
 70
     0
  9
$DIMTOLJ
 70
     1
  9
$DIMTZIN
 70
     0
  9
$DIMALTZ
 70
     0
  9
$DIMALTTZ
 70
     0
  9
$DIMUPT
 70
     0
  9
$DIMDEC
 70
     4
  9
$DIMTDEC
 70
     4
  9
$DIMALTU
 70
     2
  9
$DIMALTTD
 70
     2
  9
$DIMTXSTY
  7
STANDARD
  9
$DIMAUNIT
 70
     0
  9
$DIMADEC
 70
     0
  9
$DIMALTRND
 40
0.0
  9
$DIMAZIN
 70
     0
  9
$DIMDSEP
 70
    46
  9
$DIMATFIT
 70
     3
  9
$DIMFRAC
 70
     0
  9
$DIMLDRBLK
  1

  9
$DIMLUNIT
 70
     2
  9
$DIMLWD
 70
    -2
  9
$DIMLWE
 70
    -2
  9
$DIMTMOVE
 70
     2
  9
$LUNITS
 70
     2
  9
$LUPREC
 70
     2
  9
$SKETCHINC
 40
0.1
  9
$FILLETRAD
 40
0.0
  9
$AUNITS
 70
     0
  9
$AUPREC
 70
     2
  9
$MENU
  1
acad
  9
$ELEVATION
 40
0.0
  9
$PELEVATION
 40
0.0
  9
$THICKNESS
 40
0.0
  9
$LIMCHECK
 70
     0
  9
$CHAMFERA
 40
0.0
  9
$CHAMFERB
 40
0.0
  9
$CHAMFERC
 40
0.0
  9
$CHAMFERD
 40
0.0
  9
$SKPOLY
 70
     0
  9
$TDCREATE
 40
2447893.0
  9
$TDUCREATE
 40
2447892.916666667
  9
$TDUPDATE
 40
2458327.548777072
  9
$TDUUPDATE
 40
2458327.465443738
  9
$TDINDWG
 40
0.0
  9
$TDUSRTIMER
 40
0.0
  9
$USRTIMER
 70
     1
  9
$ANGBASE
 50
0.0
  9
$ANGDIR
 70
     0
  9
$PDMODE
 70
     0
  9
$PDSIZE
 40
-1.0
  9
$PLINEWID
 40
0.0
  9
$SPLFRAME
 70
     0
  9
$SPLINETYPE
 70
     6
  9
$SPLINESEGS
 70
     8
  9
$HANDSEED
  5
47D
  9
$SURFTAB1
 70
     6
  9
$SURFTAB2
 70
     6
  9
$SURFTYPE
 70
     6
  9
$SURFU
 70
     6
  9
$SURFV
 70
     6
  9
$UCSBASE
  2

  9
$UCSNAME
  2

  9
$UCSORG
 10
0.0
 20
0.0
 30
0.0
  9
$UCSXDIR
 10
1.0
 20
0.0
 30
0.0
  9
$UCSYDIR
 10
0.0
 20
1.0
 30
0.0
  9
$UCSORTHOREF
  2

  9
$UCSORTHOVIEW
 70
     0
  9
$UCSORGTOP
 10
0.0
 20
0.0
 30
0.0
  9
$UCSORGBOTTOM
 10
0.0
 20
0.0
 30
0.0
  9
$UCSORGLEFT
 10
0.0
 20
0.0
 30
0.0
  9
$UCSORGRIGHT
 10
0.0
 20
0.0
 30
0.0
  9
$UCSORGFRONT
 10
0.0
 20
0.0
 30
0.0
  9
$UCSORGBACK
 10
0.0
 20
0.0
 30
0.0
  9
$PUCSBASE
  2

  9
$PUCSNAME
  2

  9
$PUCSORG
 10
0.0
 20
0.0
 30
0.0
  9
$PUCSXDIR
 10
1.0
 20
0.0
 30
0.0
  9
$PUCSYDIR
 10
0.0
 20
1.0
 30
0.0
  9
$PUCSORTHOREF
  2

  9
$PUCSORTHOVIEW
 70
     0
  9
$PUCSORGTOP
 10
0.0
 20
0.0
 30
0.0
  9
$PUCSORGBOTTOM
 10
0.0
 20
0.0
 30
0.0
  9
$PUCSORGLEFT
 10
0.0
 20
0.0
 30
0.0
  9
$PUCSORGRIGHT
 10
0.0
 20
0.0
 30
0.0
  9
$PUCSORGFRONT
 10
0.0
 20
0.0
 30
0.0
  9
$PUCSORGBACK
 10
0.0
 20
0.0
 30
0.0
  9
$USERI1
 70
     0
  9
$USERI2
 70
     0
  9
$USERI3
 70
     0
  9
$USERI4
 70
     0
  9
$USERI5
 70
     0
  9
$USERR1
 40
0.0
  9
$USERR2
 40
0.0
  9
$USERR3
 40
0.0
  9
$USERR4
 40
0.0
  9
$USERR5
 40
0.0
  9
$WORLDVIEW
 70
     1
  9
$SHADEDGE
 70
     3
  9
$SHADEDIF
 70
    70
  9
$TILEMODE
 70
     1
  9
$MAXACTVP
 70
    16
  9
$PINSBASE
 10
0.0
 20
0.0
 30
0.0
  9
$PLIMCHECK
 70
     0
  9
$PEXTMIN
 10
1.000000000000000E+20
 20
1.000000000000000E+20
 30
1.000000000000000E+20
  9
$PEXTMAX
 10
-1.000000000000000E+20
 20
-1.000000000000000E+20
 30
-1.000000000000000E+20
  9
$PLIMMIN
 10
0.0
 20
0.0
  9
$PLIMMAX
 10
12.0
 20
9.0
  9
$UNITMODE
 70
     0
  9
$VISRETAIN
 70
     0
  9
$PLINEGEN
 70
     1
  9
$PSLTSCALE
 70
     1
  9
$TREEDEPTH
 70
  3020
  9
$CMLSTYLE
  2
STANDARD
  9
$CMLJUST
 70
     0
  9
$CMLSCALE
 40
1.0
  9
$PROXYGRAPHICS
 70
     1
  9
$MEASUREMENT
 70
     0
  9
$CELWEIGHT
370
    -1
  9
$ENDCAPS
280
     0
  9
$JOINSTYLE
280
     0
  9
$LWDISPLAY
290
     0
  9
$INSUNITS
 70
     0
  9
$HYPERLINKBASE
  1

  9
$STYLESHEET
  1

  9
$XEDIT
290
     1
  9
$CEPSNTYPE
380
     0
  9
$PSTYLEMODE
290
     1
  9
$FINGERPRINTGUID
  2
{B950320D-22D0-4A53-B272-ED897EB7C21A}
  9
$VERSIONGUID
  2
{FAEB1C32-E019-11D5-929B-00C0DF256EC4}
  9
$EXTNAMES
290
     1
  9
$PSVPSCALE
 40
0.0
  9
$OLESTARTUP
290
     0
  0
ENDSEC
  0
SECTION
  2
CLASSES
  0
CLASS
  1
LWPOLYLINE
  2
AcDbPolyline
  3
ObjectDBX Classes
 90
        0
280
     0
281
     1
  0
CLASS
  1
IMAGE
  2
AcDbRasterImage
  3
ISM
 90
      127
280
     0
281
     1
  0
CLASS
  1
OLE2FRAME
  2
AcDbOle2Frame
  3
ObjectDBX Classes
 90
        0
280
     0
281
     1
  0
CLASS
  1
HATCH
  2
AcDbHatch
  3
ObjectDBX Classes
 90
        0
280
     0
281
     1
  0
CLASS
  1
DICTIONARYVAR
  2
AcDbDictionaryVar
  3
ObjectDBX Classes
 90
        0
280
     0
281
     0
  0
CLASS
  1
RASTERVARIABLES
  2
AcDbRasterVariables
  3
ISM
 90
        0
280
     0
281
     0
  0
CLASS
  1
IMAGEDEF
  2
AcDbRasterImageDef
  3
ISM
 90
        0
280
     0
281
     0
  0
CLASS
  1
IMAGEDEF_REACTOR
  2
AcDbRasterImageDefReactor
  3
ISM
 90
        1
280
     0
281
     0
  0
CLASS
  1
IDBUFFER
  2
AcDbIdBuffer
  3
ObjectDBX Classes
 90
        0
280
     0
281
     0
  0
CLASS
  1
SPATIAL_FILTER
  2
AcDbSpatialFilter
  3
ObjectDBX Classes
 90
        0
280
     0
281
     0
  0
CLASS
  1
XRECORD
  2
AcDbXrecord
  3
ObjectDBX Classes
 90
        0
280
     0
281
     0
  0
CLASS
  1
SORTENTSTABLE
  2
AcDbSortentsTable
  3
ObjectDBX Classes
 90
        0
280
     0
281
     0
  0
CLASS
  1
LAYER_INDEX
  2
AcDbLayerIndex
  3
ObjectDBX Classes
 90
        0
280
     0
281
     0
  0
CLASS
  1
SPATIAL_INDEX
  2
AcDbSpatialIndex
  3
AutoCAD 2000
 90
        0
280
     0
281
     0
  0
CLASS
  1
OBJECT_PTR
  2
CAseDLPNTableRecord
  3
ASE-LPNTableRecord
 90
        1
280
     0
281
     0
  0
CLASS
  1
LAYOUT
  2
AcDbLayout
  3
ObjectDBX Classes
 90
        0
280
     0
281
     0
  0
CLASS
  1
PLOTSETTINGS
  2
AcDbPlotSettings
  3
ObjectDBX Classes
 90
        0
280
     0
281
     0
  0
CLASS
  1
ACDBDICTIONARYWDFLT
  2
AcDbDictionaryWithDefault
  3
ObjectDBX Classes
 90
        0
280
     0
281
     0
  0
CLASS
  1
ACDBPLACEHOLDER
  2
AcDbPlaceHolder
  3
ObjectDBX Classes
 90
        0
280
     0
281
     0
  0
CLASS
  1
VBA_PROJECT
  2
AcDbVbaProject
  3
ObjectDBX Classes
 90
        0
280
     0
281
     0
  0
CLASS
  1
WIPEOUT
  2
AcDbWipeout
  3
WipeOut|AutoCAD Express Tool|expresstools@autodesk.com
 90
      127
280
     0
281
     1
  0
CLASS
  1
WIPEOUTVARIABLES
  2
AcDbWipeoutVariables
  3
WipeOut|AutoCAD Express Tool|expresstools@autodesk.com
 90
        0
280
     0
281
     0
  0
CLASS
  1
RTEXT
  2
RText
  3
RText|AutoCAD Express Tool|expresstools@autodesk.com
 90
        0
280
     0
281
     1
  0
CLASS
  1
ARCALIGNEDTEXT
  2
AcDbArcAlignedText
  3
ATEXT|AutoCAD Express Tool|expresstools@autodesk.com
 90
        0
280
     0
281
     1
  0
CLASS
  1
SCALE
  2
AcDbScale
  3
ObjectDBX Classes
 90
     1153
280
     0
281
     0
  0
CLASS
  1
VISUALSTYLE
  2
AcDbVisualStyle
  3
ObjectDBX Classes
 90
     4095
280
     0
281
     0
  0
CLASS
  1
MATERIAL
  2
AcDbMaterial
  3
ObjectDBX Classes
 90
     1153
280
     0
281
     0
  0
ENDSEC
  0
SECTION
  2
TABLES
  0
TABLE
  2
VPORT
  5
7
102
{ACAD_XDICTIONARY
360
442
102
}
330
0
100
AcDbSymbolTable
 70
     1
  0
VPORT
  5
15
330
7
100
AcDbSymbolTableRecord
100
AcDbViewportTableRecord
  2
*ACTIVE
 70
     0
 10
0.0
 20
0.0
 11
1.0
 21
1.0
 12
105.0
 22
148.5
 13
0.0
 23
0.0
 14
1.0
 24
1.0
 15
0.0
 25
0.0
 16
0.0
 26
0.0
 36
1.0
 17
0.0
 27
0.0
 37
0.0
 40
297.0
 41
1.4142857143
 42
50.0
 43
0.0
 44
0.0
 50
0.0
 51
0.0
 71
     0
 72
  2000
 73
     1
 74
     1
 75
     0
 76
     0
 77
     0
 78
     0
281
     0
 65
     1
110
0.0
120
0.0
130
0.0
111
1.0
121
0.0
131
0.0
112
0.0
122
1.0
132
0.0
 79
     0
146
0.0
  0
ENDTAB
  0
TABLE
  2
LTYPE
  5
4
330
0
100
AcDbSymbolTable
 70
     6
  0
LTYPE
  5
11
330
4
100
AcDbSymbolTableRecord
100
AcDbLinetypeTableRecord
  2
BYBLOCK
 70
     0
  3

 72
    65
 73
     0
 40
0.0
  0
LTYPE
  5
12
330
4
100
AcDbSymbolTableRecord
100
AcDbLinetypeTableRecord
  2
BYLAYER
 70
     0
  3

 72
    65
 73
     0
 40
0.0
  0
LTYPE
  5
13
330
4
100
AcDbSymbolTableRecord
100
AcDbLinetypeTableRecord
  2
CONTINUOUS
 70
     0
  3
Solid line
 72
    65
 73
     0
 40
0.0
  0
LTYPE
  5
1D
330
4
100
AcDbSymbolTableRecord
100
AcDbLinetypeTableRecord
  2
HIDDEN
 70
     0
  3
Hidden __ __ __ __ __ __ __ __ __ __ __ __ __ __
 72
    65
 73
     2
 40
1.905
 49
1.27
 74
     0
 49
-0.635
 74
     0
  0
LTYPE
  5
1E
330
4
100
AcDbSymbolTableRecord
100
AcDbLinetypeTableRecord
  2
PHANTOM
 70
     0
  3
Phantom ______  __  __  ______  __  __  ______
 72
    65
 73
     6
 40
12.7
 49
6.35
 74
     0
 49
-1.27
 74
     0
 49
1.27
 74
     0
 49
-1.27
 74
     0
 49
1.27
 74
     0
 49
-1.27
 74
     0
  0
LTYPE
  5
1F
330
4
100
AcDbSymbolTableRecord
100
AcDbLinetypeTableRecord
  2
CENTER
 70
     0
  3
Center ____ _ ____ _ ____ _ ____ _ ____ _ ____
 72
    65
 73
     4
 40
10.16
 49
6.35
 74
     0
 49
-1.27
 74
     0
 49
1.27
 74
     0
 49
-1.27
 74
     0
  0
LTYPE
  5
20
330
4
100
AcDbSymbolTableRecord
100
AcDbLinetypeTableRecord
  2
CENTERX2
 70
     0
  3
Center (2x) ________  __  ________  __  _____
 72
    65
 73
     4
 40
20.32
 49
12.7
 74
     0
 49
-2.54
 74
     0
 49
2.54
 74
     0
 49
-2.54
 74
     0
  0
LTYPE
  5
21
330
4
100
AcDbSymbolTableRecord
100
AcDbLinetypeTableRecord
  2
DOT2
 70
     0
  3
Dot (.5x) ........................................
 72
    65
 73
     2
 40
0.635
 49
0.0
 74
     0
 49
-0.635
 74
     0
  0
LTYPE
  5
46C
330
5
100
AcDbSymbolTableRecord
100
AcDbLinetypeTableRecord
  2
DASH
 70
     0
  3
DASH _ _ _ _ _
 72
    65
 73
     2
 40
0.75
 49
0.40
 74
     0
 49
-0.35
 74
     0
  0
LTYPE
  5
46D
330
5
100
AcDbSymbolTableRecord
100
AcDbLinetypeTableRecord
  2
LONGDASH_DASH
 70
     0
  3
LONGDASH_DASH __ . __ . __
 72
    65
 73
     4
 40
0.85
 49
0.40
 74
     0
 49
-0.20
 74
     0
 49
0.05
 74
     0
 49
-0.20
 74
     0
  0
LTYPE
  5
46E
330
5
100
AcDbSymbolTableRecord
100
AcDbLinetypeTableRecord
  2
LONGDASH_DASH_DASH
 70
     0
  3
LONGDASH_DASH_DASH __ . . __ . . __
 72
    65
 73
     6
 40
1.10
 49
0.40
 74
     0
 49
-0.20
 74
     0
 49
0.05
 74
     0
 49
-0.20
 74
     0
 49
0.05
 74
     0
 49
-0.20
 74
     0
  0
ENDTAB
  0
TABLE
  2
LAYER
  5
2
330
0
100
AcDbSymbolTable
 70
     8
  0
LAYER
  5
23
330
2
100
AcDbSymbolTableRecord
100
AcDbLayerTableRecord
  2
DEFPOINTS
 70
     0
 62
     7
  6
CONTINUOUS
290
     0
370
    -3
390
0
  0
LAYER
  5
46F
330
2
100
AcDbSymbolTableRecord
100
AcDbLayerTableRecord
  2
0
 70
     0
 62
     -1
  6
CONTINUOUS
370
    -3
390
F
  0
LAYER
  5
470
330
2
100
AcDbSymbolTableRecord
100
AcDbLayerTableRecord
  2
1
 70
     0
 62
     4
  6
CONTINUOUS
370
    50
390
F
  0
LAYER
  5
471
330
2
100
AcDbSymbolTableRecord
100
AcDbLayerTableRecord
  2
2
 70
     0
 62
     7
  6
CONTINUOUS
370
    25
390
F
  0
LAYER
  5
472
330
2
100
AcDbSymbolTableRecord
100
AcDbLayerTableRecord
  2
3
 70
     0
 62
     1
  6
DASH
370
    35
390
F
  0
LAYER
  5
473
330
2
100
AcDbSymbolTableRecord
100
AcDbLayerTableRecord
  2
4
 70
     0
 62
     2
  6
LONGDASH_DASH
370
    25
390
F
  0
LAYER
  5
474
330
2
100
AcDbSymbolTableRecord
100
AcDbLayerTableRecord
  2
6
 70
     0
 62
     5
  6
CONTINUOUS
370
    -3
390
F
  0
LAYER
  5
475
330
2
100
AcDbSymbolTableRecord
100
AcDbLayerTableRecord
  2
CUT
 70
     0
 62
     1
  6
CONTINUOUS
370
    25
390
F
  0
LAYER
  5
476
330
2
100
AcDbSymbolTableRecord
100
AcDbLayerTableRecord
  2
NOCUT
 70
     0
 62
     7
  6
CONTINUOUS
370
    25
390
F
  0
LAYER
  5
477
330
2
100
AcDbSymbolTableRecord
100
AcDbLayerTableRecord
  2
SK1
 70
     0
 62
     4
  6
CONTINUOUS
370
    50
390
F
  0
LAYER
  5
478
330
2
100
AcDbSymbolTableRecord
100
AcDbLayerTableRecord
  2
SK2
 70
     0
 62
     7
  6
CONTINUOUS
370
    25
390
F
  0
LAYER
  5
479
330
2
100
AcDbSymbolTableRecord
100
AcDbLayerTableRecord
  2
SK3
 70
     0
 62
     1
  6
DASH
370
    35
390
F
  0
LAYER
  5
47A
330
2
100
AcDbSymbolTableRecord
100
AcDbLayerTableRecord
  2
SK4
 70
     0
 62
     2
  6
LONGDASH_DASH
370
    25
390
F
  0
LAYER
  5
47B
330
2
100
AcDbSymbolTableRecord
100
AcDbLayerTableRecord
  2
SK6
 70
     0
 62
     5
  6
CONTINUOUS
370
    -3
390
F
  0
LAYER
  5
47C
330
2
100
AcDbSymbolTableRecord
100
AcDbLayerTableRecord
  2
INFTOTAL
 70
     0
 62
     9
  6
CONTINUOUS
370
    18
390
F
  0
ENDTAB
  0
TABLE
  2
STYLE
  5
3
330
0
100
AcDbSymbolTable
 70
     2
  0
STYLE
  5
17
330
3
100
AcDbSymbolTableRecord
100
AcDbTextStyleTableRecord
  2
STANDARD
 70
     0
 40
0.0
 41
1.0
 50
0.0
 71
     0
 42
0.2
  3
txt
  4

  0
STYLE
  5
43A
330
3
100
AcDbSymbolTableRecord
100
AcDbTextStyleTableRecord
  2
BMG_Text
 70
     0
 40
3.5
 41
1.0
 50
0.0
 71
     0
 42
0.0
  3
monos.ttf
  4

1001
ACAD
1000
Monospac821 BT
1071
       49
  0
ENDTAB
  0
TABLE
  2
VIEW
  5
5
330
0
100
AcDbSymbolTable
 70
     0
  0
ENDTAB
  0
TABLE
  2
UCS
  5
6
330
0
100
AcDbSymbolTable
 70
     0
  0
ENDTAB
  0
TABLE
  2
APPID
  5
8
330
0
100
AcDbSymbolTable
 70
     1
  0
APPID
  5
16
330
8
100
AcDbSymbolTableRecord
100
AcDbRegAppTableRecord
  2
ACAD
 70
     0
  0
ENDTAB
  0
TABLE
  2
DIMSTYLE
  5
9
330
0
100
AcDbSymbolTable
 70
     1
100
AcDbDimStyleTable
  0
DIMSTYLE
105
18
330
9
100
AcDbSymbolTableRecord
100
AcDbDimStyleTableRecord
  2
STANDARD
 70
     0
178
     0
340
17
  0
ENDTAB
  0
TABLE
  2
BLOCK_RECORD
  5
1
330
0
100
AcDbSymbolTable
 70
     0
  0
BLOCK_RECORD
  5
A
330
1
100
AcDbSymbolTableRecord
100
AcDbBlockTableRecord
  2
*MODEL_SPACE
340
423
  0
BLOCK_RECORD
  5
B
330
1
100
AcDbSymbolTableRecord
100
AcDbBlockTableRecord
  2
*PAPER_SPACE
340
424
  0
ENDTAB
  0
ENDSEC
  0
SECTION
  2
BLOCKS
  0
BLOCK
  5
D
330
A
100
AcDbEntity
  8
0
100
AcDbBlockBegin
  2
*MODEL_SPACE
 70
     0
 10
0.0
 20
0.0
 30
0.0
  3
*MODEL_SPACE
  1

  0
ENDBLK
  5
E
330
A
100
AcDbEntity
  8
0
100
AcDbBlockEnd
  0
BLOCK
  5
F
330
B
100
AcDbEntity
 67
     1
  8
0
100
AcDbBlockBegin
  2
*PAPER_SPACE
 70
     0
 10
0.0
 20
0.0
 30
0.0
  3
*PAPER_SPACE
  1

  0
ENDBLK
  5
10
330
B
100
AcDbEntity
 67
     1
  8
0
100
AcDbBlockEnd
  0
ENDSEC
  0
SECTION
  2
ENTITIES
  0
ARC
  5
29
330
A
100
AcDbEntity
  8
1
  6
CONTINUOUS
370
    50
100
AcDbCircle
 10
87.5353686598
 20
144.0202105057
 30
0.0
 40
0.5
100
AcDbArc
 50
66.4218215218
 51
90.0
  0
ARC
  5
2A
330
A
100
AcDbEntity
  8
1
  6
CONTINUOUS
370
    50
100
AcDbCircle
 10
87.5353686598
 20
188.8702105057
 30
0.0
 40
0.5
100
AcDbArc
 50
270.0
 51
293.5781784782001
  0
LINE
  5
2B
330
A
100
AcDbEntity
  8
1
  6
CONTINUOUS
370
    50
100
AcDbLine
 10
86.7353686598
 20
188.6702105057
 30
0.0
 11
19.2678900184
 21
178.8312032037
 31
0.0
  0
LINE
  5
2C
330
A
100
AcDbEntity
  8
1
  6
CONTINUOUS
370
    50
100
AcDbLine
 10
19.2678900184
 20
154.0592178078
 30
0.0
 11
86.7353686598
 21
144.2202105057
 31
0.0
  0
LINE
  5
2D
330
A
100
AcDbEntity
  8
1
  6
CONTINUOUS
370
    50
100
AcDbLine
 10
86.7353686598
 20
144.2202105057
 30
0.0
 11
87.2782589364
 21
144.4733643992
 31
0.0
  0
LINE
  5
2E
330
A
100
AcDbEntity
  8
1
  6
CONTINUOUS
370
    50
100
AcDbLine
 10
87.2782589364
 20
188.4170566122
 30
0.0
 11
86.7353686598
 21
188.6702105057
 31
0.0
  0
ARC
  5
2F
330
A
100
AcDbEntity
  8
1
  6
CONTINUOUS
370
    50
100
AcDbCircle
 10
87.4895680673
 20
144.0202105057
 30
0.0
 40
0.5
100
AcDbArc
 50
90.0
 51
115.0
  0
ARC
  5
30
330
A
100
AcDbEntity
  8
1
  6
CONTINUOUS
370
    50
100
AcDbCircle
 10
87.4895680673
 20
188.8702105057
 30
0.0
 40
0.5
100
AcDbArc
 50
245.0
 51
270.0
  0
ARC
  5
31
330
A
100
AcDbEntity
  8
1
  6
CONTINUOUS
370
    50
100
AcDbCircle
 10
110.7853686598
 20
145.4952105057
 30
0.0
 40
5.0
100
AcDbArc
 50
81.890385544
 51
180.0
  0
ARC
  5
32
330
A
100
AcDbEntity
  8
1
  6
CONTINUOUS
370
    50
100
AcDbCircle
 10
110.7853686598
 20
187.3952105057
 30
0.0
 40
5.0
100
AcDbArc
 50
180.0
 51
278.109614456
  0
LINE
  5
33
330
A
100
AcDbEntity
  8
1
  6
CONTINUOUS
370
    50
100
AcDbLine
 10
111.4907054588
 20
150.4452105057
 30
0.0
 11
115.9105497151
 21
150.4452105057
 31
0.0
  0
LINE
  5
34
330
A
100
AcDbEntity
  8
1
  6
CONTINUOUS
370
    50
100
AcDbLine
 10
115.9105497151
 20
182.4452105057
 30
0.0
 11
111.4907054588
 21
182.4452105057
 31
0.0
  0
LINE
  5
35
330
A
100
AcDbEntity
  8
1
  6
CONTINUOUS
370
    50
100
AcDbLine
 10
115.9105497151
 20
150.4452105057
 30
0.0
 11
165.7022405558
 21
154.3639015606
 31
0.0
  0
LINE
  5
36
330
A
100
AcDbEntity
  8
1
  6
CONTINUOUS
370
    50
100
AcDbLine
 10
165.7022405558
 20
178.5265194509
 30
0.0
 11
115.9105497151
 21
182.4452105057
 31
0.0
  0
ARC
  5
37
330
A
100
AcDbEntity
  8
1
  6
CONTINUOUS
370
    50
100
AcDbCircle
 10
19.4353686598
 20
154.9948426887
 30
0.0
 40
0.95
100
AcDbArc
 50
180.0
 51
258.0
  0
ARC
  5
38
330
A
100
AcDbEntity
  8
1
  6
CONTINUOUS
370
    50
100
AcDbCircle
 10
19.4353686598
 20
177.8955783227
 30
0.0
 40
0.95
100
AcDbArc
 50
102.0
 51
180.0
  0
ARC
  5
39
330
A
100
AcDbEntity
  8
1
  6
CONTINUOUS
370
    50
100
AcDbCircle
 10
164.7353686598
 20
156.1146610348
 30
0.0
 40
2.0
100
AcDbArc
 50
298.9100507074
 51
0.0
  0
ARC
  5
3A
330
A
100
AcDbEntity
  8
1
  6
CONTINUOUS
370
    50
100
AcDbCircle
 10
164.7353686598
 20
176.7757599766
 30
0.0
 40
2.0
100
AcDbArc
 50
0.0
 51
61.0899492926
  0
LINE
  5
3B
330
A
100
AcDbEntity
  8
1
  6
CONTINUOUS
370
    50
100
AcDbLine
 10
101.3572053019
 20
135.9681289533
 30
0.0
 11
101.3572053019
 21
184.7952105057
 31
0.0
  0
LINE
  5
3C
330
A
100
AcDbEntity
  8
1
  6
CONTINUOUS
370
    50
100
AcDbLine
 10
105.2853686598
 20
184.7952105057
 30
0.0
 11
101.3572053019
 21
184.7952105057
 31
0.0
  0
LINE
  5
3D
330
A
100
AcDbEntity
  8
1
  6
CONTINUOUS
370
    50
100
AcDbLine
 10
105.2853686598
 20
135.9681289533
 30
0.0
 11
105.2853686598
 21
184.7952105057
 31
0.0
  0
LINE
  5
3E
330
A
100
AcDbEntity
  8
1
  6
CONTINUOUS
370
    50
100
AcDbLine
 10
105.2853686598
 20
135.9681289533
 30
0.0
 11
101.3572053019
 21
135.9681289533
 31
0.0
  0
LINE
  5
3F
330
A
100
AcDbEntity
  8
1
  6
CONTINUOUS
370
    50
100
AcDbLine
 10
101.3572053019
 20
135.9681289533
 30
0.0
 11
100.7517064766
 21
136.8181289557
 31
0.0
  0
LWPOLYLINE
  5
40
330
A
100
AcDbEntity
  8
1
  6
CONTINUOUS
370
    50
100
AcDbPolyline
 90
        3
 70
   128
 43
0.0
 10
99.7603686598
 20
138.6013382467
 10
100.3395340516
 20
137.5585671981
 10
100.7517064766
 20
136.8181289557
  0
LINE
  5
45
330
A
100
AcDbEntity
  8
1
  6
CONTINUOUS
370
    50
100
AcDbLine
 10
99.7603686598
 20
184.7952105057
 30
0.0
 11
99.7603686598
 21
138.6013382467
 31
0.0
  0
LINE
  5
46
330
A
100
AcDbEntity
  8
1
  6
CONTINUOUS
370
    50
100
AcDbLine
 10
101.3572053019
 20
184.7952105057
 30
0.0
 11
99.7603686598
 21
184.7952105057
 31
0.0
  0
LINE
  5
47
330
A
100
AcDbEntity
  8
1
  6
CONTINUOUS
370
    50
100
AcDbLine
 10
105.7853686598
 20
184.7952105057
 30
0.0
 11
105.7853686598
 21
136.3722553516
 31
0.0
  0
LINE
  5
48
330
A
100
AcDbEntity
  8
1
  6
CONTINUOUS
370
    50
100
AcDbLine
 10
105.7853686598
 20
136.3722553516
 30
0.0
 11
105.2853686598
 21
135.9681289533
 31
0.0
  0
LINE
  5
49
330
A
100
AcDbEntity
  8
1
  6
CONTINUOUS
370
    50
100
AcDbLine
 10
105.2853686598
 20
184.7952105057
 30
0.0
 11
105.7853686598
 21
184.7952105057
 31
0.0
  0
LINE
  5
4A
330
A
100
AcDbEntity
  8
1
  6
CONTINUOUS
370
    50
100
AcDbLine
 10
94.3135320177
 20
135.9681289533
 30
0.0
 11
94.3135320177
 21
184.7952105057
 31
0.0
  0
LINE
  5
4B
330
A
100
AcDbEntity
  8
1
  6
CONTINUOUS
370
    50
100
AcDbLine
 10
94.3135320177
 20
135.9681289533
 30
0.0
 11
89.5853686573
 21
135.9681289533
 31
0.0
  0
LWPOLYLINE
  5
4C
330
A
100
AcDbEntity
  8
1
  6
CONTINUOUS
370
    50
100
AcDbPolyline
 90
        3
 70
   128
 43
0.0
 10
88.2353686598
 20
136.3952521031
 10
88.9079873074
 20
136.1741638368
 10
89.5853686573
 20
135.9681289533
  0
LINE
  5
51
330
A
100
AcDbEntity
  8
1
  6
CONTINUOUS
370
    50
100
AcDbLine
 10
88.2353686598
 20
184.7952105057
 30
0.0
 11
88.2353686598
 21
136.3952521031
 31
0.0
  0
LINE
  5
52
330
A
100
AcDbEntity
  8
1
  6
CONTINUOUS
370
    50
100
AcDbLine
 10
94.3135320177
 20
184.7952105057
 30
0.0
 11
88.2353686598
 21
184.7952105057
 31
0.0
  0
LINE
  5
53
330
A
100
AcDbEntity
  8
1
  6
CONTINUOUS
370
    50
100
AcDbLine
 10
94.919030843
 20
136.8181289557
 30
0.0
 11
94.3135320177
 21
135.9681289533
 31
0.0
  0
LINE
  5
54
330
A
100
AcDbEntity
  8
1
  6
CONTINUOUS
370
    50
100
AcDbLine
 10
95.9103686598
 20
184.7952105057
 30
0.0
 11
94.3135320177
 21
184.7952105057
 31
0.0
  0
LINE
  5
55
330
A
100
AcDbEntity
  8
1
  6
CONTINUOUS
370
    50
100
AcDbLine
 10
95.9103686598
 20
138.6013382467
 30
0.0
 11
95.9103686598
 21
184.7952105057
 31
0.0
  0
LWPOLYLINE
  5
56
330
A
100
AcDbEntity
  8
1
  6
CONTINUOUS
370
    50
100
AcDbPolyline
 90
        3
 70
   128
 43
0.0
 10
94.919030843
 20
136.8181289557
 10
95.331203268
 20
137.5585671981
 10
95.9103686598
 20
138.6013382467
  0
LINE
  5
5B
330
A
100
AcDbEntity
  8
1
  6
CONTINUOUS
370
    50
100
AcDbLine
 10
88.2353686598
 20
136.3952521031
 30
0.0
 11
87.7353686598
 21
137.1024090035
 31
0.0
  0
LINE
  5
5C
330
A
100
AcDbEntity
  8
1
  6
CONTINUOUS
370
    50
100
AcDbLine
 10
87.7353686598
 20
137.1024090035
 30
0.0
 11
87.7353686598
 21
184.7952105057
 31
0.0
  0
LINE
  5
5D
330
A
100
AcDbEntity
  8
1
  6
CONTINUOUS
370
    50
100
AcDbLine
 10
87.7353686598
 20
184.7952105057
 30
0.0
 11
88.2353686598
 21
184.7952105057
 31
0.0
  0
ARC
  5
5E
330
A
100
AcDbEntity
  8
1
  6
CONTINUOUS
370
    50
100
AcDbCircle
 10
96.4217645986
 20
139.1159808346
 30
0.0
 40
0.5114987785
100
AcDbArc
 50
91.27662714150001
 51
181.1489553381
  0
LINE
  5
5F
330
A
100
AcDbEntity
  8
1
  6
CONTINUOUS
370
    50
100
AcDbLine
 10
95.9103686598
 20
184.7952105057
 30
0.0
 11
96.4103686598
 21
184.7952105057
 31
0.0
  0
LINE
  5
60
330
A
100
AcDbEntity
  8
1
  6
CONTINUOUS
370
    50
100
AcDbLine
 10
96.4103686598
 20
184.7952105057
 30
0.0
 11
96.4103686598
 21
139.6273526494
 31
0.0
  0
ARC
  5
61
330
A
100
AcDbEntity
  8
1
  6
CONTINUOUS
370
    50
100
AcDbCircle
 10
99.2506661693
 20
139.1176040676
 30
0.0
 40
0.5098409115
100
AcDbArc
 50
358.6648465179001
 51
88.90957100250002
  0
LINE
  5
62
330
A
100
AcDbEntity
  8
1
  6
CONTINUOUS
370
    50
100
AcDbLine
 10
99.2603686598
 20
184.7952105057
 30
0.0
 11
99.2603686598
 21
139.6273526494
 31
0.0
  0
LINE
  5
63
330
A
100
AcDbEntity
  8
1
  6
CONTINUOUS
370
    50
100
AcDbLine
 10
99.2603686598
 20
184.7952105057
 30
0.0
 11
99.7603686598
 21
184.7952105057
 31
0.0
  0
LINE
  5
64
330
A
100
AcDbEntity
  8
1
  6
CONTINUOUS
370
    50
100
AcDbLine
 10
99.2603686598
 20
139.6273526494
 30
0.0
 11
96.4103686598
 21
139.6273526494
 31
0.0
  0
LINE
  5
65
330
A
100
AcDbEntity
  8
1
  6
CONTINUOUS
370
    50
100
AcDbLine
 10
96.4103686598
 20
184.7952105057
 30
0.0
 11
99.2603686598
 21
184.7952105057
 31
0.0
  0
LINE
  5
66
330
A
100
AcDbEntity
  8
1
  6
CONTINUOUS
370
    50
100
AcDbLine
 10
19.2678900184
 20
178.8312032037
 30
0.0
 11
19.2678900184
 21
154.0592178078
 31
0.0
  0
LINE
  5
67
330
A
100
AcDbEntity
  8
1
  6
CONTINUOUS
370
    50
100
AcDbLine
 10
86.7353686598
 20
144.2202105057
 30
0.0
 11
86.7353686598
 21
188.6702105057
 31
0.0
  0
LINE
  5
68
330
A
100
AcDbEntity
  8
1
  6
CONTINUOUS
370
    50
100
AcDbLine
 10
111.4907054588
 20
150.4452105057
 30
0.0
 11
111.4907054588
 21
182.4452105057
 31
0.0
  0
LINE
  5
69
330
A
100
AcDbEntity
  8
1
  6
CONTINUOUS
370
    50
100
AcDbLine
 10
88.2353686598
 20
192.3554401458
 30
0.0
 11
87.7353686598
 21
191.7402693117
 31
0.0
  0
LINE
  5
6A
330
A
100
AcDbEntity
  8
1
  6
CONTINUOUS
370
    50
100
AcDbLine
 10
88.2353686598
 20
192.3554401458
 30
0.0
 11
94.3135320177
 21
192.3554401458
 31
0.0
  0
LINE
  5
6B
330
A
100
AcDbEntity
  8
1
  6
CONTINUOUS
370
    50
100
AcDbLine
 10
94.3135320177
 20
192.3554401458
 30
0.0
 11
95.9103686598
 21
188.8809236073
 31
0.0
  0
LINE
  5
6C
330
A
100
AcDbEntity
  8
1
  6
CONTINUOUS
370
    50
100
AcDbLine
 10
95.9103686598
 20
188.2518035454
 30
0.0
 11
95.9103686598
 21
188.8809236073
 31
0.0
  0
ARC
  5
6D
330
A
100
AcDbEntity
  8
1
  6
CONTINUOUS
370
    50
100
AcDbCircle
 10
96.4840889706
 20
188.169091509
 30
0.0
 40
0.5796518576
100
AcDbArc
 50
171.7963139132
 51
262.6933157898
  0
LINE
  5
6E
330
A
100
AcDbEntity
  8
1
  6
CONTINUOUS
370
    50
100
AcDbLine
 10
99.2603686598
 20
187.5941466492
 30
0.0
 11
96.4103686598
 21
187.5941466492
 31
0.0
  0
LWPOLYLINE
  5
6F
330
A
100
AcDbEntity
  8
1
  6
CONTINUOUS
370
    50
100
AcDbPolyline
 90
        7
 70
   128
 43
0.0
 10
99.7603686598
 20
188.2518035454
 10
99.7158601315
 20
187.9815837542
 10
99.610975376
 20
187.7838013581
 10
99.4890677569
 20
187.6673977146
 10
99.4180642437
 20
187.6279209544
 10
99.2915859848
 20
187.5954381035
 10
99.2603686598
 20
187.5941466492
  0
LINE
  5
78
330
A
100
AcDbEntity
  8
1
  6
CONTINUOUS
370
    50
100
AcDbLine
 10
99.7603686598
 20
188.8809236073
 30
0.0
 11
99.7603686598
 21
188.2518035454
 31
0.0
  0
LINE
  5
79
330
A
100
AcDbEntity
  8
1
  6
CONTINUOUS
370
    50
100
AcDbLine
 10
99.7603686598
 20
188.8809236073
 30
0.0
 11
101.3572053019
 21
192.3554401458
 31
0.0
  0
LINE
  5
7A
330
A
100
AcDbEntity
  8
1
  6
CONTINUOUS
370
    50
100
AcDbLine
 10
101.3572053019
 20
192.3554401458
 30
0.0
 11
105.2853686598
 21
192.3554401458
 31
0.0
  0
LINE
  5
7B
330
A
100
AcDbEntity
  8
1
  6
CONTINUOUS
370
    50
100
AcDbLine
 10
105.7853686598
 20
191.7402693117
 30
0.0
 11
105.2853686598
 21
192.3554401458
 31
0.0
  0
LINE
  5
7C
330
A
100
AcDbEntity
  8
1
  6
CONTINUOUS
370
    50
100
AcDbLine
 10
87.7353686598
 20
191.7402693117
 30
0.0
 11
87.7353686598
 21
184.7952105057
 31
0.0
  0
LINE
  5
7D
330
A
100
AcDbEntity
  8
1
  6
CONTINUOUS
370
    50
100
AcDbLine
 10
105.7853686598
 20
191.7402693117
 30
0.0
 11
105.7853686598
 21
184.7952105057
 31
0.0
  0
LINE
  5
7E
330
A
100
AcDbEntity
  8
1
  6
CONTINUOUS
370
    50
100
AcDbLine
 10
96.4103686598
 20
193.263068362
 30
0.0
 11
96.4103686598
 21
187.5941466492
 31
0.0
  0
ARC
  5
7F
330
A
100
AcDbEntity
  8
1
  6
CONTINUOUS
370
    50
100
AcDbCircle
 10
96.4226623135
 20
193.7753006699
 30
0.0
 40
0.5123798114
100
AcDbArc
 50
178.9492610515
 51
268.625156469
  0
LINE
  5
80
330
A
100
AcDbEntity
  8
1
  6
CONTINUOUS
370
    50
100
AcDbLine
 10
99.2603686598
 20
193.263068362
 30
0.0
 11
99.2603686598
 21
187.5941466492
 31
0.0
  0
LINE
  5
81
330
A
100
AcDbEntity
  8
1
  6
CONTINUOUS
370
    50
100
AcDbLine
 10
99.2603686598
 20
193.263068362
 30
0.0
 11
96.4103686598
 21
193.263068362
 31
0.0
  0
ARC
  5
82
330
A
100
AcDbEntity
  8
1
  6
CONTINUOUS
370
    50
100
AcDbCircle
 10
99.2497352515
 20
193.7737092631
 30
0.0
 40
0.5107516023
100
AcDbArc
 50
271.1929349491
 51
1.2326475304
  0
LINE
  5
83
330
A
100
AcDbEntity
  8
1
  6
CONTINUOUS
370
    50
100
AcDbLine
 10
94.3135320177
 20
196.9222920582
 30
0.0
 11
94.919030843
 21
196.0722920557
 31
0.0
  0
LINE
  5
84
330
A
100
AcDbEntity
  8
1
  6
CONTINUOUS
370
    50
100
AcDbLine
 10
94.919030843
 20
196.0722920557
 30
0.0
 11
95.9103686598
 21
194.2890827647
 31
0.0
  0
LINE
  5
85
330
A
100
AcDbEntity
  8
1
  6
CONTINUOUS
370
    50
100
AcDbLine
 10
94.3135320177
 20
192.3554401458
 30
0.0
 11
94.3135320177
 21
196.9222920582
 31
0.0
  0
LINE
  5
86
330
A
100
AcDbEntity
  8
1
  6
CONTINUOUS
370
    50
100
AcDbLine
 10
95.9103686598
 20
188.8809236073
 30
0.0
 11
95.9103686598
 21
194.2890827647
 31
0.0
  0
LINE
  5
87
330
A
100
AcDbEntity
  8
1
  6
CONTINUOUS
370
    50
100
AcDbLine
 10
100.7517064766
 20
196.0722920557
 30
0.0
 11
101.3572053019
 21
196.9222920582
 31
0.0
  0
LINE
  5
88
330
A
100
AcDbEntity
  8
1
  6
CONTINUOUS
370
    50
100
AcDbLine
 10
101.3572053019
 20
192.3554401458
 30
0.0
 11
101.3572053019
 21
196.9222920582
 31
0.0
  0
LINE
  5
89
330
A
100
AcDbEntity
  8
1
  6
CONTINUOUS
370
    50
100
AcDbLine
 10
99.7603686598
 20
194.2890827647
 30
0.0
 11
100.7517064766
 21
196.0722920557
 31
0.0
  0
LINE
  5
8A
330
A
100
AcDbEntity
  8
1
  6
CONTINUOUS
370
    50
100
AcDbLine
 10
99.7603686598
 20
194.2890827647
 30
0.0
 11
99.7603686598
 21
188.8809236073
 31
0.0
  0
LINE
  5
8B
330
A
100
AcDbEntity
  8
1
  6
CONTINUOUS
370
    50
100
AcDbLine
 10
88.2353686598
 20
196.4951689084
 30
0.0
 11
88.2353686598
 21
192.3554401458
 31
0.0
  0
LINE
  5
8C
330
A
100
AcDbEntity
  8
1
  6
CONTINUOUS
370
    50
100
AcDbLine
 10
87.7353686598
 20
195.788012008
 30
0.0
 11
88.2353686598
 21
196.4951689084
 31
0.0
  0
LINE
  5
8D
330
A
100
AcDbEntity
  8
1
  6
CONTINUOUS
370
    50
100
AcDbLine
 10
87.7353686598
 20
191.7402693117
 30
0.0
 11
87.7353686598
 21
195.788012008
 31
0.0
  0
LINE
  5
8E
330
A
100
AcDbEntity
  8
1
  6
CONTINUOUS
370
    50
100
AcDbLine
 10
89.5853686573
 20
196.9222920582
 30
0.0
 11
94.3135320177
 21
196.9222920582
 31
0.0
  0
LWPOLYLINE
  5
8F
330
A
100
AcDbEntity
  8
1
  6
CONTINUOUS
370
    50
100
AcDbPolyline
 90
        3
 70
   128
 43
0.0
 10
88.2353686598
 20
196.4951689084
 10
88.9079873074
 20
196.7162571746
 10
89.5853686573
 20
196.9222920582
  0
LINE
  5
94
330
A
100
AcDbEntity
  8
1
  6
CONTINUOUS
370
    50
100
AcDbLine
 10
105.2853686598
 20
192.3554401458
 30
0.0
 11
105.2853686598
 21
196.9222920582
 31
0.0
  0
LINE
  5
95
330
A
100
AcDbEntity
  8
1
  6
CONTINUOUS
370
    50
100
AcDbLine
 10
105.2853686598
 20
196.9222920582
 30
0.0
 11
105.7853686598
 21
196.5181656599
 31
0.0
  0
LINE
  5
96
330
A
100
AcDbEntity
  8
1
  6
CONTINUOUS
370
    50
100
AcDbLine
 10
105.7853686598
 20
196.5181656599
 30
0.0
 11
105.7853686598
 21
191.7402693117
 31
0.0
  0
LINE
  5
97
330
A
100
AcDbEntity
  8
1
  6
CONTINUOUS
370
    50
100
AcDbLine
 10
101.3572053019
 20
196.9222920582
 30
0.0
 11
105.2853686598
 21
196.9222920582
 31
0.0
  0
LINE
  5
98
330
A
100
AcDbEntity
  8
1
  6
CONTINUOUS
370
    50
100
AcDbLine
 10
115.9105497151
 20
150.4452105057
 30
0.0
 11
115.9105497151
 21
182.4452105057
 31
0.0
  0
LINE
  5
99
330
A
100
AcDbEntity
  8
1
  6
CONTINUOUS
370
    50
100
AcDbLine
 10
165.7022405558
 20
178.5265194509
 30
0.0
 11
165.7022405558
 21
154.3639015606
 31
0.0
  0
LINE
  5
9A
330
A
100
AcDbEntity
  8
1
  6
CONTINUOUS
370
    50
100
AcDbLine
 10
18.4853686598
 20
154.9948426888
 30
0.0
 11
18.4853686598
 21
177.8955783227
 31
0.0
  0
LINE
  5
9B
330
A
100
AcDbEntity
  8
1
  6
CONTINUOUS
370
    50
100
AcDbLine
 10
166.7353686598
 20
156.1146610605
 30
0.0
 11
166.7353686598
 21
176.7757599766
 31
0.0
  0
LINE
  5
9C
330
A
100
AcDbEntity
  8
1
  6
CONTINUOUS
370
    50
100
AcDbLine
 10
87.5353686598
 20
144.5202105057
 30
0.0
 11
87.5353686598
 21
188.3702105057
 31
0.0
  0
LINE
  5
9D
330
A
100
AcDbEntity
  8
1
  6
CONTINUOUS
370
    50
100
AcDbLine
 10
87.2782589364
 20
144.4733643992
 30
0.0
 11
87.2782589364
 21
188.4170566122
 31
0.0
  0
LINE
  5
9E
330
A
100
AcDbEntity
  8
1
  6
CONTINUOUS
370
    50
100
AcDbLine
 10
87.4895680673
 20
144.5202105057
 30
0.0
 11
87.4895680673
 21
188.3702105057
 31
0.0
  0
LINE
  5
9F
330
A
100
AcDbEntity
  8
1
  6
CONTINUOUS
370
    50
100
AcDbLine
 10
19.2378525535
 20
154.065602468
 30
0.0
 11
19.2378525535
 21
178.8248185434
 31
0.0
  0
LWPOLYLINE
  5
A0
330
A
100
AcDbEntity
  8
1
  6
CONTINUOUS
370
    50
100
AcDbPolyline
 90
       27
 70
   128
 43
0.0
 10
102.3861475935
 20
157.8130455264
 10
102.3371704891
 20
157.3227780738
 10
102.3666060997
 20
156.8610031836
 10
102.4727437347
 20
156.4545575337
 10
102.6494150605
 20
156.1270622681
 10
102.8863525819
 20
155.8975502212
 10
103.1697863514
 20
155.7793597988
 10
103.4832442285
 20
155.7793597988
 10
103.8085091807
 20
155.8975502212
 10
104.1266779914
 20
156.1270622681
 10
104.4192598458
 20
156.4545575337
 10
104.6692509499
 20
156.8610031836
 10
104.8621227295
 20
157.3227780738
 10
104.9866661778
 20
157.8130455264
 10
105.0356432823
 20
158.303312979
 10
105.0062076717
 20
158.7650878693
 10
104.9000700367
 20
159.1715335191
 10
104.7233987108
 20
159.4990287847
 10
104.4864611894
 20
159.7285408317
 10
104.2030274199
 20
159.846731254
 10
103.8895695428
 20
159.846731254
 10
103.5643045906
 20
159.7285408317
 10
103.2461357799
 20
159.4990287847
 10
102.9535539255
 20
159.1715335191
 10
102.7035628214
 20
158.7650878693
 10
102.5106910418
 20
158.303312979
 10
102.3861475935
 20
157.8130455264
  0
LWPOLYLINE
  5
BD
330
A
100
AcDbEntity
  8
1
  6
CONTINUOUS
370
    50
100
AcDbPolyline
 90
       18
 70
   128
 43
0.0
 10
97.5746967965
 20
158.0165461229
 10
97.5580272778
 20
157.9123647156
 10
97.5419254196
 20
157.8645312547
 10
97.5269395514
 20
157.8746746513
 10
97.5135799988
 20
157.9424494842
 10
97.5023017055
 20
158.0655477628
 10
97.4934887402
 20
158.2397775229
 10
97.4874412179
 20
158.4592055789
 10
97.4843650796
 20
158.7163595715
 10
97.4843650796
 20
159.0024824301
 10
97.4874412179
 20
159.3078305837
 10
97.4934887402
 20
159.6220057672
 10
97.5023017055
 20
159.9343091216
 10
97.5135799988
 20
160.2341055307
 10
97.5269395514
 20
160.5111857874
 10
97.5419254196
 20
160.7561142558
 10
97.5580272778
 20
160.9605501907
 10
97.5746967965
 20
161.1175317715
  0
LWPOLYLINE
  5
D1
330
A
100
AcDbEntity
  8
1
  6
CONTINUOUS
370
    50
100
AcDbPolyline
 90
       18
 70
   128
 43
0.0
 10
97.5746967965
 20
161.1175317715
 10
97.077132195
 20
161.0985617781
 10
96.5965115592
 20
161.0274376116
 10
96.1492018485
 20
160.9065813201
 10
95.7504356586
 20
160.7401085197
 10
95.4137924937
 20
160.5336882419
 10
95.1507363332
 20
160.2943498818
 10
94.970225239
 20
160.0302438201
 10
94.8784063
 20
159.750363872
 10
94.8784063
 20
159.4642410135
 10
94.970225239
 20
159.1816188153
 10
95.1507363332
 20
158.9121216375
 10
95.4137924937
 20
158.6649268832
 10
95.7504356586
 20
158.4484524732
 10
96.1492018485
 20
158.270070184
 10
96.5965115592
 20
158.1358546105
 10
97.077132195
 20
158.0503763031
 10
97.5746967965
 20
158.0165461229
  0
LWPOLYLINE
  5
E5
330
A
100
AcDbEntity
  8
1
  6
CONTINUOUS
370
    50
100
AcDbPolyline
 90
       27
 70
   128
 43
0.0
 10
102.3875730477
 20
157.8140683387
 10
102.5116385938
 20
158.3024545212
 10
102.7037702796
 20
158.762457474
 10
102.9528021098
 20
159.1673434975
 10
103.2442612596
 20
159.4935820877
 10
103.5612091827
 20
159.7222134436
 10
103.8852260178
 20
159.8399503419
 10
104.1974810842
 20
159.8399503419
 10
104.4798272525
 20
159.7222134436
 10
104.7158555897
 20
159.4935820877
 10
104.8918489866
 20
159.1673434975
 10
104.9975793469
 20
158.762457474
 10
105.0269020062
 20
158.3024545212
 10
104.9781128382
 20
157.8140683387
 10
104.854047292
 20
157.3256821562
 10
104.6619156063
 20
156.8656792034
 10
104.4128837761
 20
156.4607931799
 10
104.1214246262
 20
156.1345545896
 10
103.8044767032
 20
155.9059232337
 10
103.4804598681
 20
155.7881863355
 10
103.1682048016
 20
155.7881863355
 10
102.8858586334
 20
155.9059232337
 10
102.6498302962
 20
156.1345545896
 10
102.4738368993
 20
156.4607931799
 10
102.368106539
 20
156.8656792034
 10
102.3387838797
 20
157.3256821562
 10
102.3875730477
 20
157.8140683387
  0
LWPOLYLINE
  5
102
330
A
100
AcDbEntity
  8
1
  6
CONTINUOUS
370
    50
100
AcDbPolyline
 90
       24
 70
   128
 43
0.0
 10
104.4204005227
 20
157.8955946521
 10
104.3056643292
 20
157.461321147
 10
104.1236678002
 20
157.0592557212
 10
103.8879087857
 20
156.7192177278
 10
103.6158724532
 20
156.4664262294
 10
103.327734493
 20
156.3196296149
 10
103.0448647796
 20
156.2897151176
 10
102.7882424654
 20
156.378901359
 10
102.5769000536
 20
156.5805738035
 10
102.4265118441
 20
156.8797753285
 10
102.3482314423
 20
157.2543155257
 10
102.3478645476
 20
157.676416462
 10
102.4254383708
 20
158.1147728421
 10
102.5751996164
 20
158.5368737784
 10
102.7860411778
 20
158.9114139756
 10
103.0423259011
 20
159.2106155006
 10
103.3250463206
 20
159.4122879451
 10
103.6132343564
 20
159.5014741865
 10
103.88551642
 20
159.4715596892
 10
104.1216985965
 20
159.3247630747
 10
104.3042643343
 20
159.0719715763
 10
104.4196735678
 20
158.7319335829
 10
104.4593669221
 20
158.3298681571
 10
104.4204005227
 20
157.8955946521
  0
ARC
  5
11C
330
A
100
AcDbEntity
  8
1
  6
CONTINUOUS
370
    50
100
AcDbCircle
 10
99.1467155542
 20
160.9225112164
 30
0.0
 40
1.5840694402
100
AcDbArc
 50
169.5837820626
 51
172.9281660983
  0
ARC
  5
11D
330
A
100
AcDbEntity
  8
1
  6
CONTINUOUS
370
    50
100
AcDbCircle
 10
93.3486794407
 20
151.1624938389
 30
0.0
 40
10.9045232024
100
AcDbArc
 50
65.78271100279999
 51
67.1179062879
  0
ARC
  5
11E
330
A
100
AcDbEntity
  8
1
  6
CONTINUOUS
370
    50
100
AcDbCircle
 10
97.5043073882
 20
156.3952364571
 30
0.0
 40
4.7228198892
100
AcDbArc
 50
86.1466391327
 51
89.1460260109
  0
ARC
  5
11F
330
A
100
AcDbEntity
  8
1
  6
CONTINUOUS
370
    50
100
AcDbCircle
 10
97.6452243536
 20
162.7321954117
 30
0.0
 40
4.7161766666
100
AcDbArc
 50
269.1431444841
 51
272.1444122424
  0
ARC
  5
120
330
A
100
AcDbEntity
  8
1
  6
CONTINUOUS
370
    50
100
AcDbCircle
 10
103.5950919444
 20
168.9680003895
 30
0.0
 40
12.3776278973
100
AcDbArc
 50
240.9706336713
 51
242.1966722694
  0
ARC
  5
121
330
A
100
AcDbEntity
  8
1
  6
CONTINUOUS
370
    50
100
AcDbCircle
 10
93.3194015191
 20
158.5459937014
 30
0.0
 40
4.2881059498
100
AcDbArc
 50
352.9076566901
 51
354.6390928976999
  0
LWPOLYLINE
  5
122
330
A
100
AcDbEntity
  8
1
  6
CONTINUOUS
370
    50
100
AcDbPolyline
 90
       24
 70
   128
 43
0.0
 10
94.2382857104
 20
160.2313549407
 10
94.199319311
 20
159.7970814357
 10
94.2390126653
 20
159.3950160098
 10
94.3544218988
 20
159.0549780165
 10
94.5369876366
 20
158.8021865181
 10
94.7731698131
 20
158.6553899035
 10
95.0454518767
 20
158.6254754063
 10
95.3336399124
 20
158.7146616476
 10
95.616360332
 20
158.9163340922
 10
95.8726450553
 20
159.2155356172
 10
96.0834866167
 20
159.5900758144
 10
96.2332478623
 20
160.0121767507
 10
96.3108216855
 20
160.4505331307
 10
96.3104547908
 20
160.8726340671
 10
96.232174389
 20
161.2471742643
 10
96.0817861795
 20
161.5463757893
 10
95.8704437677
 20
161.7480482338
 10
95.6138214535
 20
161.8372344752
 10
95.3309517401
 20
161.8073199779
 10
95.0428137799
 20
161.6605233634
 10
94.7707774474
 20
161.4077318649
 10
94.5350184329
 20
161.0676938716
 10
94.3530219039
 20
160.6656284458
 10
94.2382857104
 20
160.2313549407
  0
LINE
  5
13C
330
A
100
AcDbEntity
  8
1
  6
CONTINUOUS
370
    50
100
AcDbLine
 10
87.9885225533
 20
143.8452105057
 30
0.0
 11
87.9885225533
 21
189.4378695371
 31
0.0
  0
LINE
  5
13D
330
A
100
AcDbEntity
  8
1
  6
CONTINUOUS
370
    50
100
AcDbLine
 10
88.0353686598
 20
143.8452105057
 30
0.0
 11
88.0353686598
 21
189.2265604062
 31
0.0
  0
LWPOLYLINE
  5
13E
330
A
100
AcDbEntity
  8
1
  6
CONTINUOUS
370
    50
100
AcDbPolyline
 90
        9
 70
   128
 43
0.0
 10
97.8216957466
 20
161.1073795296
 10
97.7925737967
 20
161.1252331059
 10
97.7633973676
 20
161.1416393846
 10
97.7341942455
 20
161.1565827412
 10
97.7049922418
 20
161.1700489443
 10
97.675819167
 20
161.1820251695
 10
97.646702804
 20
161.1925000113
 10
97.6176708818
 20
161.2014634939
 10
97.5887510488
 20
161.208907081
  0
LWPOLYLINE
  5
149
330
A
100
AcDbEntity
  8
1
  6
CONTINUOUS
370
    50
100
AcDbPolyline
 90
       26
 70
   128
 43
0.0
 10
94.013915384
 20
160.2335534038
 10
93.9669546958
 20
159.7483422644
 10
94.0007543141
 20
159.2936187253
 10
94.1131904845
 20
158.897954739
 10
94.2971984288
 20
158.5862113287
 10
94.5412162513
 20
158.3779764795
 10
94.8299114146
 20
158.2863343528
 10
95.14514414
 20
158.3170431605
 10
95.4671071959
 20
158.4681733551
 10
95.7755704595
 20
158.7302288709
 10
96.0511520494
 20
159.0867437959
 10
96.2765361609
 20
159.5153169862
 10
96.4375610812
 20
159.9890196121
 10
96.5241090225
 20
160.4780871955
 10
96.5307418594
 20
160.9517898215
 10
96.4570428261
 20
161.3803630118
 10
96.3076427042
 20
161.7368779368
 10
96.0919288526
 20
161.9989334525
 10
95.8234553661
 20
162.1500636472
 10
95.5190914211
 20
162.1807724549
 10
95.1979613238
 20
162.0891303282
 10
94.880242859
 20
161.880895479
 10
94.5858994466
 20
161.5691520687
 10
94.3334257655
 20
161.1734880823
 10
94.1386856657
 20
160.7187645433
 10
94.013915384
 20
160.2335534038
  0
LWPOLYLINE
  5
165
330
A
100
AcDbEntity
  8
1
  6
CONTINUOUS
370
    50
100
AcDbPolyline
 90
       26
 70
   128
 43
0.0
 10
94.0215758284
 20
160.2313549407
 10
93.9746151403
 20
159.7461438013
 10
94.0084147586
 20
159.2914202622
 10
94.1208509289
 20
158.8957562759
 10
94.3048588733
 20
158.5840128656
 10
94.5488766957
 20
158.3757780164
 10
94.8375718591
 20
158.2841358897
 10
95.1528045844
 20
158.3148446974
 10
95.4747676404
 20
158.465974892
 10
95.7832309039
 20
158.7280304078
 10
96.0588124938
 20
159.0845453328
 10
96.2841966053
 20
159.5131185231
 10
96.4452215257
 20
159.986821149
 10
96.531769467
 20
160.4758887324
 10
96.5384023038
 20
160.9495913584
 10
96.4647032706
 20
161.3781645487
 10
96.3153031486
 20
161.7346794737
 10
96.0995892971
 20
161.9967349894
 10
95.8311158105
 20
162.1478651841
 10
95.5267518656
 20
162.1785739918
 10
95.2056217682
 20
162.0869318651
 10
94.8879033035
 20
161.8786970159
 10
94.593559891
 20
161.5669536056
 10
94.3410862099
 20
161.1712896192
 10
94.1463461102
 20
160.7165660802
 10
94.0215758284
 20
160.2313549407
  0
LWPOLYLINE
  5
181
330
A
100
AcDbEntity
  8
1
  6
CONTINUOUS
370
    50
100
AcDbPolyline
 90
       24
 70
   128
 43
0.0
 10
94.230625266
 20
160.2335534038
 10
94.1916588666
 20
159.7992798988
 10
94.2313522209
 20
159.397214473
 10
94.3467614544
 20
159.0571764796
 10
94.5293271922
 20
158.8043849812
 10
94.7655093687
 20
158.6575883667
 10
95.0377914323
 20
158.6276738694
 10
95.325979468
 20
158.7168601107
 10
95.6086998876
 20
158.9185325553
 10
95.8649846108
 20
159.2177340803
 10
96.0758261723
 20
159.5922742775
 10
96.2255874179
 20
160.0143752138
 10
96.3031612411
 20
160.4527315938
 10
96.3027943463
 20
160.8748325302
 10
96.2245139446
 20
161.2493727274
 10
96.074125735
 20
161.5485742524
 10
95.8627833233
 20
161.7502466969
 10
95.6061610091
 20
161.8394329383
 10
95.3232912957
 20
161.809518441
 10
95.0351533355
 20
161.6627218265
 10
94.763117003
 20
161.409930328
 10
94.5273579885
 20
161.0698923347
 10
94.3453614595
 20
160.6678269089
 10
94.230625266
 20
160.2335534038
  0
LWPOLYLINE
  5
19B
330
A
100
AcDbEntity
  8
1
  6
CONTINUOUS
370
    50
100
AcDbPolyline
 90
       23
 70
   128
 43
0.0
 10
79.4907839873
 20
164.4637253606
 10
79.4132401313
 20
164.0571615115
 10
79.4807201226
 20
163.6576351941
 10
79.6787864123
 20
163.3086283447
 10
80.0086299839
 20
163.006371379
 10
80.6448147474
 20
162.7094779331
 10
81.6598878354
 20
162.5600391408
 10
82.3387093084
 20
162.5959458921
 10
83.0201381555
 20
162.7304111413
 10
83.8528195155
 20
163.0747958317
 10
84.2604369347
 20
163.394051324
 10
84.4721321386
 20
163.702775321
 10
84.545218917
 20
163.9889129672
 10
84.5097360798
 20
164.2868309867
 10
84.3832361389
 20
164.5534739035
 10
84.0420098873
 20
164.925155665
 10
83.2980034826
 20
165.3566813311
 10
82.6633957934
 20
165.5560943028
 10
81.9856073443
 20
165.6529804223
 10
80.8633671052
 20
165.5503570987
 10
80.1742409635
 20
165.2575617617
 10
79.735561887
 20
164.8798024991
 10
79.4907839873
 20
164.4637253606
  0
LWPOLYLINE
  5
1B4
330
A
100
AcDbEntity
  8
1
  6
CONTINUOUS
370
    50
100
AcDbPolyline
 90
        9
 70
   128
 43
0.0
 10
97.5887510488
 20
158.1453601659
 10
97.6176708818
 20
158.1245516566
 10
97.646702804
 20
158.1051535417
 10
97.675819167
 20
158.0871842948
 10
97.7049922418
 20
158.070661029
 10
97.7341942455
 20
158.0555994802
 10
97.7633973676
 20
158.0420139922
 10
97.7925737967
 20
158.029917503
 10
97.8216957466
 20
158.0193215328
  0
LINE
  5
1BF
330
A
100
AcDbEntity
  8
1
  6
CONTINUOUS
370
    50
100
AcDbLine
 10
87.7353686598
 20
143.0952105057
 30
0.0
 11
90.4353686598
 21
143.0952105057
 31
0.0
  0
LINE
  5
1C0
330
A
100
AcDbEntity
  8
1
  6
CONTINUOUS
370
    50
100
AcDbLine
 10
90.4353686598
 20
191.9952105057
 30
0.0
 11
87.7353686598
 21
191.9952105057
 31
0.0
  0
LINE
  5
1C1
330
A
100
AcDbEntity
  8
1
  6
CONTINUOUS
370
    50
100
AcDbLine
 10
90.124708488
 20
143.8452105057
 30
0.0
 11
87.7353686598
 21
143.8452105057
 31
0.0
  0
LINE
  5
1C2
330
A
100
AcDbEntity
  8
1
  6
CONTINUOUS
370
    50
100
AcDbLine
 10
87.7353686598
 20
191.2452105057
 30
0.0
 11
90.124708488
 21
191.2452105057
 31
0.0
  0
LINE
  5
1C3
330
A
100
AcDbEntity
  8
1
  6
CONTINUOUS
370
    50
100
AcDbLine
 10
18.7566551059
 20
157.630029136
 30
0.0
 11
18.7566551059
 21
175.2603918754
 31
0.0
  0
LINE
  5
1C4
330
A
100
AcDbEntity
  8
1
  6
CONTINUOUS
370
    50
100
AcDbLine
 10
89.5853686573
 20
135.9681289533
 30
0.0
 11
90.4353686598
 21
136.8181289557
 31
0.0
  0
LINE
  5
1C5
330
A
100
AcDbEntity
  8
1
  6
CONTINUOUS
370
    50
100
AcDbLine
 10
89.5853686573
 20
196.9222920582
 30
0.0
 11
90.4353686598
 21
196.0722920557
 31
0.0
  0
LINE
  5
1C6
330
A
100
AcDbEntity
  8
1
  6
CONTINUOUS
370
    50
100
AcDbLine
 10
19.2566551059
 20
157.9187042706
 30
0.0
 11
19.2566551059
 21
174.9717167408
 31
0.0
  0
LINE
  5
1C7
330
A
100
AcDbEntity
  8
1
  6
CONTINUOUS
370
    50
100
AcDbLine
 10
26.9853686598
 20
175.0952105057
 30
0.0
 11
26.9853686598
 21
157.7952105057
 31
0.0
  0
LINE
  5
1C8
330
A
100
AcDbEntity
  8
1
  6
CONTINUOUS
370
    50
100
AcDbLine
 10
24.6750800915
 20
175.0952105057
 30
0.0
 11
24.6750800915
 21
157.7952105057
 31
0.0
  0
LINE
  5
1C9
330
A
100
AcDbEntity
  8
1
  6
CONTINUOUS
370
    50
100
AcDbLine
 10
24.4152724704
 20
174.9452105057
 30
0.0
 11
24.4152724704
 21
157.9452105057
 31
0.0
  0
LINE
  5
1CA
330
A
100
AcDbEntity
  8
1
  6
CONTINUOUS
370
    50
100
AcDbLine
 10
27.8946953338
 20
173.5202105057
 30
0.0
 11
27.8946953338
 21
159.3702105057
 31
0.0
  0
LINE
  5
1CB
330
A
100
AcDbEntity
  8
1
  6
CONTINUOUS
370
    50
100
AcDbLine
 10
19.4853686598
 20
174.9452105057
 30
0.0
 11
19.4853686598
 21
157.9601387857
 31
0.0
  0
LINE
  5
1CC
330
A
100
AcDbEntity
  8
1
  6
CONTINUOUS
370
    50
100
AcDbLine
 10
100.7517064766
 20
136.8181289557
 30
0.0
 11
105.7853686598
 21
136.8181289557
 31
0.0
  0
LINE
  5
1CD
330
A
100
AcDbEntity
  8
1
  6
CONTINUOUS
370
    50
100
AcDbLine
 10
90.4353686598
 20
136.8181289557
 30
0.0
 11
94.919030843
 21
136.8181289557
 31
0.0
  0
LINE
  5
1CE
330
A
100
AcDbEntity
  8
1
  6
CONTINUOUS
370
    50
100
AcDbLine
 10
90.4353686598
 20
136.8181289557
 30
0.0
 11
90.4353686598
 21
143.0952105057
 31
0.0
  0
LINE
  5
1CF
330
A
100
AcDbEntity
  8
1
  6
CONTINUOUS
370
    50
100
AcDbLine
 10
90.4353686598
 20
143.0952105057
 30
0.0
 11
105.7853686598
 21
143.0952105057
 31
0.0
  0
LINE
  5
1D0
330
A
100
AcDbEntity
  8
1
  6
CONTINUOUS
370
    50
100
AcDbLine
 10
105.7853686598
 20
143.8452105057
 30
0.0
 11
90.124708488
 21
143.8452105057
 31
0.0
  0
LINE
  5
1D1
330
A
100
AcDbEntity
  8
1
  6
CONTINUOUS
370
    50
100
AcDbLine
 10
90.4353686598
 20
143.0952105057
 30
0.0
 11
90.124708488
 21
143.8452105057
 31
0.0
  0
LINE
  5
1D2
330
A
100
AcDbEntity
  8
1
  6
CONTINUOUS
370
    50
100
AcDbLine
 10
90.124708488
 20
191.2452105057
 30
0.0
 11
105.7853686598
 21
191.2452105057
 31
0.0
  0
LINE
  5
1D3
330
A
100
AcDbEntity
  8
1
  6
CONTINUOUS
370
    50
100
AcDbLine
 10
90.4353686598
 20
191.9952105057
 30
0.0
 11
90.124708488
 21
191.2452105057
 31
0.0
  0
LINE
  5
1D4
330
A
100
AcDbEntity
  8
1
  6
CONTINUOUS
370
    50
100
AcDbLine
 10
105.7853686598
 20
191.9952105057
 30
0.0
 11
90.4353686598
 21
191.9952105057
 31
0.0
  0
LINE
  5
1D5
330
A
100
AcDbEntity
  8
1
  6
CONTINUOUS
370
    50
100
AcDbLine
 10
100.7517064766
 20
196.0722920557
 30
0.0
 11
105.7853686598
 21
196.0722920557
 31
0.0
  0
LINE
  5
1D6
330
A
100
AcDbEntity
  8
1
  6
CONTINUOUS
370
    50
100
AcDbLine
 10
90.4353686598
 20
196.0722920557
 30
0.0
 11
94.919030843
 21
196.0722920557
 31
0.0
  0
LINE
  5
1D7
330
A
100
AcDbEntity
  8
1
  6
CONTINUOUS
370
    50
100
AcDbLine
 10
90.4353686598
 20
196.0722920557
 30
0.0
 11
90.4353686598
 21
191.9952105057
 31
0.0
  0
LINE
  5
1D8
330
A
100
AcDbEntity
  8
1
  6
CONTINUOUS
370
    50
100
AcDbLine
 10
52.4853686598
 20
174.4452105057
 30
0.0
 11
52.4853686598
 21
158.4452105057
 31
0.0
  0
LINE
  5
1D9
330
A
100
AcDbEntity
  8
1
  6
CONTINUOUS
370
    50
100
AcDbLine
 10
52.4753686598
 20
174.4452105057
 30
0.0
 11
52.4753686598
 21
158.4452105057
 31
0.0
  0
LINE
  5
1DA
330
A
100
AcDbEntity
  8
1
  6
CONTINUOUS
370
    50
100
AcDbLine
 10
63.4853686598
 20
173.5202105057
 30
0.0
 11
63.4853686598
 21
159.3702105057
 31
0.0
  0
LINE
  5
1DB
330
A
100
AcDbEntity
  8
1
  6
CONTINUOUS
370
    50
100
AcDbLine
 10
63.5035671715
 20
173.4702105057
 30
0.0
 11
63.5035671715
 21
159.4202105057
 31
0.0
  0
LINE
  5
1DC
330
A
100
AcDbEntity
  8
1
  6
CONTINUOUS
370
    50
100
AcDbLine
 10
98.6545029549
 20
161.4452105057
 30
0.0
 11
98.6545029549
 21
171.4452105057
 31
0.0
  0
LINE
  5
1DD
330
A
100
AcDbEntity
  8
1
  6
CONTINUOUS
370
    50
100
AcDbLine
 10
97.4853686598
 20
173.4702105057
 30
0.0
 11
97.4853686598
 21
159.4202105057
 31
0.0
  0
LWPOLYLINE
  5
1DE
330
A
100
AcDbEntity
  8
1
  6
CONTINUOUS
370
    50
100
AcDbPolyline
 90
       23
 70
   128
 43
0.0
 10
79.4907839873
 20
168.4266956509
 10
79.4132401313
 20
168.8332595
 10
79.4807201226
 20
169.2327858173
 10
79.6787864123
 20
169.5817926667
 10
80.0086299839
 20
169.8840496324
 10
80.6448147474
 20
170.1809430784
 10
81.6598878354
 20
170.3303818706
 10
82.3484638198
 20
170.2936956693
 10
83.0201381555
 20
170.1600098702
 10
83.8528195155
 20
169.8156251798
 10
84.2604369347
 20
169.4963696874
 10
84.4721321386
 20
169.1876456904
 10
84.545218917
 20
168.9015080443
 10
84.5097360798
 20
168.6035900247
 10
84.3832361389
 20
168.3369471079
 10
84.0420098873
 20
167.9652653464
 10
83.2980034826
 20
167.5337396804
 10
82.6543886781
 20
167.3318709503
 10
81.9856073443
 20
167.2374405892
 10
80.8633671052
 20
167.3400639128
 10
80.1742409635
 20
167.6328592498
 10
79.735561887
 20
168.0106185123
 10
79.4907839873
 20
168.4266956509
  0
LINE
  5
1F7
330
A
100
AcDbEntity
  8
1
  6
CONTINUOUS
370
    50
100
AcDbLine
 10
165.6721466354
 20
161.4452105057
 30
0.0
 11
165.6721466354
 21
171.4452105057
 31
0.0
  0
LINE
  5
1F8
330
A
100
AcDbEntity
  8
1
  6
CONTINUOUS
370
    50
100
AcDbLine
 10
134.7353686636
 20
171.4452105057
 30
0.0
 11
134.7353686636
 21
161.4452105057
 31
0.0
  0
LINE
  5
1F9
330
A
100
AcDbEntity
  8
1
  6
CONTINUOUS
370
    50
100
AcDbLine
 10
134.6198986098
 20
161.2452105057
 30
0.0
 11
134.6198986098
 21
171.6452105057
 31
0.0
  0
LINE
  5
1FA
330
A
100
AcDbEntity
  8
1
  6
CONTINUOUS
370
    50
100
AcDbLine
 10
125.2353686598
 20
171.6452105057
 30
0.0
 11
125.2353686598
 21
161.2604683396
 31
0.0
  0
LINE
  5
1FB
330
A
100
AcDbEntity
  8
1
  6
CONTINUOUS
370
    50
100
AcDbLine
 10
124.7353686598
 20
161.7452105725
 30
0.0
 11
124.7353686598
 21
171.1452105057
 31
0.0
  0
LINE
  5
1FC
330
A
100
AcDbEntity
  8
1
  6
CONTINUOUS
370
    50
100
AcDbLine
 10
92.8353686598
 20
191.0452105057
 30
0.0
 11
102.8353686598
 21
191.0452105057
 31
0.0
  0
LINE
  5
1FD
330
A
100
AcDbEntity
  8
1
  6
CONTINUOUS
370
    50
100
AcDbLine
 10
107.4853686598
 20
161.4452105057
 30
0.0
 11
107.4853686598
 21
171.4452105057
 31
0.0
  0
LINE
  5
1FE
330
A
100
AcDbEntity
  8
1
  6
CONTINUOUS
370
    50
100
AcDbLine
 10
108.3513940636
 20
162.9452105057
 30
0.0
 11
108.3513940636
 21
169.9452105057
 31
0.0
  0
LINE
  5
1FF
330
A
100
AcDbEntity
  8
1
  6
CONTINUOUS
370
    50
100
AcDbLine
 10
93.1353687265
 20
186.5452105057
 30
0.0
 11
102.5353686598
 21
186.5452105057
 31
0.0
  0
LINE
  5
200
330
A
100
AcDbEntity
  8
1
  6
CONTINUOUS
370
    50
100
AcDbLine
 10
102.8353686598
 20
186.8452105057
 30
0.0
 11
92.8353686598
 21
186.8452105057
 31
0.0
  0
LINE
  5
201
330
A
100
AcDbEntity
  8
1
  6
CONTINUOUS
370
    50
100
AcDbLine
 10
96.7353686598
 20
186.1452105057
 30
0.0
 11
98.9353686598
 21
186.1452105057
 31
0.0
  0
LINE
  5
202
330
A
100
AcDbEntity
  8
1
  6
CONTINUOUS
370
    50
100
AcDbLine
 10
96.5853686598
 20
182.7452105057
 30
0.0
 11
99.0853686598
 21
182.7452105057
 31
0.0
  0
LINE
  5
203
330
A
100
AcDbEntity
  8
1
  6
CONTINUOUS
370
    50
100
AcDbLine
 10
96.5853686598
 20
182.7352105057
 30
0.0
 11
99.0853686598
 21
182.7352105057
 31
0.0
  0
LINE
  5
204
330
A
100
AcDbEntity
  8
1
  6
CONTINUOUS
370
    50
100
AcDbLine
 10
96.7353686598
 20
180.1452105057
 30
0.0
 11
98.9353686598
 21
180.1452105057
 31
0.0
  0
LWPOLYLINE
  5
205
330
A
100
AcDbEntity
  8
1
  6
CONTINUOUS
370
    50
100
AcDbPolyline
 90
       24
 70
   128
 43
0.0
 10
94.230625266
 20
172.6568676076
 10
94.1916588666
 20
173.0911411127
 10
94.2313522209
 20
173.4932065385
 10
94.3467614544
 20
173.8332445318
 10
94.5293271922
 20
174.0860360303
 10
94.7655093687
 20
174.2328326448
 10
95.0377914323
 20
174.2627471421
 10
95.325979468
 20
174.1735609007
 10
95.6086998876
 20
173.9718884562
 10
95.8649846108
 20
173.6726869312
 10
96.0758261723
 20
173.298146734
 10
96.2255874179
 20
172.8760457976
 10
96.3031612411
 20
172.4376894176
 10
96.3027943463
 20
172.0155884813
 10
96.2245139446
 20
171.6410482841
 10
96.074125735
 20
171.341846759
 10
95.8627833233
 20
171.1401743145
 10
95.6061610091
 20
171.0509880731
 10
95.3232912957
 20
171.0809025704
 10
95.0351533355
 20
171.227699185
 10
94.763117003
 20
171.4804906834
 10
94.5273579885
 20
171.8205286767
 10
94.3453614595
 20
172.2225941026
 10
94.230625266
 20
172.6568676076
  0
LINE
  5
21F
330
A
100
AcDbEntity
  8
1
  6
CONTINUOUS
370
    50
100
AcDbLine
 10
95.9103686598
 20
184.7952105057
 30
0.0
 11
95.9103686598
 21
188.2518035454
 31
0.0
  0
LINE
  5
220
330
A
100
AcDbEntity
  8
1
  6
CONTINUOUS
370
    50
100
AcDbLine
 10
96.4103686598
 20
139.6273526494
 30
0.0
 11
96.4103686598
 21
193.263068362
 31
0.0
  0
LINE
  5
221
330
A
100
AcDbEntity
  8
1
  6
CONTINUOUS
370
    50
100
AcDbLine
 10
99.2603686598
 20
139.6273526494
 30
0.0
 11
99.2603686598
 21
193.263068362
 31
0.0
  0
LINE
  5
222
330
A
100
AcDbEntity
  8
1
  6
CONTINUOUS
370
    50
100
AcDbLine
 10
99.7603686598
 20
184.7952105057
 30
0.0
 11
99.7603686598
 21
188.2518035454
 31
0.0
  0
LINE
  5
223
330
A
100
AcDbEntity
  8
1
  6
CONTINUOUS
370
    50
100
AcDbLine
 10
94.3135320177
 20
192.3554401458
 30
0.0
 11
94.3135320177
 21
184.7952105057
 31
0.0
  0
LINE
  5
224
330
A
100
AcDbEntity
  8
1
  6
CONTINUOUS
370
    50
100
AcDbLine
 10
105.2853686598
 20
192.3554401458
 30
0.0
 11
105.2853686598
 21
184.7952105057
 31
0.0
  0
LINE
  5
225
330
A
100
AcDbEntity
  8
1
  6
CONTINUOUS
370
    50
100
AcDbLine
 10
101.3572053019
 20
192.3554401458
 30
0.0
 11
101.3572053019
 21
184.7952105057
 31
0.0
  0
LINE
  5
226
330
A
100
AcDbEntity
  8
1
  6
CONTINUOUS
370
    50
100
AcDbLine
 10
88.2353686598
 20
184.7952105057
 30
0.0
 11
88.2353686598
 21
192.3554401458
 31
0.0
  0
LWPOLYLINE
  5
227
330
A
100
AcDbEntity
  8
1
  6
CONTINUOUS
370
    50
100
AcDbPolyline
 90
       26
 70
   128
 43
0.0
 10
94.013915384
 20
172.6568676076
 10
93.9669546958
 20
173.142078747
 10
94.0007543141
 20
173.5968022861
 10
94.1131904845
 20
173.9924662725
 10
94.2971984288
 20
174.3042096828
 10
94.5412162513
 20
174.5124445319
 10
94.8299114146
 20
174.6040866586
 10
95.14514414
 20
174.573377851
 10
95.4671071959
 20
174.4222476563
 10
95.7755704595
 20
174.1601921406
 10
96.0511520494
 20
173.8036772156
 10
96.2765361609
 20
173.3751040253
 10
96.4375610812
 20
172.9014013993
 10
96.5241090225
 20
172.4123338159
 10
96.5307418594
 20
171.93863119
 10
96.4570428261
 20
171.5100579996
 10
96.3076427042
 20
171.1535430746
 10
96.0919288526
 20
170.8914875589
 10
95.8234553661
 20
170.7403573642
 10
95.5190914211
 20
170.7096485566
 10
95.1979613238
 20
170.8012906833
 10
94.880242859
 20
171.0095255325
 10
94.5858994466
 20
171.3212689427
 10
94.3334257655
 20
171.7169329291
 10
94.1386856657
 20
172.1716564682
 10
94.013915384
 20
172.6568676076
  0
LWPOLYLINE
  5
243
330
A
100
AcDbEntity
  8
1
  6
CONTINUOUS
370
    50
100
AcDbPolyline
 90
       26
 70
   128
 43
0.0
 10
94.0215758284
 20
172.6590660707
 10
93.9746151403
 20
173.1442772102
 10
94.0084147586
 20
173.5990007492
 10
94.1208509289
 20
173.9946647356
 10
94.3048588733
 20
174.3064081459
 10
94.5488766957
 20
174.514642995
 10
94.8375718591
 20
174.6062851217
 10
95.1528045844
 20
174.5755763141
 10
95.4747676404
 20
174.4244461194
 10
95.7832309039
 20
174.1623906037
 10
96.0588124938
 20
173.8058756787
 10
96.2841966053
 20
173.3773024884
 10
96.4452215257
 20
172.9035998624
 10
96.531769467
 20
172.414532279
 10
96.5384023038
 20
171.9408296531
 10
96.4647032706
 20
171.5122564627
 10
96.3153031486
 20
171.1557415378
 10
96.0995892971
 20
170.893686022
 10
95.8311158105
 20
170.7425558273
 10
95.5267518656
 20
170.7118470197
 10
95.2056217682
 20
170.8034891464
 10
94.8879033035
 20
171.0117239956
 10
94.593559891
 20
171.3234674059
 10
94.3410862099
 20
171.7191313922
 10
94.1463461102
 20
172.1738549313
 10
94.0215758284
 20
172.6590660707
  0
LWPOLYLINE
  5
25F
330
A
100
AcDbEntity
  8
1
  6
CONTINUOUS
370
    50
100
AcDbPolyline
 90
       24
 70
   128
 43
0.0
 10
94.2382857104
 20
172.6590660707
 10
94.199319311
 20
173.0933395758
 10
94.2390126653
 20
173.4954050016
 10
94.3544218988
 20
173.8354429949
 10
94.5369876366
 20
174.0882344934
 10
94.7731698131
 20
174.2350311079
 10
95.0454518767
 20
174.2649456052
 10
95.3336399124
 20
174.1757593638
 10
95.616360332
 20
173.9740869193
 10
95.8726450553
 20
173.6748853943
 10
96.0834866167
 20
173.3003451971
 10
96.2332478623
 20
172.8782442607
 10
96.3108216855
 20
172.4398878807
 10
96.3104547908
 20
172.0177869444
 10
96.232174389
 20
171.6432467472
 10
96.0817861795
 20
171.3440452221
 10
95.8704437677
 20
171.1423727776
 10
95.6138214535
 20
171.0531865363
 10
95.3309517401
 20
171.0831010335
 10
95.0428137799
 20
171.2298976481
 10
94.7707774474
 20
171.4826891465
 10
94.5350184329
 20
171.8227271398
 10
94.3530219039
 20
172.2247925657
 10
94.2382857104
 20
172.6590660707
  0
LWPOLYLINE
  5
279
330
A
100
AcDbEntity
  8
1
  6
CONTINUOUS
370
    50
100
AcDbPolyline
 90
       24
 70
   128
 43
0.0
 10
104.4204005227
 20
174.9948263594
 10
104.3056643292
 20
175.4290998644
 10
104.1236678002
 20
175.8311652903
 10
103.8879087857
 20
176.1712032836
 10
103.6158724532
 20
176.423994782
 10
103.327734493
 20
176.5707913966
 10
103.0448647796
 20
176.6007058939
 10
102.7882424654
 20
176.5115196525
 10
102.5769000536
 20
176.309847208
 10
102.4265118441
 20
176.0106456829
 10
102.3482314423
 20
175.6361054857
 10
102.3478645476
 20
175.2140045494
 10
102.4254383708
 20
174.7756481694
 10
102.5751996164
 20
174.353547233
 10
102.7860411778
 20
173.9790070358
 10
103.0423259011
 20
173.6798055108
 10
103.3250463206
 20
173.4781330663
 10
103.6132343564
 20
173.3889468249
 10
103.88551642
 20
173.4188613222
 10
104.1216985965
 20
173.5656579367
 10
104.3042643343
 20
173.8184494352
 10
104.4196735678
 20
174.1584874285
 10
104.4593669221
 20
174.5605528544
 10
104.4204005227
 20
174.9948263594
  0
ARC
  5
293
330
A
100
AcDbEntity
  8
1
  6
CONTINUOUS
370
    50
100
AcDbCircle
 10
99.1467155526
 20
171.9679097948
 30
0.0
 40
1.5840694387
100
AcDbArc
 50
187.0718339
 51
190.416217939
  0
ARC
  5
294
330
A
100
AcDbEntity
  8
1
  6
CONTINUOUS
370
    50
100
AcDbCircle
 10
93.3486794402
 20
181.7279271738
 30
0.0
 40
10.9045232039
100
AcDbArc
 50
292.8820937122
 51
294.2172889971
  0
ARC
  5
295
330
A
100
AcDbEntity
  8
1
  6
CONTINUOUS
370
    50
100
AcDbCircle
 10
97.5043073881
 20
176.4951845566
 30
0.0
 40
4.7228198914
100
AcDbArc
 50
270.8539739898
 51
273.8533608666
  0
LWPOLYLINE
  5
296
330
A
100
AcDbEntity
  8
1
  6
CONTINUOUS
370
    50
100
AcDbPolyline
 90
       18
 70
   128
 43
0.0
 10
97.5746967965
 20
174.8738748885
 10
97.5580272778
 20
174.9780562958
 10
97.5419254196
 20
175.0258897568
 10
97.5269395514
 20
175.0157463602
 10
97.5135799988
 20
174.9479715272
 10
97.5023017055
 20
174.8248732486
 10
97.4934887402
 20
174.6506434885
 10
97.4874412179
 20
174.4312154326
 10
97.4843650796
 20
174.1740614399
 10
97.4843650796
 20
173.8879385814
 10
97.4874412179
 20
173.5825904278
 10
97.4934887402
 20
173.2684152443
 10
97.5023017055
 20
172.9561118899
 10
97.5135799988
 20
172.6563154807
 10
97.5269395514
 20
172.3792352241
 10
97.5419254196
 20
172.1343067557
 10
97.5580272778
 20
171.9298708208
 10
97.5746967965
 20
171.7728892399
  0
ARC
  5
2AA
330
A
100
AcDbEntity
  8
1
  6
CONTINUOUS
370
    50
100
AcDbCircle
 10
97.6452243536
 20
170.1582256001
 30
0.0
 40
4.7161766662
100
AcDbArc
 50
87.8555877575
 51
90.856855516
  0
ARC
  5
2AB
330
A
100
AcDbEntity
  8
1
  6
CONTINUOUS
370
    50
100
AcDbCircle
 10
103.5950919444
 20
163.9224206219
 30
0.0
 40
12.3776278973
100
AcDbArc
 50
117.8033277306
 51
119.0293663287
  0
ARC
  5
2AC
330
A
100
AcDbEntity
  8
1
  6
CONTINUOUS
370
    50
100
AcDbCircle
 10
93.3194015222
 20
174.3444273104
 30
0.0
 40
4.2881059466
100
AcDbArc
 50
5.3609071017
 51
7.0923433105
  0
LWPOLYLINE
  5
2AD
330
A
100
AcDbEntity
  8
1
  6
CONTINUOUS
370
    50
100
AcDbPolyline
 90
       18
 70
   128
 43
0.0
 10
97.5746967965
 20
171.7728892399
 10
97.077132195
 20
171.7918592333
 10
96.5965115592
 20
171.8629833999
 10
96.1492018485
 20
171.9838396914
 10
95.7504356586
 20
172.1503124918
 10
95.4137924937
 20
172.3567327695
 10
95.1507363332
 20
172.5960711297
 10
94.970225239
 20
172.8601771913
 10
94.8784063
 20
173.1400571394
 10
94.8784063
 20
173.4261799979
 10
94.970225239
 20
173.7088021961
 10
95.1507363332
 20
173.9782993739
 10
95.4137924937
 20
174.2254941283
 10
95.7504356586
 20
174.4419685383
 10
96.1492018485
 20
174.6203508275
 10
96.5965115592
 20
174.754566401
 10
97.077132195
 20
174.8400447084
 10
97.5746967965
 20
174.8738748885
  0
LWPOLYLINE
  5
2C1
330
A
100
AcDbEntity
  8
1
  6
CONTINUOUS
370
    50
100
AcDbPolyline
 90
        9
 70
   128
 43
0.0
 10
97.5887510488
 20
174.7450608455
 10
97.6176708818
 20
174.7658693548
 10
97.646702804
 20
174.7852674698
 10
97.675819167
 20
174.8032367166
 10
97.7049922418
 20
174.8197599824
 10
97.7341942455
 20
174.8348215312
 10
97.7633973676
 20
174.8484070193
 10
97.7925737967
 20
174.8605035084
 10
97.8216957466
 20
174.8710994786
  0
LWPOLYLINE
  5
2CC
330
A
100
AcDbEntity
  8
1
  6
CONTINUOUS
370
    50
100
AcDbPolyline
 90
        9
 70
   128
 43
0.0
 10
97.8216957466
 20
171.7830414819
 10
97.7925737967
 20
171.7651879055
 10
97.7633973676
 20
171.7487816268
 10
97.7341942455
 20
171.7338382703
 10
97.7049922418
 20
171.7203720671
 10
97.675819167
 20
171.7083958419
 10
97.646702804
 20
171.6979210001
 10
97.6176708818
 20
171.6889575175
 10
97.5887510488
 20
171.6815139304
  0
LWPOLYLINE
  5
2D7
330
A
100
AcDbEntity
  8
1
  6
CONTINUOUS
370
    50
100
AcDbPolyline
 90
       27
 70
   128
 43
0.0
 10
102.3861475935
 20
175.077375485
 10
102.3371704891
 20
175.5676429376
 10
102.3666060997
 20
176.0294178279
 10
102.4727437347
 20
176.4358634777
 10
102.6494150605
 20
176.7633587433
 10
102.8863525819
 20
176.9928707903
 10
103.1697863514
 20
177.1110612126
 10
103.4832442285
 20
177.1110612126
 10
103.8085091807
 20
176.9928707903
 10
104.1266779914
 20
176.7633587433
 10
104.4192598458
 20
176.4358634777
 10
104.6692509499
 20
176.0294178279
 10
104.8621227295
 20
175.5676429376
 10
104.9866661778
 20
175.077375485
 10
105.0356432823
 20
174.5871080325
 10
105.0062076717
 20
174.1253331422
 10
104.9000700367
 20
173.7188874923
 10
104.7233987108
 20
173.3913922267
 10
104.4864611894
 20
173.1618801798
 10
104.2030274199
 20
173.0436897575
 10
103.8895695428
 20
173.0436897575
 10
103.5643045906
 20
173.1618801798
 10
103.2461357799
 20
173.3913922267
 10
102.9535539255
 20
173.7188874923
 10
102.7035628214
 20
174.1253331422
 10
102.5106910418
 20
174.5871080325
 10
102.3861475935
 20
175.077375485
  0
LWPOLYLINE
  5
2F4
330
A
100
AcDbEntity
  8
1
  6
CONTINUOUS
370
    50
100
AcDbPolyline
 90
       27
 70
   128
 43
0.0
 10
104.9781128382
 20
175.0763526728
 10
104.854047292
 20
175.5647388553
 10
104.6619156063
 20
176.0247418081
 10
104.4128837761
 20
176.4296278316
 10
104.1214246262
 20
176.7558664218
 10
103.8044767032
 20
176.9844977777
 10
103.4804598681
 20
177.102234676
 10
103.1682048016
 20
177.102234676
 10
102.8858586334
 20
176.9844977777
 10
102.6498302962
 20
176.7558664218
 10
102.4738368993
 20
176.4296278316
 10
102.368106539
 20
176.0247418081
 10
102.3387838797
 20
175.5647388553
 10
102.3875730477
 20
175.0763526728
 10
102.5116385938
 20
174.5879664903
 10
102.7037702796
 20
174.1279635375
 10
102.9528021098
 20
173.723077514
 10
103.2442612596
 20
173.3968389237
 10
103.5612091827
 20
173.1682075678
 10
103.8852260178
 20
173.0504706696
 10
104.1974810842
 20
173.0504706696
 10
104.4798272525
 20
173.1682075678
 10
104.7158555897
 20
173.3968389237
 10
104.8918489866
 20
173.723077514
 10
104.9975793469
 20
174.1279635375
 10
105.0269020062
 20
174.5879664903
 10
104.9781128382
 20
175.0763526728
  0
LINE
  5
311
330
A
100
AcDbEntity
  8
1
  6
CONTINUOUS
370
    50
100
AcDbLine
 10
101.8853686598
 20
157.8887721282
 30
0.0
 11
101.8853686598
 21
164.8887721282
 31
0.0
  0
LINE
  5
312
330
A
100
AcDbEntity
  8
1
  6
CONTINUOUS
370
    50
100
AcDbLine
 10
101.8853686598
 20
172.5622814282
 30
0.0
 11
101.8853686598
 21
172.7152147823
 31
0.0
  0
LINE
  5
313
330
A
100
AcDbEntity
  8
1
  6
CONTINUOUS
370
    50
100
AcDbLine
 10
101.8853686598
 20
165.7152147823
 30
0.0
 11
101.8853686598
 21
172.5622814282
 31
0.0
  0
LINE
  5
314
330
A
100
AcDbEntity
  8
1
  6
CONTINUOUS
370
    50
100
AcDbLine
 10
89.5353686598
 20
146.4452105057
 30
0.0
 11
93.5353686598
 21
146.4452105057
 31
0.0
  0
LINE
  5
315
330
A
100
AcDbEntity
  8
1
  6
CONTINUOUS
370
    50
100
AcDbLine
 10
89.5353686598
 20
186.4452105057
 30
0.0
 11
89.5353686598
 21
146.4452105057
 31
0.0
  0
LINE
  5
316
330
A
100
AcDbEntity
  8
1
  6
CONTINUOUS
370
    50
100
AcDbLine
 10
93.5353686598
 20
146.4452105057
 30
0.0
 11
93.5353686598
 21
186.4452105057
 31
0.0
  0
LINE
  5
317
330
A
100
AcDbEntity
  8
1
  6
CONTINUOUS
370
    50
100
AcDbLine
 10
104.3353686598
 20
146.4452105057
 30
0.0
 11
104.3353686598
 21
186.4452105057
 31
0.0
  0
LINE
  5
318
330
A
100
AcDbEntity
  8
1
  6
CONTINUOUS
370
    50
100
AcDbLine
 10
102.3353686598
 20
146.4452105057
 30
0.0
 11
104.3353686598
 21
146.4452105057
 31
0.0
  0
LINE
  5
319
330
A
100
AcDbEntity
  8
1
  6
CONTINUOUS
370
    50
100
AcDbLine
 10
102.3353686598
 20
186.4452105057
 30
0.0
 11
102.3353686598
 21
146.4452105057
 31
0.0
  0
LINE
  5
31A
330
A
100
AcDbEntity
  8
1
  6
CONTINUOUS
370
    50
100
AcDbLine
 10
104.3353686598
 20
186.4452105057
 30
0.0
 11
102.3353686598
 21
186.4452105057
 31
0.0
  0
LINE
  5
31B
330
A
100
AcDbEntity
  8
1
  6
CONTINUOUS
370
    50
100
AcDbLine
 10
93.5353686598
 20
186.4452105057
 30
0.0
 11
89.5353686598
 21
186.4452105057
 31
0.0
  0
LINE
  5
31C
330
A
100
AcDbEntity
  8
1
  6
CONTINUOUS
370
    50
100
AcDbLine
 10
105.7853686598
 20
159.395436506
 30
0.0
 11
104.2656996533
 21
159.8315647583
 31
0.0
  0
LINE
  5
31D
330
A
100
AcDbEntity
  8
1
  6
CONTINUOUS
370
    50
100
AcDbLine
 10
103.107114118
 20
155.7945262946
 30
0.0
 11
105.7853686598
 21
155.0258967658
 31
0.0
  0
LINE
  5
31E
330
A
100
AcDbEntity
  8
1
  6
CONTINUOUS
370
    50
100
AcDbLine
 10
87.7353686598
 20
155.5140099742
 30
0.0
 11
97.5378606667
 21
157.8615605819
 31
0.0
  0
LINE
  5
31F
330
A
100
AcDbEntity
  8
1
  6
CONTINUOUS
370
    50
100
AcDbLine
 10
96.475183691
 20
161.0003786221
 30
0.0
 11
87.7353686598
 21
158.9073232976
 31
0.0
  0
LINE
  5
320
330
A
100
AcDbEntity
  8
1
  6
CONTINUOUS
370
    50
100
AcDbLine
 10
102.8334702564
 20
158.9918298875
 30
0.0
 11
102.7288332721
 21
158.8245433178
 31
0.0
  0
LINE
  5
321
330
A
100
AcDbEntity
  8
1
  6
CONTINUOUS
370
    50
100
AcDbLine
 10
102.3381686658
 20
157.4632903122
 30
0.0
 11
102.3381686658
 21
157.2659740816
 31
0.0
  0
LINE
  5
322
330
A
100
AcDbEntity
  8
1
  6
CONTINUOUS
370
    50
100
AcDbLine
 10
103.8539268249
 20
159.4815740485
 30
0.0
 11
95.7150766145
 21
161.8173343372
 31
0.0
  0
LINE
  5
323
330
A
100
AcDbEntity
  8
1
  6
CONTINUOUS
370
    50
100
AcDbLine
 10
97.5357646664
 20
157.8616071415
 30
0.0
 11
102.9436096186
 21
156.3096152556
 31
0.0
  0
LINE
  5
324
330
A
100
AcDbEntity
  8
1
  6
CONTINUOUS
370
    50
100
AcDbLine
 10
94.8047594082
 20
158.6453755443
 30
0.0
 11
96.4126206615
 21
158.1839370895
 31
0.0
  0
LINE
  5
325
330
A
100
AcDbEntity
  8
1
  6
CONTINUOUS
370
    50
100
AcDbLine
 10
87.9885225533
 20
189.4378695371
 30
0.0
 11
87.7353686598
 21
189.9807598137
 31
0.0
  0
ARC
  5
326
330
A
100
AcDbEntity
  8
1
  6
CONTINUOUS
370
    50
100
AcDbCircle
 10
87.5353686598
 20
189.2265604062
 30
0.0
 40
0.5
100
AcDbArc
 50
0.0
 51
25.0
  0
ARC
  5
327
330
A
100
AcDbEntity
  8
1
  6
CONTINUOUS
370
    50
100
AcDbCircle
 10
87.5353686598
 20
144.0202105057
 30
0.0
 40
0.5
100
AcDbArc
 50
0.0
 51
66.4218215218
  0
ARC
  5
328
330
A
100
AcDbEntity
  8
1
  6
CONTINUOUS
370
    50
100
AcDbCircle
 10
87.5353686598
 20
188.8702105057
 30
0.0
 40
0.5
100
AcDbArc
 50
293.5781784782001
 51
0.0
  0
LINE
  5
329
330
A
100
AcDbEntity
  8
1
  6
CONTINUOUS
370
    50
100
AcDbLine
 10
95.7074161701
 20
161.8195328003
 30
0.0
 11
82.8879006508
 21
165.4985924335
 31
0.0
  0
LINE
  5
32A
330
A
100
AcDbEntity
  8
1
  6
CONTINUOUS
370
    50
100
AcDbLine
 10
80.6910326761
 20
162.6958595283
 30
0.0
 11
94.7970989638
 21
158.6475740074
 31
0.0
  0
ARC
  5
32B
330
A
100
AcDbEntity
  8
1
  6
CONTINUOUS
370
    50
100
AcDbCircle
 10
19.4853686598
 20
156.9452105057
 30
0.0
 40
1.0
100
AcDbArc
 50
136.778654881
 51
180.0
  0
ARC
  5
32C
330
A
100
AcDbEntity
  8
1
  6
CONTINUOUS
370
    50
100
AcDbCircle
 10
19.4853686598
 20
175.9452105057
 30
0.0
 40
1.0
100
AcDbArc
 50
180.0
 51
223.221345119
  0
LINE
  5
32D
330
A
100
AcDbEntity
  8
1
  6
CONTINUOUS
370
    50
100
AcDbLine
 10
18.7566551059
 20
157.630029136
 30
0.0
 11
19.2566551059
 21
157.9187042706
 31
0.0
  0
LINE
  5
32E
330
A
100
AcDbEntity
  8
1
  6
CONTINUOUS
370
    50
100
AcDbLine
 10
19.2566551059
 20
174.9717167408
 30
0.0
 11
18.7566551059
 21
175.2603918754
 31
0.0
  0
LINE
  5
32F
330
A
100
AcDbEntity
  8
1
  6
CONTINUOUS
370
    50
100
AcDbLine
 10
26.9853686598
 20
175.0952105057
 30
0.0
 11
24.6750800915
 21
175.0952105057
 31
0.0
  0
LINE
  5
330
330
A
100
AcDbEntity
  8
1
  6
CONTINUOUS
370
    50
100
AcDbLine
 10
24.6750800915
 20
157.7952105057
 30
0.0
 11
26.9853686598
 21
157.7952105057
 31
0.0
  0
LINE
  5
331
330
A
100
AcDbEntity
  8
1
  6
CONTINUOUS
370
    50
100
AcDbLine
 10
24.6750800915
 20
175.0952105057
 30
0.0
 11
24.4152724704
 21
174.9452105057
 31
0.0
  0
LINE
  5
332
330
A
100
AcDbEntity
  8
1
  6
CONTINUOUS
370
    50
100
AcDbLine
 10
24.4152724704
 20
157.9452105057
 30
0.0
 11
24.6750800915
 21
157.7952105057
 31
0.0
  0
LINE
  5
333
330
A
100
AcDbEntity
  8
1
  6
CONTINUOUS
370
    50
100
AcDbLine
 10
26.9853686598
 20
157.7952105057
 30
0.0
 11
27.8946953338
 21
159.3702105057
 31
0.0
  0
LINE
  5
334
330
A
100
AcDbEntity
  8
1
  6
CONTINUOUS
370
    50
100
AcDbLine
 10
27.8946953338
 20
173.5202105057
 30
0.0
 11
26.9853686598
 21
175.0952105057
 31
0.0
  0
ARC
  5
335
330
A
100
AcDbEntity
  8
1
  6
CONTINUOUS
370
    50
100
AcDbCircle
 10
19.4853686598
 20
156.9452105057
 30
0.0
 40
1.0
100
AcDbArc
 50
90.0
 51
103.221345119
  0
ARC
  5
336
330
A
100
AcDbEntity
  8
1
  6
CONTINUOUS
370
    50
100
AcDbCircle
 10
19.4853686598
 20
175.9452105057
 30
0.0
 40
1.0
100
AcDbArc
 50
256.778654881
 51
270.0
  0
LINE
  5
337
330
A
100
AcDbEntity
  8
1
  6
CONTINUOUS
370
    50
100
AcDbLine
 10
19.4853686598
 20
157.9452105057
 30
0.0
 11
24.4152724704
 21
157.9452105057
 31
0.0
  0
LINE
  5
338
330
A
100
AcDbEntity
  8
1
  6
CONTINUOUS
370
    50
100
AcDbLine
 10
24.4152724704
 20
174.9452105057
 30
0.0
 11
19.4853686598
 21
174.9452105057
 31
0.0
  0
LINE
  5
339
330
A
100
AcDbEntity
  8
1
  6
CONTINUOUS
370
    50
100
AcDbLine
 10
63.4853686598
 20
173.5202105057
 30
0.0
 11
52.4853686598
 21
173.5202105057
 31
0.0
  0
LINE
  5
33A
330
A
100
AcDbEntity
  8
1
  6
CONTINUOUS
370
    50
100
AcDbLine
 10
52.4853686598
 20
159.3702105057
 30
0.0
 11
63.4853686598
 21
159.3702105057
 31
0.0
  0
LINE
  5
33B
330
A
100
AcDbEntity
  8
1
  6
CONTINUOUS
370
    50
100
AcDbLine
 10
52.4753686598
 20
173.5202105057
 30
0.0
 11
27.8946953338
 21
173.5202105057
 31
0.0
  0
LINE
  5
33C
330
A
100
AcDbEntity
  8
1
  6
CONTINUOUS
370
    50
100
AcDbLine
 10
27.8946953338
 20
159.3702105057
 30
0.0
 11
52.4753686598
 21
159.3702105057
 31
0.0
  0
LINE
  5
33D
330
A
100
AcDbEntity
  8
1
  6
CONTINUOUS
370
    50
100
AcDbLine
 10
97.4853686598
 20
159.4202105057
 30
0.0
 11
98.6545029549
 21
161.4452105057
 31
0.0
  0
LINE
  5
33E
330
A
100
AcDbEntity
  8
1
  6
CONTINUOUS
370
    50
100
AcDbLine
 10
98.6545029549
 20
171.4452105057
 30
0.0
 11
97.4853686598
 21
173.4702105057
 31
0.0
  0
LINE
  5
33F
330
A
100
AcDbEntity
  8
1
  6
CONTINUOUS
370
    50
100
AcDbLine
 10
97.4853686598
 20
173.4702105057
 30
0.0
 11
63.5035671715
 21
173.4702105057
 31
0.0
  0
LINE
  5
340
330
A
100
AcDbEntity
  8
1
  6
CONTINUOUS
370
    50
100
AcDbLine
 10
63.5035671715
 20
159.4202105057
 30
0.0
 11
97.4853686598
 21
159.4202105057
 31
0.0
  0
ARC
  5
341
330
A
100
AcDbEntity
  8
1
  6
CONTINUOUS
370
    50
100
AcDbCircle
 10
165.2353686598
 20
160.0102105057
 30
0.0
 40
1.5
100
AcDbArc
 50
0.0
 51
73.0710674448
  0
ARC
  5
342
330
A
100
AcDbEntity
  8
1
  6
CONTINUOUS
370
    50
100
AcDbCircle
 10
165.2353686598
 20
172.8802105057
 30
0.0
 40
1.5
100
AcDbArc
 50
286.9289325552
 51
0.0
  0
LINE
  5
343
330
A
100
AcDbEntity
  8
1
  6
CONTINUOUS
370
    50
100
AcDbLine
 10
134.6198986098
 20
161.2452105057
 30
0.0
 11
134.7353686636
 21
161.4452105057
 31
0.0
  0
LINE
  5
344
330
A
100
AcDbEntity
  8
1
  6
CONTINUOUS
370
    50
100
AcDbLine
 10
134.7353686636
 20
171.4452105057
 30
0.0
 11
134.6198986098
 21
171.6452105057
 31
0.0
  0
LINE
  5
345
330
A
100
AcDbEntity
  8
1
  6
CONTINUOUS
370
    50
100
AcDbLine
 10
125.2353686598
 20
161.2452105057
 30
0.0
 11
134.6198986098
 21
161.2452105057
 31
0.0
  0
LINE
  5
346
330
A
100
AcDbEntity
  8
1
  6
CONTINUOUS
370
    50
100
AcDbLine
 10
134.6198986098
 20
171.6452105057
 30
0.0
 11
125.2353686598
 21
171.6452105057
 31
0.0
  0
ARC
  5
347
330
A
100
AcDbEntity
  8
1
  6
CONTINUOUS
370
    50
100
AcDbCircle
 10
125.2353686598
 20
161.7452105057
 30
0.0
 40
0.5
100
AcDbArc
 50
180.0
 51
270.0
  0
ARC
  5
348
330
A
100
AcDbEntity
  8
1
  6
CONTINUOUS
370
    50
100
AcDbCircle
 10
125.2353686598
 20
171.1452105057
 30
0.0
 40
0.5
100
AcDbArc
 50
90.0
 51
180.0
  0
LINE
  5
349
330
A
100
AcDbEntity
  8
1
  6
CONTINUOUS
370
    50
100
AcDbLine
 10
92.6353686598
 20
191.2452105057
 30
0.0
 11
92.8353686598
 21
191.0452105057
 31
0.0
  0
LINE
  5
34A
330
A
100
AcDbEntity
  8
1
  6
CONTINUOUS
370
    50
100
AcDbLine
 10
102.8353686598
 20
191.0452105057
 30
0.0
 11
103.0353686598
 21
191.2452105057
 31
0.0
  0
LINE
  5
34B
330
A
100
AcDbEntity
  8
1
  6
CONTINUOUS
370
    50
100
AcDbLine
 10
107.4853686598
 20
161.4452105057
 30
0.0
 11
108.3513940636
 21
162.9452105057
 31
0.0
  0
LINE
  5
34C
330
A
100
AcDbEntity
  8
1
  6
CONTINUOUS
370
    50
100
AcDbLine
 10
108.3513940636
 20
169.9452105057
 30
0.0
 11
107.4853686598
 21
171.4452105057
 31
0.0
  0
LINE
  5
34D
330
A
100
AcDbEntity
  8
1
  6
CONTINUOUS
370
    50
100
AcDbLine
 10
134.7353686636
 20
161.4452105057
 30
0.0
 11
165.6721466354
 21
161.4452105057
 31
0.0
  0
LINE
  5
34E
330
A
100
AcDbEntity
  8
1
  6
CONTINUOUS
370
    50
100
AcDbLine
 10
165.6721466354
 20
171.4452105057
 30
0.0
 11
134.7353686636
 21
171.4452105057
 31
0.0
  0
LINE
  5
34F
330
A
100
AcDbEntity
  8
1
  6
CONTINUOUS
370
    50
100
AcDbLine
 10
98.6545029549
 20
161.4452105057
 30
0.0
 11
107.4853686598
 21
161.4452105057
 31
0.0
  0
LINE
  5
350
330
A
100
AcDbEntity
  8
1
  6
CONTINUOUS
370
    50
100
AcDbLine
 10
107.4853686598
 20
171.4452105057
 30
0.0
 11
98.6545029549
 21
171.4452105057
 31
0.0
  0
ARC
  5
351
330
A
100
AcDbEntity
  8
1
  6
CONTINUOUS
370
    50
100
AcDbCircle
 10
93.1353686598
 20
186.8452105057
 30
0.0
 40
0.3
100
AcDbArc
 50
180.0
 51
270.0
  0
ARC
  5
352
330
A
100
AcDbEntity
  8
1
  6
CONTINUOUS
370
    50
100
AcDbCircle
 10
102.5353686598
 20
186.8452105057
 30
0.0
 40
0.3
100
AcDbArc
 50
270.0
 51
0.0
  0
LINE
  5
353
330
A
100
AcDbEntity
  8
1
  6
CONTINUOUS
370
    50
100
AcDbLine
 10
92.8353686598
 20
191.0452105057
 30
0.0
 11
92.8353686598
 21
186.8452105057
 31
0.0
  0
LINE
  5
354
330
A
100
AcDbEntity
  8
1
  6
CONTINUOUS
370
    50
100
AcDbLine
 10
102.8353686598
 20
186.8452105057
 30
0.0
 11
102.8353686598
 21
191.0452105057
 31
0.0
  0
LINE
  5
355
330
A
100
AcDbEntity
  8
1
  6
CONTINUOUS
370
    50
100
AcDbLine
 10
108.3513940636
 20
162.9452105057
 30
0.0
 11
124.7353686598
 21
162.9452105057
 31
0.0
  0
LINE
  5
356
330
A
100
AcDbEntity
  8
1
  6
CONTINUOUS
370
    50
100
AcDbLine
 10
124.7353686598
 20
169.9452105057
 30
0.0
 11
108.3513940636
 21
169.9452105057
 31
0.0
  0
LINE
  5
357
330
A
100
AcDbEntity
  8
1
  6
CONTINUOUS
370
    50
100
AcDbLine
 10
96.3353686598
 20
186.5452105057
 30
0.0
 11
96.7353686598
 21
186.1452105057
 31
0.0
  0
LINE
  5
358
330
A
100
AcDbEntity
  8
1
  6
CONTINUOUS
370
    50
100
AcDbLine
 10
98.9353686598
 20
186.1452105057
 30
0.0
 11
99.3353686598
 21
186.5452105057
 31
0.0
  0
LINE
  5
359
330
A
100
AcDbEntity
  8
1
  6
CONTINUOUS
370
    50
100
AcDbLine
 10
96.7353686598
 20
180.1452105057
 30
0.0
 11
97.8353686598
 21
179.744843248
 31
0.0
  0
LINE
  5
35A
330
A
100
AcDbEntity
  8
1
  6
CONTINUOUS
370
    50
100
AcDbLine
 10
97.8353686598
 20
179.744843248
 30
0.0
 11
98.9353686598
 21
180.1452105057
 31
0.0
  0
LINE
  5
35B
330
A
100
AcDbEntity
  8
1
  6
CONTINUOUS
370
    50
100
AcDbLine
 10
96.7353686598
 20
182.7352105057
 30
0.0
 11
96.7353686598
 21
180.1452105057
 31
0.0
  0
LINE
  5
35C
330
A
100
AcDbEntity
  8
1
  6
CONTINUOUS
370
    50
100
AcDbLine
 10
98.9353686598
 20
180.1452105057
 30
0.0
 11
98.9353686598
 21
182.7352105057
 31
0.0
  0
LINE
  5
35D
330
A
100
AcDbEntity
  8
1
  6
CONTINUOUS
370
    50
100
AcDbLine
 10
96.7353686598
 20
186.1452105057
 30
0.0
 11
96.7353686598
 21
182.7452105057
 31
0.0
  0
LINE
  5
35E
330
A
100
AcDbEntity
  8
1
  6
CONTINUOUS
370
    50
100
AcDbLine
 10
98.9353686598
 20
182.7452105057
 30
0.0
 11
98.9353686598
 21
186.1452105057
 31
0.0
  0
LINE
  5
35F
330
A
100
AcDbEntity
  8
1
  6
CONTINUOUS
370
    50
100
AcDbLine
 10
94.7970989638
 20
174.2428470041
 30
0.0
 11
80.6910326761
 21
170.1945614831
 31
0.0
  0
LINE
  5
360
330
A
100
AcDbEntity
  8
1
  6
CONTINUOUS
370
    50
100
AcDbLine
 10
82.888000077
 20
167.3918571122
 30
0.0
 11
95.7074161701
 21
171.0708882112
 31
0.0
  0
LINE
  5
361
330
A
100
AcDbEntity
  8
1
  6
CONTINUOUS
370
    50
100
AcDbLine
 10
96.4126206615
 20
174.706483922
 30
0.0
 11
94.8047594082
 21
174.2450454672
 31
0.0
  0
LINE
  5
362
330
A
100
AcDbEntity
  8
1
  6
CONTINUOUS
370
    50
100
AcDbLine
 10
102.9436096186
 20
176.5808057559
 30
0.0
 11
97.5357646664
 21
175.02881387
 31
0.0
  0
LINE
  5
363
330
A
100
AcDbEntity
  8
1
  6
CONTINUOUS
370
    50
100
AcDbLine
 10
95.7150766145
 20
171.0730866743
 30
0.0
 11
103.8539268249
 21
173.4088469629
 31
0.0
  0
LINE
  5
364
330
A
100
AcDbEntity
  8
1
  6
CONTINUOUS
370
    50
100
AcDbLine
 10
87.7353686598
 20
173.9830977138
 30
0.0
 11
96.475183691
 21
171.8900423893
 31
0.0
  0
LINE
  5
365
330
A
100
AcDbEntity
  8
1
  6
CONTINUOUS
370
    50
100
AcDbLine
 10
97.5378606667
 20
175.0288604295
 30
0.0
 11
87.7353686598
 21
177.3764110372
 31
0.0
  0
LINE
  5
366
330
A
100
AcDbEntity
  8
1
  6
CONTINUOUS
370
    50
100
AcDbLine
 10
105.7853686598
 20
177.8645242456
 30
0.0
 11
103.107114118
 21
177.0958947169
 31
0.0
  0
LINE
  5
367
330
A
100
AcDbEntity
  8
1
  6
CONTINUOUS
370
    50
100
AcDbLine
 10
104.2656996533
 20
173.0588562532
 30
0.0
 11
105.7853686598
 21
173.4949845054
 31
0.0
  0
LINE
  5
368
330
A
100
AcDbEntity
  8
1
  6
CONTINUOUS
370
    50
100
AcDbLine
 10
102.3381686658
 20
175.6244469299
 30
0.0
 11
102.3381686658
 21
175.4271306993
 31
0.0
  0
LINE
  5
369
330
A
100
AcDbEntity
  8
1
  6
CONTINUOUS
370
    50
100
AcDbLine
 10
102.7288332721
 20
174.0658776936
 30
0.0
 11
102.8334702564
 21
173.898591124
 31
0.0
  0
LINE
  5
36A
330
A
100
AcDbEntity
  8
1
  6
CONTINUOUS
370
    50
100
AcDbLine
 10
101.8853686598
 20
157.8887721282
 30
0.0
 11
105.7853686598
 21
157.8887721282
 31
0.0
  0
LINE
  5
36B
330
A
100
AcDbEntity
  8
1
  6
CONTINUOUS
370
    50
100
AcDbLine
 10
105.7853686598
 20
164.8887721282
 30
0.0
 11
101.8853686598
 21
164.8887721282
 31
0.0
  0
LINE
  5
36C
330
A
100
AcDbEntity
  8
1
  6
CONTINUOUS
370
    50
100
AcDbLine
 10
101.8853686598
 20
164.8887721282
 30
0.0
 11
100.6114728399
 21
161.3887721282
 31
0.0
  0
LINE
  5
36D
330
A
100
AcDbEntity
  8
1
  6
CONTINUOUS
370
    50
100
AcDbLine
 10
100.6114728399
 20
161.3887721282
 30
0.0
 11
101.8853686598
 21
157.8887721282
 31
0.0
  0
LINE
  5
36E
330
A
100
AcDbEntity
  8
1
  6
CONTINUOUS
370
    50
100
AcDbLine
 10
101.8853686598
 20
165.7152147823
 30
0.0
 11
105.7853686598
 21
165.7152147823
 31
0.0
  0
LINE
  5
36F
330
A
100
AcDbEntity
  8
1
  6
CONTINUOUS
370
    50
100
AcDbLine
 10
105.7853686598
 20
172.7152147823
 30
0.0
 11
101.8853686598
 21
172.7152147823
 31
0.0
  0
LINE
  5
370
330
A
100
AcDbEntity
  8
1
  6
CONTINUOUS
370
    50
100
AcDbLine
 10
101.8853686598
 20
172.7152147823
 30
0.0
 11
100.6114728399
 21
169.2152147823
 31
0.0
  0
LINE
  5
371
330
A
100
AcDbEntity
  8
1
  6
CONTINUOUS
370
    50
100
AcDbLine
 10
100.6114728399
 20
169.2152147823
 30
0.0
 11
101.8853686598
 21
165.7152147823
 31
0.0
  0
LINE
  5
372
330
A
100
AcDbEntity
  8
1
  6
CONTINUOUS
370
    50
100
AcDbLine
 10
87.5353686598
 20
188.3702105057
 30
0.0
 11
87.5353686598
 21
144.5202105057
 31
0.0
  0
LINE
  5
373
330
A
100
AcDbEntity
  8
1
  6
CONTINUOUS
370
    50
100
AcDbLine
 10
87.2782589364
 20
188.4170566122
 30
0.0
 11
87.2782589364
 21
144.4733643992
 31
0.0
  0
LINE
  5
374
330
A
100
AcDbEntity
  8
1
  6
CONTINUOUS
370
    50
100
AcDbLine
 10
87.4895680673
 20
188.3702105057
 30
0.0
 11
87.4895680673
 21
144.5202105057
 31
0.0
  0
LINE
  5
375
330
A
100
AcDbEntity
  8
1
  6
CONTINUOUS
370
    50
100
AcDbLine
 10
19.2378525535
 20
178.8248185434
 30
0.0
 11
19.2378525535
 21
154.065602468
 31
0.0
  0
LINE
  5
376
330
A
100
AcDbEntity
  8
1
  6
CONTINUOUS
370
    50
100
AcDbLine
 10
94.013915384
 20
172.6568676076
 30
0.0
 11
93.9671609453
 21
173.2319553028
 31
0.0
  0
LINE
  5
377
330
A
100
AcDbEntity
  8
1
  6
CONTINUOUS
370
    50
100
AcDbLine
 10
93.9671609453
 20
173.2319553028
 30
0.0
 11
94.034592981
 21
173.7559439326
 31
0.0
  0
LINE
  5
378
330
A
100
AcDbEntity
  8
1
  6
CONTINUOUS
370
    50
100
AcDbLine
 10
94.034592981
 20
173.7559439326
 30
0.0
 11
94.2102198587
 21
174.1822748076
 31
0.0
  0
LINE
  5
379
330
A
100
AcDbEntity
  8
1
  6
CONTINUOUS
370
    50
100
AcDbLine
 10
94.2102198587
 20
174.1822748076
 30
0.0
 11
94.4784363598
 21
174.4730665588
 31
0.0
  0
LINE
  5
37A
330
A
100
AcDbEntity
  8
1
  6
CONTINUOUS
370
    50
100
AcDbLine
 10
94.4784363598
 20
174.4730665588
 30
0.0
 11
94.815410271
 21
174.602481063
 31
0.0
  0
LINE
  5
37B
330
A
100
AcDbEntity
  8
1
  6
CONTINUOUS
370
    50
100
AcDbLine
 10
94.815410271
 20
174.602481063
 30
0.0
 11
95.1911999815
 21
174.5590192734
 31
0.0
  0
LINE
  5
37C
330
A
100
AcDbEntity
  8
1
  6
CONTINUOUS
370
    50
100
AcDbLine
 10
95.1911999815
 20
174.5590192734
 30
0.0
 11
95.5724149264
 21
174.3465429609
 31
0.0
  0
LINE
  5
37D
330
A
100
AcDbEntity
  8
1
  6
CONTINUOUS
370
    50
100
AcDbLine
 10
95.5724149264
 20
174.3465429609
 30
0.0
 11
95.9251824849
 21
173.9839315782
 31
0.0
  0
LINE
  5
37E
330
A
100
AcDbEntity
  8
1
  6
CONTINUOUS
370
    50
100
AcDbLine
 10
95.9251824849
 20
173.9839315782
 30
0.0
 11
96.2181577114
 21
173.503404738
 31
0.0
  0
LINE
  5
37F
330
A
100
AcDbEntity
  8
1
  6
CONTINUOUS
370
    50
100
AcDbLine
 10
96.2181577114
 20
173.503404738
 30
0.0
 11
96.4253084713
 21
172.9476593588
 31
0.0
  0
LINE
  5
380
330
A
100
AcDbEntity
  8
1
  6
CONTINUOUS
370
    50
100
AcDbLine
 10
96.4253084713
 20
172.9476593588
 30
0.0
 11
96.5282285104
 21
172.3660758564
 31
0.0
  0
LINE
  5
381
330
A
100
AcDbEntity
  8
1
  6
CONTINUOUS
370
    50
100
AcDbLine
 10
96.5282285104
 20
172.3660758564
 30
0.0
 11
96.5177729317
 21
171.8103304772
 31
0.0
  0
LINE
  5
382
330
A
100
AcDbEntity
  8
1
  6
CONTINUOUS
370
    50
100
AcDbLine
 10
96.5177729317
 20
171.8103304772
 30
0.0
 11
96.3948707593
 21
171.329803637
 31
0.0
  0
LINE
  5
383
330
A
100
AcDbEntity
  8
1
  6
CONTINUOUS
370
    50
100
AcDbLine
 10
96.3948707593
 20
171.329803637
 30
0.0
 11
96.1704423904
 21
170.9671922544
 31
0.0
  0
LINE
  5
384
330
A
100
AcDbEntity
  8
1
  6
CONTINUOUS
370
    50
100
AcDbLine
 10
96.1704423904
 20
170.9671922544
 30
0.0
 11
95.8644292706
 21
170.7547159418
 31
0.0
  0
LINE
  5
385
330
A
100
AcDbEntity
  8
1
  6
CONTINUOUS
370
    50
100
AcDbLine
 10
95.8644292706
 20
170.7547159418
 30
0.0
 11
95.5040220084
 21
170.7112541523
 31
0.0
  0
LINE
  5
386
330
A
100
AcDbEntity
  8
1
  6
CONTINUOUS
370
    50
100
AcDbLine
 10
95.5040220084
 20
170.7112541523
 30
0.0
 11
95.1212443707
 21
170.8406686564
 31
0.0
  0
LINE
  5
387
330
A
100
AcDbEntity
  8
1
  6
CONTINUOUS
370
    50
100
AcDbLine
 10
95.1212443707
 20
170.8406686564
 30
0.0
 11
94.7501078305
 21
171.1314604076
 31
0.0
  0
LINE
  5
388
330
A
100
AcDbEntity
  8
1
  6
CONTINUOUS
370
    50
100
AcDbLine
 10
94.7501078305
 20
171.1314604076
 30
0.0
 11
94.423589498
 21
171.5577912827
 31
0.0
  0
LINE
  5
389
330
A
100
AcDbEntity
  8
1
  6
CONTINUOUS
370
    50
100
AcDbLine
 10
94.423589498
 20
171.5577912827
 30
0.0
 11
94.17070196
 21
172.0817799124
 31
0.0
  0
LINE
  5
38A
330
A
100
AcDbEntity
  8
1
  6
CONTINUOUS
370
    50
100
AcDbLine
 10
94.17070196
 20
172.0817799124
 30
0.0
 11
94.013915384
 21
172.6568676076
 31
0.0
  0
LINE
  5
38B
330
A
100
AcDbEntity
  8
1
  6
CONTINUOUS
370
    50
100
AcDbLine
 10
102.188114823
 20
176.120508008
 30
0.0
 11
102.1144308177
 21
175.6007798844
 31
0.0
  0
LINE
  5
38C
330
A
100
AcDbEntity
  8
1
  6
CONTINUOUS
370
    50
100
AcDbLine
 10
102.1144308177
 20
175.6007798844
 30
0.0
 11
102.1548658269
 21
175.0272101309
 31
0.0
  0
LINE
  5
38D
330
A
100
AcDbEntity
  8
1
  6
CONTINUOUS
370
    50
100
AcDbLine
 10
102.1548658269
 20
175.0272101309
 30
0.0
 11
102.3058270228
 21
174.4507629372
 31
0.0
  0
LINE
  5
38E
330
A
100
AcDbEntity
  8
1
  6
CONTINUOUS
370
    50
100
AcDbLine
 10
102.3058270228
 20
174.4507629372
 30
0.0
 11
102.5539008404
 21
173.9226581661
 31
0.0
  0
LINE
  5
38F
330
A
100
AcDbEntity
  8
1
  6
CONTINUOUS
370
    50
100
AcDbLine
 10
102.5539008404
 20
173.9226581661
 30
0.0
 11
102.8770448325
 21
173.4898202441
 31
0.0
  0
LINE
  5
390
330
A
100
AcDbEntity
  8
1
  6
CONTINUOUS
370
    50
100
AcDbLine
 10
102.8770448325
 20
173.4898202441
 30
0.0
 11
103.2465462373
 21
173.1907087201
 31
0.0
  0
LINE
  5
391
330
A
100
AcDbEntity
  8
1
  6
CONTINUOUS
370
    50
100
AcDbLine
 10
103.2465462373
 20
173.1907087201
 30
0.0
 11
103.6295732334
 21
173.0519009656
 31
0.0
  0
LINE
  5
392
330
A
100
AcDbEntity
  8
1
  6
CONTINUOUS
370
    50
100
AcDbLine
 10
103.6295732334
 20
173.0519009656
 30
0.0
 11
103.9920921914
 21
173.0857306587
 31
0.0
  0
LINE
  5
393
330
A
100
AcDbEntity
  8
1
  6
CONTINUOUS
370
    50
100
AcDbLine
 10
103.9920921914
 20
173.0857306587
 30
0.0
 11
104.3018917109
 21
173.2891918828
 31
0.0
  0
LINE
  5
394
330
A
100
AcDbEntity
  8
1
  6
CONTINUOUS
370
    50
100
AcDbLine
 10
104.3018917109
 20
173.2891918828
 30
0.0
 11
104.5314447451
 21
173.6442062151
 31
0.0
  0
LINE
  5
395
330
A
100
AcDbEntity
  8
1
  6
CONTINUOUS
370
    50
100
AcDbLine
 10
104.5314447451
 20
173.6442062151
 30
0.0
 11
104.6603544995
 21
174.1192290744
 31
0.0
  0
LINE
  5
396
330
A
100
AcDbEntity
  8
1
  6
CONTINUOUS
370
    50
100
AcDbLine
 10
104.6603544995
 20
174.1192290744
 30
0.0
 11
104.6771667768
 21
174.6720525949
 31
0.0
  0
LINE
  5
397
330
A
100
AcDbEntity
  8
1
  6
CONTINUOUS
370
    50
100
AcDbLine
 10
104.6771667768
 20
174.6720525949
 30
0.0
 11
104.5803877323
 21
175.2535559809
 31
0.0
  0
LINE
  5
398
330
A
100
AcDbEntity
  8
1
  6
CONTINUOUS
370
    50
100
AcDbLine
 10
104.5803877323
 20
175.2535559809
 30
0.0
 11
104.3786166088
 21
175.8120701046
 31
0.0
  0
LINE
  5
399
330
A
100
AcDbEntity
  8
1
  6
CONTINUOUS
370
    50
100
AcDbLine
 10
104.3786166088
 20
175.8120701046
 30
0.0
 11
104.0897816562
 21
176.2979685351
 31
0.0
  0
LINE
  5
39A
330
A
100
AcDbEntity
  8
1
  6
CONTINUOUS
370
    50
100
AcDbLine
 10
104.0897816562
 20
176.2979685351
 30
0.0
 11
103.7395471274
 21
176.6680770645
 31
0.0
  0
LINE
  5
39B
330
A
100
AcDbEntity
  8
1
  6
CONTINUOUS
370
    50
100
AcDbLine
 10
103.7395471274
 20
176.6680770645
 30
0.0
 11
103.3590328974
 21
176.8895099259
 31
0.0
  0
LINE
  5
39C
330
A
100
AcDbEntity
  8
1
  6
CONTINUOUS
370
    50
100
AcDbLine
 10
103.3590328974
 20
176.8895099259
 30
0.0
 11
102.9820493253
 21
176.9425918377
 31
0.0
  0
LINE
  5
39D
330
A
100
AcDbEntity
  8
1
  6
CONTINUOUS
370
    50
100
AcDbLine
 10
102.9820493253
 20
176.9425918377
 30
0.0
 11
102.6420930559
 21
176.8226062392
 31
0.0
  0
LINE
  5
39E
330
A
100
AcDbEntity
  8
1
  6
CONTINUOUS
370
    50
100
AcDbLine
 10
102.6420930559
 20
176.8226062392
 30
0.0
 11
102.3693706956
 21
176.5402143772
 31
0.0
  0
LINE
  5
39F
330
A
100
AcDbEntity
  8
1
  6
CONTINUOUS
370
    50
100
AcDbLine
 10
102.3693706956
 20
176.5402143772
 30
0.0
 11
102.188114823
 21
176.120508008
 31
0.0
  0
LINE
  5
3A0
330
A
100
AcDbEntity
  8
1
  6
CONTINUOUS
370
    50
100
AcDbLine
 10
96.4982601943
 20
172.6590660707
 30
0.0
 11
96.545014633
 21
172.0839783755
 31
0.0
  0
LINE
  5
3A1
330
A
100
AcDbEntity
  8
1
  6
CONTINUOUS
370
    50
100
AcDbLine
 10
96.545014633
 20
172.0839783755
 30
0.0
 11
96.4775825973
 21
171.5599897458
 31
0.0
  0
LINE
  5
3A2
330
A
100
AcDbEntity
  8
1
  6
CONTINUOUS
370
    50
100
AcDbLine
 10
96.4775825973
 20
171.5599897458
 30
0.0
 11
96.3019557195
 21
171.1336588707
 31
0.0
  0
LINE
  5
3A3
330
A
100
AcDbEntity
  8
1
  6
CONTINUOUS
370
    50
100
AcDbLine
 10
96.3019557195
 20
171.1336588707
 30
0.0
 11
96.0337392184
 21
170.8428671195
 31
0.0
  0
LINE
  5
3A4
330
A
100
AcDbEntity
  8
1
  6
CONTINUOUS
370
    50
100
AcDbLine
 10
96.0337392184
 20
170.8428671195
 30
0.0
 11
95.6967653073
 21
170.7134526154
 31
0.0
  0
LINE
  5
3A5
330
A
100
AcDbEntity
  8
1
  6
CONTINUOUS
370
    50
100
AcDbLine
 10
95.6967653073
 20
170.7134526154
 30
0.0
 11
95.3209755968
 21
170.7569144049
 31
0.0
  0
LINE
  5
3A6
330
A
100
AcDbEntity
  8
1
  6
CONTINUOUS
370
    50
100
AcDbLine
 10
95.3209755968
 20
170.7569144049
 30
0.0
 11
94.9397606519
 21
170.9693907175
 31
0.0
  0
LINE
  5
3A7
330
A
100
AcDbEntity
  8
1
  6
CONTINUOUS
370
    50
100
AcDbLine
 10
94.9397606519
 20
170.9693907175
 30
0.0
 11
94.5869930933
 21
171.3320021001
 31
0.0
  0
LINE
  5
3A8
330
A
100
AcDbEntity
  8
1
  6
CONTINUOUS
370
    50
100
AcDbLine
 10
94.5869930933
 20
171.3320021001
 30
0.0
 11
94.2940178669
 21
171.8125289403
 31
0.0
  0
LINE
  5
3A9
330
A
100
AcDbEntity
  8
1
  6
CONTINUOUS
370
    50
100
AcDbLine
 10
94.2940178669
 20
171.8125289403
 30
0.0
 11
94.086867107
 21
172.3682743195
 31
0.0
  0
LINE
  5
3AA
330
A
100
AcDbEntity
  8
1
  6
CONTINUOUS
370
    50
100
AcDbLine
 10
94.086867107
 20
172.3682743195
 30
0.0
 11
93.9839470678
 21
172.9498578219
 31
0.0
  0
LINE
  5
3AB
330
A
100
AcDbEntity
  8
1
  6
CONTINUOUS
370
    50
100
AcDbLine
 10
93.9839470678
 20
172.9498578219
 30
0.0
 11
93.9944026465
 21
173.5056032011
 31
0.0
  0
LINE
  5
3AC
330
A
100
AcDbEntity
  8
1
  6
CONTINUOUS
370
    50
100
AcDbLine
 10
93.9944026465
 20
173.5056032011
 30
0.0
 11
94.117304819
 21
173.9861300413
 31
0.0
  0
LINE
  5
3AD
330
A
100
AcDbEntity
  8
1
  6
CONTINUOUS
370
    50
100
AcDbLine
 10
94.117304819
 20
173.9861300413
 30
0.0
 11
94.3417331879
 21
174.348741424
 31
0.0
  0
LINE
  5
3AE
330
A
100
AcDbEntity
  8
1
  6
CONTINUOUS
370
    50
100
AcDbLine
 10
94.3417331879
 20
174.348741424
 30
0.0
 11
94.6477463077
 21
174.5612177365
 31
0.0
  0
LINE
  5
3AF
330
A
100
AcDbEntity
  8
1
  6
CONTINUOUS
370
    50
100
AcDbLine
 10
94.6477463077
 20
174.5612177365
 30
0.0
 11
95.0081535699
 21
174.6046795261
 31
0.0
  0
LINE
  5
3B0
330
A
100
AcDbEntity
  8
1
  6
CONTINUOUS
370
    50
100
AcDbLine
 10
95.0081535699
 20
174.6046795261
 30
0.0
 11
95.3909312075
 21
174.4752650219
 31
0.0
  0
LINE
  5
3B1
330
A
100
AcDbEntity
  8
1
  6
CONTINUOUS
370
    50
100
AcDbLine
 10
95.3909312075
 20
174.4752650219
 30
0.0
 11
95.7620677478
 21
174.1844732707
 31
0.0
  0
LINE
  5
3B2
330
A
100
AcDbEntity
  8
1
  6
CONTINUOUS
370
    50
100
AcDbLine
 10
95.7620677478
 20
174.1844732707
 30
0.0
 11
96.0885860803
 21
173.7581423957
 31
0.0
  0
LINE
  5
3B3
330
A
100
AcDbEntity
  8
1
  6
CONTINUOUS
370
    50
100
AcDbLine
 10
96.0885860803
 20
173.7581423957
 30
0.0
 11
96.3414736183
 21
173.2341537659
 31
0.0
  0
LINE
  5
3B4
330
A
100
AcDbEntity
  8
1
  6
CONTINUOUS
370
    50
100
AcDbLine
 10
96.3414736183
 20
173.2341537659
 30
0.0
 11
96.4982601943
 21
172.6590660707
 31
0.0
  0
LINE
  5
3B5
330
A
100
AcDbEntity
  8
1
  6
CONTINUOUS
370
    50
100
AcDbLine
 10
94.013915384
 20
160.2335534038
 30
0.0
 11
93.9671609453
 21
159.6584657086
 31
0.0
  0
LINE
  5
3B6
330
A
100
AcDbEntity
  8
1
  6
CONTINUOUS
370
    50
100
AcDbLine
 10
93.9671609453
 20
159.6584657086
 30
0.0
 11
94.034592981
 21
159.1344770789
 31
0.0
  0
LINE
  5
3B7
330
A
100
AcDbEntity
  8
1
  6
CONTINUOUS
370
    50
100
AcDbLine
 10
94.034592981
 20
159.1344770789
 30
0.0
 11
94.2102198587
 21
158.7081462038
 31
0.0
  0
LINE
  5
3B8
330
A
100
AcDbEntity
  8
1
  6
CONTINUOUS
370
    50
100
AcDbLine
 10
94.2102198587
 20
158.7081462038
 30
0.0
 11
94.4784363598
 21
158.4173544526
 31
0.0
  0
LINE
  5
3B9
330
A
100
AcDbEntity
  8
1
  6
CONTINUOUS
370
    50
100
AcDbLine
 10
94.4784363598
 20
158.4173544526
 30
0.0
 11
94.815410271
 21
158.2879399485
 31
0.0
  0
LINE
  5
3BA
330
A
100
AcDbEntity
  8
1
  6
CONTINUOUS
370
    50
100
AcDbLine
 10
94.815410271
 20
158.2879399485
 30
0.0
 11
95.1911999815
 21
158.331401738
 31
0.0
  0
LINE
  5
3BB
330
A
100
AcDbEntity
  8
1
  6
CONTINUOUS
370
    50
100
AcDbLine
 10
95.1911999815
 20
158.331401738
 30
0.0
 11
95.5724149264
 21
158.5438780506
 31
0.0
  0
LINE
  5
3BC
330
A
100
AcDbEntity
  8
1
  6
CONTINUOUS
370
    50
100
AcDbLine
 10
95.5724149264
 20
158.5438780506
 30
0.0
 11
95.9251824849
 21
158.9064894333
 31
0.0
  0
LINE
  5
3BD
330
A
100
AcDbEntity
  8
1
  6
CONTINUOUS
370
    50
100
AcDbLine
 10
95.9251824849
 20
158.9064894333
 30
0.0
 11
96.2181577114
 21
159.3870162734
 31
0.0
  0
LINE
  5
3BE
330
A
100
AcDbEntity
  8
1
  6
CONTINUOUS
370
    50
100
AcDbLine
 10
96.2181577114
 20
159.3870162734
 30
0.0
 11
96.4253084713
 21
159.9427616526
 31
0.0
  0
LINE
  5
3BF
330
A
100
AcDbEntity
  8
1
  6
CONTINUOUS
370
    50
100
AcDbLine
 10
96.4253084713
 20
159.9427616526
 30
0.0
 11
96.5282285104
 21
160.524345155
 31
0.0
  0
LINE
  5
3C0
330
A
100
AcDbEntity
  8
1
  6
CONTINUOUS
370
    50
100
AcDbLine
 10
96.5282285104
 20
160.524345155
 30
0.0
 11
96.5177729317
 21
161.0800905342
 31
0.0
  0
LINE
  5
3C1
330
A
100
AcDbEntity
  8
1
  6
CONTINUOUS
370
    50
100
AcDbLine
 10
96.5177729317
 20
161.0800905342
 30
0.0
 11
96.3948707593
 21
161.5606173744
 31
0.0
  0
LINE
  5
3C2
330
A
100
AcDbEntity
  8
1
  6
CONTINUOUS
370
    50
100
AcDbLine
 10
96.3948707593
 20
161.5606173744
 30
0.0
 11
96.1704423904
 21
161.9232287571
 31
0.0
  0
LINE
  5
3C3
330
A
100
AcDbEntity
  8
1
  6
CONTINUOUS
370
    50
100
AcDbLine
 10
96.1704423904
 20
161.9232287571
 30
0.0
 11
95.8644292706
 21
162.1357050696
 31
0.0
  0
LINE
  5
3C4
330
A
100
AcDbEntity
  8
1
  6
CONTINUOUS
370
    50
100
AcDbLine
 10
95.8644292706
 20
162.1357050696
 30
0.0
 11
95.5040220084
 21
162.1791668592
 31
0.0
  0
LINE
  5
3C5
330
A
100
AcDbEntity
  8
1
  6
CONTINUOUS
370
    50
100
AcDbLine
 10
95.5040220084
 20
162.1791668592
 30
0.0
 11
95.1212443707
 21
162.0497523551
 31
0.0
  0
LINE
  5
3C6
330
A
100
AcDbEntity
  8
1
  6
CONTINUOUS
370
    50
100
AcDbLine
 10
95.1212443707
 20
162.0497523551
 30
0.0
 11
94.7501078305
 21
161.7589606039
 31
0.0
  0
LINE
  5
3C7
330
A
100
AcDbEntity
  8
1
  6
CONTINUOUS
370
    50
100
AcDbLine
 10
94.7501078305
 20
161.7589606039
 30
0.0
 11
94.423589498
 21
161.3326297288
 31
0.0
  0
LINE
  5
3C8
330
A
100
AcDbEntity
  8
1
  6
CONTINUOUS
370
    50
100
AcDbLine
 10
94.423589498
 20
161.3326297288
 30
0.0
 11
94.17070196
 21
160.808641099
 31
0.0
  0
LINE
  5
3C9
330
A
100
AcDbEntity
  8
1
  6
CONTINUOUS
370
    50
100
AcDbLine
 10
94.17070196
 20
160.808641099
 30
0.0
 11
94.013915384
 21
160.2335534038
 31
0.0
  0
LINE
  5
3CA
330
A
100
AcDbEntity
  8
1
  6
CONTINUOUS
370
    50
100
AcDbLine
 10
102.188114823
 20
156.7699130034
 30
0.0
 11
102.1144308177
 21
157.2896411271
 31
0.0
  0
LINE
  5
3CB
330
A
100
AcDbEntity
  8
1
  6
CONTINUOUS
370
    50
100
AcDbLine
 10
102.1144308177
 20
157.2896411271
 30
0.0
 11
102.1548658269
 21
157.8632108806
 31
0.0
  0
LINE
  5
3CC
330
A
100
AcDbEntity
  8
1
  6
CONTINUOUS
370
    50
100
AcDbLine
 10
102.1548658269
 20
157.8632108806
 30
0.0
 11
102.3058270228
 21
158.4396580743
 31
0.0
  0
LINE
  5
3CD
330
A
100
AcDbEntity
  8
1
  6
CONTINUOUS
370
    50
100
AcDbLine
 10
102.3058270228
 20
158.4396580743
 30
0.0
 11
102.5539008404
 21
158.9677628453
 31
0.0
  0
LINE
  5
3CE
330
A
100
AcDbEntity
  8
1
  6
CONTINUOUS
370
    50
100
AcDbLine
 10
102.5539008404
 20
158.9677628453
 30
0.0
 11
102.8770448325
 21
159.4006007673
 31
0.0
  0
LINE
  5
3CF
330
A
100
AcDbEntity
  8
1
  6
CONTINUOUS
370
    50
100
AcDbLine
 10
102.8770448325
 20
159.4006007673
 30
0.0
 11
103.2465462373
 21
159.6997122913
 31
0.0
  0
LINE
  5
3D0
330
A
100
AcDbEntity
  8
1
  6
CONTINUOUS
370
    50
100
AcDbLine
 10
103.2465462373
 20
159.6997122913
 30
0.0
 11
103.6295732334
 21
159.8385200458
 31
0.0
  0
LINE
  5
3D1
330
A
100
AcDbEntity
  8
1
  6
CONTINUOUS
370
    50
100
AcDbLine
 10
103.6295732334
 20
159.8385200458
 30
0.0
 11
103.9920921914
 21
159.8046903527
 31
0.0
  0
LINE
  5
3D2
330
A
100
AcDbEntity
  8
1
  6
CONTINUOUS
370
    50
100
AcDbLine
 10
103.9920921914
 20
159.8046903527
 30
0.0
 11
104.3018917109
 21
159.6012291287
 31
0.0
  0
LINE
  5
3D3
330
A
100
AcDbEntity
  8
1
  6
CONTINUOUS
370
    50
100
AcDbLine
 10
104.3018917109
 20
159.6012291287
 30
0.0
 11
104.5314447451
 21
159.2462147964
 31
0.0
  0
LINE
  5
3D4
330
A
100
AcDbEntity
  8
1
  6
CONTINUOUS
370
    50
100
AcDbLine
 10
104.5314447451
 20
159.2462147964
 30
0.0
 11
104.6603544995
 21
158.7711919371
 31
0.0
  0
LINE
  5
3D5
330
A
100
AcDbEntity
  8
1
  6
CONTINUOUS
370
    50
100
AcDbLine
 10
104.6603544995
 20
158.7711919371
 30
0.0
 11
104.6771667768
 21
158.2183684166
 31
0.0
  0
LINE
  5
3D6
330
A
100
AcDbEntity
  8
1
  6
CONTINUOUS
370
    50
100
AcDbLine
 10
104.6771667768
 20
158.2183684166
 30
0.0
 11
104.5803877323
 21
157.6368650306
 31
0.0
  0
LINE
  5
3D7
330
A
100
AcDbEntity
  8
1
  6
CONTINUOUS
370
    50
100
AcDbLine
 10
104.5803877323
 20
157.6368650306
 30
0.0
 11
104.3786166088
 21
157.0783509069
 31
0.0
  0
LINE
  5
3D8
330
A
100
AcDbEntity
  8
1
  6
CONTINUOUS
370
    50
100
AcDbLine
 10
104.3786166088
 20
157.0783509069
 30
0.0
 11
104.0897816562
 21
156.5924524764
 31
0.0
  0
LINE
  5
3D9
330
A
100
AcDbEntity
  8
1
  6
CONTINUOUS
370
    50
100
AcDbLine
 10
104.0897816562
 20
156.5924524764
 30
0.0
 11
103.7395471274
 21
156.2223439469
 31
0.0
  0
LINE
  5
3DA
330
A
100
AcDbEntity
  8
1
  6
CONTINUOUS
370
    50
100
AcDbLine
 10
103.7395471274
 20
156.2223439469
 30
0.0
 11
103.3590328974
 21
156.0009110855
 31
0.0
  0
LINE
  5
3DB
330
A
100
AcDbEntity
  8
1
  6
CONTINUOUS
370
    50
100
AcDbLine
 10
103.3590328974
 20
156.0009110855
 30
0.0
 11
102.9820493253
 21
155.9478291737
 31
0.0
  0
LINE
  5
3DC
330
A
100
AcDbEntity
  8
1
  6
CONTINUOUS
370
    50
100
AcDbLine
 10
102.9820493253
 20
155.9478291737
 30
0.0
 11
102.6420930559
 21
156.0678147723
 31
0.0
  0
LINE
  5
3DD
330
A
100
AcDbEntity
  8
1
  6
CONTINUOUS
370
    50
100
AcDbLine
 10
102.6420930559
 20
156.0678147723
 30
0.0
 11
102.3693706956
 21
156.3502066343
 31
0.0
  0
LINE
  5
3DE
330
A
100
AcDbEntity
  8
1
  6
CONTINUOUS
370
    50
100
AcDbLine
 10
102.3693706956
 20
156.3502066343
 30
0.0
 11
102.188114823
 21
156.7699130034
 31
0.0
  0
LINE
  5
3DF
330
A
100
AcDbEntity
  8
1
  6
CONTINUOUS
370
    50
100
AcDbLine
 10
94.0215758284
 20
160.2313549407
 30
0.0
 11
93.9748213897
 21
159.6562672455
 31
0.0
  0
LINE
  5
3E0
330
A
100
AcDbEntity
  8
1
  6
CONTINUOUS
370
    50
100
AcDbLine
 10
93.9748213897
 20
159.6562672455
 30
0.0
 11
94.0422534254
 21
159.1322786158
 31
0.0
  0
LINE
  5
3E1
330
A
100
AcDbEntity
  8
1
  6
CONTINUOUS
370
    50
100
AcDbLine
 10
94.0422534254
 20
159.1322786158
 30
0.0
 11
94.2178803032
 21
158.7059477407
 31
0.0
  0
LINE
  5
3E2
330
A
100
AcDbEntity
  8
1
  6
CONTINUOUS
370
    50
100
AcDbLine
 10
94.2178803032
 20
158.7059477407
 30
0.0
 11
94.4860968042
 21
158.4151559895
 31
0.0
  0
LINE
  5
3E3
330
A
100
AcDbEntity
  8
1
  6
CONTINUOUS
370
    50
100
AcDbLine
 10
94.4860968042
 20
158.4151559895
 30
0.0
 11
94.8230707154
 21
158.2857414854
 31
0.0
  0
LINE
  5
3E4
330
A
100
AcDbEntity
  8
1
  6
CONTINUOUS
370
    50
100
AcDbLine
 10
94.8230707154
 20
158.2857414854
 30
0.0
 11
95.1988604259
 21
158.3292032749
 31
0.0
  0
LINE
  5
3E5
330
A
100
AcDbEntity
  8
1
  6
CONTINUOUS
370
    50
100
AcDbLine
 10
95.1988604259
 20
158.3292032749
 30
0.0
 11
95.5800753708
 21
158.5416795875
 31
0.0
  0
LINE
  5
3E6
330
A
100
AcDbEntity
  8
1
  6
CONTINUOUS
370
    50
100
AcDbLine
 10
95.5800753708
 20
158.5416795875
 30
0.0
 11
95.9328429294
 21
158.9042909701
 31
0.0
  0
LINE
  5
3E7
330
A
100
AcDbEntity
  8
1
  6
CONTINUOUS
370
    50
100
AcDbLine
 10
95.9328429294
 20
158.9042909701
 30
0.0
 11
96.2258181558
 21
159.3848178103
 31
0.0
  0
LINE
  5
3E8
330
A
100
AcDbEntity
  8
1
  6
CONTINUOUS
370
    50
100
AcDbLine
 10
96.2258181558
 20
159.3848178103
 30
0.0
 11
96.4329689157
 21
159.9405631895
 31
0.0
  0
LINE
  5
3E9
330
A
100
AcDbEntity
  8
1
  6
CONTINUOUS
370
    50
100
AcDbLine
 10
96.4329689157
 20
159.9405631895
 30
0.0
 11
96.5358889549
 21
160.5221466919
 31
0.0
  0
LINE
  5
3EA
330
A
100
AcDbEntity
  8
1
  6
CONTINUOUS
370
    50
100
AcDbLine
 10
96.5358889549
 20
160.5221466919
 30
0.0
 11
96.5254333762
 21
161.0778920711
 31
0.0
  0
LINE
  5
3EB
330
A
100
AcDbEntity
  8
1
  6
CONTINUOUS
370
    50
100
AcDbLine
 10
96.5254333762
 20
161.0778920711
 30
0.0
 11
96.4025312037
 21
161.5584189113
 31
0.0
  0
LINE
  5
3EC
330
A
100
AcDbEntity
  8
1
  6
CONTINUOUS
370
    50
100
AcDbLine
 10
96.4025312037
 20
161.5584189113
 30
0.0
 11
96.1781028348
 21
161.921030294
 31
0.0
  0
LINE
  5
3ED
330
A
100
AcDbEntity
  8
1
  6
CONTINUOUS
370
    50
100
AcDbLine
 10
96.1781028348
 20
161.921030294
 30
0.0
 11
95.872089715
 21
162.1335066065
 31
0.0
  0
LINE
  5
3EE
330
A
100
AcDbEntity
  8
1
  6
CONTINUOUS
370
    50
100
AcDbLine
 10
95.872089715
 20
162.1335066065
 30
0.0
 11
95.5116824528
 21
162.1769683961
 31
0.0
  0
LINE
  5
3EF
330
A
100
AcDbEntity
  8
1
  6
CONTINUOUS
370
    50
100
AcDbLine
 10
95.5116824528
 20
162.1769683961
 30
0.0
 11
95.1289048152
 21
162.0475538919
 31
0.0
  0
LINE
  5
3F0
330
A
100
AcDbEntity
  8
1
  6
CONTINUOUS
370
    50
100
AcDbLine
 10
95.1289048152
 20
162.0475538919
 30
0.0
 11
94.7577682749
 21
161.7567621407
 31
0.0
  0
LINE
  5
3F1
330
A
100
AcDbEntity
  8
1
  6
CONTINUOUS
370
    50
100
AcDbLine
 10
94.7577682749
 20
161.7567621407
 30
0.0
 11
94.4312499424
 21
161.3304312657
 31
0.0
  0
LINE
  5
3F2
330
A
100
AcDbEntity
  8
1
  6
CONTINUOUS
370
    50
100
AcDbLine
 10
94.4312499424
 20
161.3304312657
 30
0.0
 11
94.1783624044
 21
160.8064426359
 31
0.0
  0
LINE
  5
3F3
330
A
100
AcDbEntity
  8
1
  6
CONTINUOUS
370
    50
100
AcDbLine
 10
94.1783624044
 20
160.8064426359
 30
0.0
 11
94.0215758284
 21
160.2313549407
 31
0.0
  0
LINE
  5
3F4
330
A
100
AcDbEntity
  8
1
  6
CONTINUOUS
370
    50
100
AcDbLine
 10
52.3953686598
 20
174.4452105057
 30
0.0
 11
27.3606463348
 21
174.4452105057
 31
0.0
  0
LINE
  5
3F5
330
A
100
AcDbEntity
  8
1
  6
CONTINUOUS
370
    50
100
AcDbLine
 10
27.3606463348
 20
158.4452105057
 30
0.0
 11
52.3953686598
 21
158.4452105057
 31
0.0
  0
LINE
  5
3F6
330
A
100
AcDbEntity
  8
1
  6
CONTINUOUS
370
    50
100
AcDbLine
 10
52.3953686598
 20
174.4452105057
 30
0.0
 11
52.3953686598
 21
174.4228408832
 31
0.0
  0
LINE
  5
3F7
330
A
100
AcDbEntity
  8
1
  6
CONTINUOUS
370
    50
100
AcDbLine
 10
52.3953686598
 20
174.4228408832
 30
0.0
 11
52.3953686598
 21
158.4452105057
 31
0.0
  0
LINE
  5
3F8
330
A
100
AcDbEntity
  8
1
  6
CONTINUOUS
370
    50
100
AcDbLine
 10
124.7313940636
 20
170.4452105057
 30
0.0
 11
108.3513940636
 21
170.4452105057
 31
0.0
  0
LINE
  5
3F9
330
A
100
AcDbEntity
  8
1
  6
CONTINUOUS
370
    50
100
AcDbLine
 10
108.3513940636
 20
162.4452105057
 30
0.0
 11
124.7313940636
 21
162.4452105057
 31
0.0
  0
LINE
  5
3FA
330
A
100
AcDbEntity
  8
1
  6
CONTINUOUS
370
    50
100
AcDbLine
 10
124.7313940636
 20
170.4452105057
 30
0.0
 11
124.7313940636
 21
170.4232980872
 31
0.0
  0
LINE
  5
3FB
330
A
100
AcDbEntity
  8
1
  6
CONTINUOUS
370
    50
100
AcDbLine
 10
124.7313940636
 20
170.4232980872
 30
0.0
 11
124.7313940636
 21
162.4452105057
 31
0.0
  0
LINE
  5
3FC
330
A
100
AcDbEntity
  8
1
  6
CONTINUOUS
370
    50
100
AcDbLine
 10
124.7313940636
 20
169.9452105057
 30
0.0
 11
124.7313940636
 21
169.8574581984
 31
0.0
  0
LINE
  5
3FD
330
A
100
AcDbEntity
  8
1
  6
CONTINUOUS
370
    50
100
AcDbLine
 10
124.7313940636
 20
169.8574581984
 30
0.0
 11
124.7313940636
 21
166.4452105057
 31
0.0
  0
ENDSEC
  0
SECTION
  2
OBJECTS
  0
DICTIONARY
  5
19
330
0
100
AcDbDictionary
281
     1
  3
ACAD_GROUP
350
1A
  3
ACAD_LAYOUT
350
422
  3
ACAD_MATERIAL
350
436
  3
ACAD_MLEADERSTYLE
350
43E
  3
ACAD_MLINESTYLE
350
1B
  3
ACAD_SCALELIST
350
400
  3
ACAD_VISUALSTYLE
350
425
  3
ACDB_RECOMPOSE_DATA
350
46B
  3
AcDbVariableDictionary
350
43C
  0
DICTIONARY
  5
442
330
7
100
AcDbDictionary
280
     1
281
     1
  3
ACAD_XREC_ROUNDTRIP
360
443
  0
DICTIONARY
  5
1A
102
{ACAD_REACTORS
330
19
102
}
330
19
100
AcDbDictionary
281
     1
  0
DICTIONARY
  5
422
102
{ACAD_REACTORS
330
19
102
}
330
19
100
AcDbDictionary
281
     1
  3
Layout1
350
424
  3
Model
350
423
  0
DICTIONARY
  5
436
102
{ACAD_REACTORS
330
19
102
}
330
19
100
AcDbDictionary
281
     1
  3
ByBlock
350
438
  3
ByLayer
350
437
  3
Global
350
439
  0
DICTIONARY
  5
43E
102
{ACAD_REACTORS
330
19
102
}
330
19
100
AcDbDictionary
281
     1
  0
DICTIONARY
  5
1B
102
{ACAD_REACTORS
330
19
102
}
330
19
100
AcDbDictionary
281
     1
  3
STANDARD
350
1C
  0
DICTIONARY
  5
400
102
{ACAD_REACTORS
330
19
102
}
330
19
100
AcDbDictionary
281
     1
  3
A0
350
401
  3
A1
350
402
  3
A2
350
403
  3
A3
350
404
  3
A4
350
405
  3
A5
350
406
  3
A6
350
407
  3
A7
350
408
  3
A8
350
409
  3
A9
350
40A
  3
B0
350
40B
  3
B1
350
40C
  3
B2
350
40D
  3
B3
350
40E
  3
B4
350
40F
  3
B5
350
410
  3
B6
350
411
  3
B7
350
412
  3
B8
350
413
  3
B9
350
414
  3
C0
350
415
  3
C1
350
416
  3
C2
350
417
  3
C3
350
418
  3
C4
350
419
  3
C5
350
41A
  3
C6
350
41B
  3
C7
350
41C
  3
C8
350
41D
  3
C9
350
41E
  3
D0
350
41F
  3
D1
350
420
  3
D2
350
421
  0
DICTIONARY
  5
425
102
{ACAD_REACTORS
330
19
102
}
330
19
100
AcDbDictionary
281
     1
  3
2dWireframe
350
42A
  3
3D Hidden
350
42C
  3
3dWireframe
350
42B
  3
Basic
350
42D
  3
Brighten
350
431
  3
ColorChange
350
435
  3
Conceptual
350
42F
  3
Dim
350
430
  3
Facepattern
350
434
  3
Flat
350
426
  3
FlatWithEdges
350
427
  3
Gouraud
350
428
  3
GouraudWithEdges
350
429
  3
Linepattern
350
433
  3
Realistic
350
42E
  3
Thicken
350
432
  0
XRECORD
  5
46B
102
{ACAD_REACTORS
330
19
102
}
330
19
100
AcDbXrecord
280
     1
  0
DICTIONARY
  5
43C
102
{ACAD_REACTORS
330
19
102
}
330
19
100
AcDbDictionary
281
     1
  3
CANNOSCALE
350
444
  3
DIMASSOC
350
440
  3
HIDETEXT
350
441
  3
MSLTSCALE
350
43F
  0
XRECORD
  5
443
102
{ACAD_REACTORS
330
442
102
}
330
442
100
AcDbXrecord
280
     1
102
VTR_0.000_0.000_1.000_1.000_VISUALSTYLE
340
42A
102
VTR_0.000_0.000_1.000_1.000_GRIDDISPLAY
 70
     3
102
VTR_0.000_0.000_1.000_1.000_GRIDMAJOR
 70
     5
102
VTR_0.000_0.000_1.000_1.000_DEFAULTLIGHTING
280
     1
102
VTR_0.000_0.000_1.000_1.000_DEFAULTLIGHTINGTYPE
 70
     1
102
VTR_0.000_0.000_1.000_1.000_BRIGHTNESS
141
0.0
102
VTR_0.000_0.000_1.000_1.000_CONTRAST
142
0.0
  0
LAYOUT
  5
424
102
{ACAD_REACTORS
330
422
102
}
330
422
100
AcDbPlotSettings
  1

  2
none_device
  4

  6

 40
0.0
 41
0.0
 42
0.0
 43
0.0
 44
0.0
 45
0.0
 46
0.0
 47
0.0
 48
0.0
 49
0.0
140
0.0
141
0.0
142
1.0
143
1.0
 70
   688
 72
     0
 73
     0
 74
     5
  7

 75
    16
147
1.0
148
0.0
149
0.0
100
AcDbLayout
  1
Layout1
 70
     1
 71
     1
 10
0.0
 20
0.0
 11
12.0
 21
9.0
 12
0.0
 22
0.0
 32
0.0
 14
1.000000000000000E+20
 24
1.000000000000000E+20
 34
1.000000000000000E+20
 15
-1.000000000000000E+20
 25
-1.000000000000000E+20
 35
-1.000000000000000E+20
146
0.0
 13
0.0
 23
0.0
 33
0.0
 16
1.0
 26
0.0
 36
0.0
 17
0.0
 27
1.0
 37
0.0
 76
     0
330
B
  0
LAYOUT
  5
423
102
{ACAD_REACTORS
330
422
102
}
330
422
100
AcDbPlotSettings
  1

  2
none_device
  4

  6

 40
0.0
 41
0.0
 42
0.0
 43
0.0
 44
0.0
 45
0.0
 46
0.0
 47
0.0
 48
0.0
 49
0.0
140
0.0
141
0.0
142
1.0
143
1.0
 70
  1712
 72
     0
 73
     0
 74
     0
  7

 75
     0
147
1.0
148
2667.54428576817
149
0.0
100
AcDbLayout
  1
Model
 70
     1
 71
     0
 10
0.0
 20
0.0
 11
0.0
 21
0.0
 12
0.0
 22
0.0
 32
0.0
 14
0.0
 24
0.0
 34
0.0
 15
210.0
 25
297.0
 35
0.0
146
0.0
 13
0.0
 23
0.0
 33
0.0
 16
1.0
 26
0.0
 36
0.0
 17
0.0
 27
1.0
 37
0.0
 76
     0
330
A
331
15
  0
MATERIAL
  5
438
102
{ACAD_REACTORS
330
436
102
}
102
{ACAD_XDICTIONARY
360
467
102
}
330
436
100
AcDbMaterial
  1
ByBlock
  0
MATERIAL
  5
437
102
{ACAD_REACTORS
330
436
102
}
102
{ACAD_XDICTIONARY
360
465
102
}
330
436
100
AcDbMaterial
  1
ByLayer
  0
MATERIAL
  5
439
102
{ACAD_REACTORS
330
436
102
}
102
{ACAD_XDICTIONARY
360
469
102
}
330
436
100
AcDbMaterial
  1
Global
  0
MLINESTYLE
  5
1C
102
{ACAD_REACTORS
330
1B
102
}
330
1B
100
AcDbMlineStyle
  2
STANDARD
 70
     0
  3

 62
     0
 51
90.0
 52
90.0
 71
     2
 49
0.5
 62
   256
  6
BYLAYER
 49
-0.5
 62
   256
  6
BYLAYER
  0
SCALE
  5
401
102
{ACAD_REACTORS
330
400
102
}
330
400
100
AcDbScale
 70
     0
300
1:1
140
1.0
141
1.0
290
     1
  0
SCALE
  5
402
102
{ACAD_REACTORS
330
400
102
}
330
400
100
AcDbScale
 70
     0
300
1:2
140
1.0
141
2.0
290
     0
  0
SCALE
  5
403
102
{ACAD_REACTORS
330
400
102
}
330
400
100
AcDbScale
 70
     0
300
1:4
140
1.0
141
4.0
290
     0
  0
SCALE
  5
404
102
{ACAD_REACTORS
330
400
102
}
330
400
100
AcDbScale
 70
     0
300
1:5
140
1.0
141
5.0
290
     0
  0
SCALE
  5
405
102
{ACAD_REACTORS
330
400
102
}
330
400
100
AcDbScale
 70
     0
300
1:8
140
1.0
141
8.0
290
     0
  0
SCALE
  5
406
102
{ACAD_REACTORS
330
400
102
}
330
400
100
AcDbScale
 70
     0
300
1:10
140
1.0
141
10.0
290
     0
  0
SCALE
  5
407
102
{ACAD_REACTORS
330
400
102
}
330
400
100
AcDbScale
 70
     0
300
1:16
140
1.0
141
16.0
290
     0
  0
SCALE
  5
408
102
{ACAD_REACTORS
330
400
102
}
330
400
100
AcDbScale
 70
     0
300
1:20
140
1.0
141
20.0
290
     0
  0
SCALE
  5
409
102
{ACAD_REACTORS
330
400
102
}
330
400
100
AcDbScale
 70
     0
300
1:30
140
1.0
141
30.0
290
     0
  0
SCALE
  5
40A
102
{ACAD_REACTORS
330
400
102
}
330
400
100
AcDbScale
 70
     0
300
1:40
140
1.0
141
40.0
290
     0
  0
SCALE
  5
40B
102
{ACAD_REACTORS
330
400
102
}
330
400
100
AcDbScale
 70
     0
300
1:50
140
1.0
141
50.0
290
     0
  0
SCALE
  5
40C
102
{ACAD_REACTORS
330
400
102
}
330
400
100
AcDbScale
 70
     0
300
1:100
140
1.0
141
100.0
290
     0
  0
SCALE
  5
40D
102
{ACAD_REACTORS
330
400
102
}
330
400
100
AcDbScale
 70
     0
300
2:1
140
2.0
141
1.0
290
     0
  0
SCALE
  5
40E
102
{ACAD_REACTORS
330
400
102
}
330
400
100
AcDbScale
 70
     0
300
4:1
140
4.0
141
1.0
290
     0
  0
SCALE
  5
40F
102
{ACAD_REACTORS
330
400
102
}
330
400
100
AcDbScale
 70
     0
300
8:1
140
8.0
141
1.0
290
     0
  0
SCALE
  5
410
102
{ACAD_REACTORS
330
400
102
}
330
400
100
AcDbScale
 70
     0
300
10:1
140
10.0
141
1.0
290
     0
  0
SCALE
  5
411
102
{ACAD_REACTORS
330
400
102
}
330
400
100
AcDbScale
 70
     0
300
100:1
140
100.0
141
1.0
290
     0
  0
SCALE
  5
412
102
{ACAD_REACTORS
330
400
102
}
330
400
100
AcDbScale
 70
     0
300
1/128" = 1'-0"
140
0.0078125
141
12.0
290
     0
  0
SCALE
  5
413
102
{ACAD_REACTORS
330
400
102
}
330
400
100
AcDbScale
 70
     0
300
1/64" = 1'-0"
140
0.015625
141
12.0
290
     0
  0
SCALE
  5
414
102
{ACAD_REACTORS
330
400
102
}
330
400
100
AcDbScale
 70
     0
300
1/32" = 1'-0"
140
0.03125
141
12.0
290
     0
  0
SCALE
  5
415
102
{ACAD_REACTORS
330
400
102
}
330
400
100
AcDbScale
 70
     0
300
1/16" = 1'-0"
140
0.0625
141
12.0
290
     0
  0
SCALE
  5
416
102
{ACAD_REACTORS
330
400
102
}
330
400
100
AcDbScale
 70
     0
300
3/32" = 1'-0"
140
0.09375
141
12.0
290
     0
  0
SCALE
  5
417
102
{ACAD_REACTORS
330
400
102
}
330
400
100
AcDbScale
 70
     0
300
1/8" = 1'-0"
140
0.125
141
12.0
290
     0
  0
SCALE
  5
418
102
{ACAD_REACTORS
330
400
102
}
330
400
100
AcDbScale
 70
     0
300
3/16" = 1'-0"
140
0.1875
141
12.0
290
     0
  0
SCALE
  5
419
102
{ACAD_REACTORS
330
400
102
}
330
400
100
AcDbScale
 70
     0
300
1/4" = 1'-0"
140
0.25
141
12.0
290
     0
  0
SCALE
  5
41A
102
{ACAD_REACTORS
330
400
102
}
330
400
100
AcDbScale
 70
     0
300
3/8" = 1'-0"
140
0.375
141
12.0
290
     0
  0
SCALE
  5
41B
102
{ACAD_REACTORS
330
400
102
}
330
400
100
AcDbScale
 70
     0
300
1/2" = 1'-0"
140
0.5
141
12.0
290
     0
  0
SCALE
  5
41C
102
{ACAD_REACTORS
330
400
102
}
330
400
100
AcDbScale
 70
     0
300
3/4" = 1'-0"
140
0.75
141
12.0
290
     0
  0
SCALE
  5
41D
102
{ACAD_REACTORS
330
400
102
}
330
400
100
AcDbScale
 70
     0
300
1" = 1'-0"
140
1.0
141
12.0
290
     0
  0
SCALE
  5
41E
102
{ACAD_REACTORS
330
400
102
}
330
400
100
AcDbScale
 70
     0
300
1-1/2" = 1'-0"
140
1.5
141
12.0
290
     0
  0
SCALE
  5
41F
102
{ACAD_REACTORS
330
400
102
}
330
400
100
AcDbScale
 70
     0
300
3" = 1'-0"
140
3.0
141
12.0
290
     0
  0
SCALE
  5
420
102
{ACAD_REACTORS
330
400
102
}
330
400
100
AcDbScale
 70
     0
300
6" = 1'-0"
140
6.0
141
12.0
290
     0
  0
SCALE
  5
421
102
{ACAD_REACTORS
330
400
102
}
330
400
100
AcDbScale
 70
     0
300
1'-0" = 1'-0"
140
12.0
141
12.0
290
     0
  0
VISUALSTYLE
  5
42A
102
{ACAD_REACTORS
330
425
102
}
102
{ACAD_XDICTIONARY
360
44D
102
}
330
425
100
AcDbVisualStyle
  2
2dWireframe
 70
     4
 71
     0
 72
     2
 73
     0
 90
        0
 40
-0.6
 41
-30.0
 62
     5
 63
     7
 74
     1
 91
        4
 64
     7
 65
   257
 75
     1
175
     1
 42
1.0
 92
        0
 66
   257
 43
1.0
 76
     1
 77
     6
 78
     2
 67
     7
 79
     5
170
     0
171
     0
290
     0
174
     0
 93
        1
 44
0.0
173
     0
291
     0
 45
0.0
1001
ACAD
1000
AcDbSavedByObjectVersion
1070
     0
  0
VISUALSTYLE
  5
42C
102
{ACAD_REACTORS
330
425
102
}
102
{ACAD_XDICTIONARY
360
451
102
}
330
425
100
AcDbVisualStyle
  2
3D Hidden
 70
     6
 71
     1
 72
     2
 73
     2
 90
        0
 40
-0.6
 41
-30.0
 62
     5
 63
     7
 74
     2
 91
        2
 64
     7
 65
   257
 75
     2
175
     1
 42
40.0
 92
        0
 66
   257
 43
1.0
 76
     1
 77
     6
 78
     2
 67
     7
 79
     3
170
     0
171
     0
290
     0
174
     0
 93
        1
 44
0.0
173
     0
291
     0
 45
0.0
1001
ACAD
1000
AcDbSavedByObjectVersion
1070
     0
  0
VISUALSTYLE
  5
42B
102
{ACAD_REACTORS
330
425
102
}
102
{ACAD_XDICTIONARY
360
44F
102
}
330
425
100
AcDbVisualStyle
  2
3dWireframe
 70
     5
 71
     0
 72
     2
 73
     0
 90
        0
 40
-0.6
 41
-30.0
 62
     5
 63
     7
 74
     1
 91
        4
 64
     7
 65
   257
 75
     1
175
     1
 42
1.0
 92
        0
 66
   257
 43
1.0
 76
     1
 77
     6
 78
     2
 67
     7
 79
     5
170
     0
171
     0
290
     0
174
     0
 93
        1
 44
0.0
173
     0
291
     0
 45
0.0
1001
ACAD
1000
AcDbSavedByObjectVersion
1070
     0
  0
VISUALSTYLE
  5
42D
102
{ACAD_REACTORS
330
425
102
}
102
{ACAD_XDICTIONARY
360
453
102
}
330
425
100
AcDbVisualStyle
  2
Basic
 70
     7
 71
     1
 72
     0
 73
     1
 90
        0
 40
-0.6
 41
-30.0
 62
     5
 63
     7
 74
     0
 91
        4
 64
     7
 65
   257
 75
     1
175
     1
 42
1.0
 92
        8
 66
     7
 43
1.0
 76
     1
 77
     6
 78
     2
 67
     7
 79
     5
170
     0
171
     0
290
     0
174
     0
 93
        1
 44
0.0
173
     0
291
     1
 45
0.0
1001
ACAD
1000
AcDbSavedByObjectVersion
1070
     0
  0
VISUALSTYLE
  5
431
102
{ACAD_REACTORS
330
425
102
}
102
{ACAD_XDICTIONARY
360
45B
102
}
330
425
100
AcDbVisualStyle
  2
Brighten
 70
    12
 71
     2
 72
     2
 73
     0
 90
        0
 40
-0.6
 41
-30.0
 62
     5
 63
     7
 74
     1
 91
        4
 64
     7
 65
   257
 75
     1
175
     1
 42
1.0
 92
        8
 66
     7
 43
1.0
 76
     1
 77
     6
 78
     2
 67
     7
 79
     5
170
     0
171
     0
290
     0
174
     0
 93
        1
 44
50.0
173
     0
291
     1
 45
0.0
1001
ACAD
1000
AcDbSavedByObjectVersion
1070
     0
  0
VISUALSTYLE
  5
435
102
{ACAD_REACTORS
330
425
102
}
102
{ACAD_XDICTIONARY
360
463
102
}
330
425
100
AcDbVisualStyle
  2
ColorChange
 70
    16
 71
     2
 72
     2
 73
     3
 90
        0
 40
-0.6
 41
-30.0
 62
     5
 63
     8
 74
     1
 91
        4
 64
     7
 65
   257
 75
     1
175
     1
 42
1.0
 92
        8
 66
     8
 43
1.0
 76
     1
 77
     6
 78
     2
 67
     7
 79
     5
170
     0
171
     0
290
     0
174
     0
 93
        1
 44
0.0
173
     0
291
     1
 45
0.0
1001
ACAD
1000
AcDbSavedByObjectVersion
1070
     0
  0
VISUALSTYLE
  5
42F
102
{ACAD_REACTORS
330
425
102
}
102
{ACAD_XDICTIONARY
360
457
102
}
330
425
100
AcDbVisualStyle
  2
Conceptual
 70
     9
 71
     3
 72
     2
 73
     0
 90
        0
 40
-0.6
 41
-30.0
 62
     5
 63
     7
 74
     2
 91
        2
 64
     7
 65
   257
 75
     1
175
     1
 42
40.0
 92
        8
 66
     7
 43
1.0
 76
     1
 77
     6
 78
     2
 67
     7
 79
     3
170
     0
171
     0
290
     0
174
     0
 93
        1
 44
0.0
173
     0
291
     0
 45
0.0
1001
ACAD
1000
AcDbSavedByObjectVersion
1070
     0
  0
VISUALSTYLE
  5
430
102
{ACAD_REACTORS
330
425
102
}
102
{ACAD_XDICTIONARY
360
459
102
}
330
425
100
AcDbVisualStyle
  2
Dim
 70
    11
 71
     2
 72
     2
 73
     0
 90
        0
 40
-0.6
 41
-30.0
 62
     5
 63
     7
 74
     1
 91
        4
 64
     7
 65
   257
 75
     1
175
     1
 42
1.0
 92
        8
 66
     7
 43
1.0
 76
     1
 77
     6
 78
     2
 67
     7
 79
     5
170
     0
171
     0
290
     0
174
     0
 93
        1
 44
-50.0
173
     0
291
     1
 45
0.0
1001
ACAD
1000
AcDbSavedByObjectVersion
1070
     0
  0
VISUALSTYLE
  5
434
102
{ACAD_REACTORS
330
425
102
}
102
{ACAD_XDICTIONARY
360
461
102
}
330
425
100
AcDbVisualStyle
  2
Facepattern
 70
    15
 71
     2
 72
     2
 73
     0
 90
        0
 40
-0.6
 41
-30.0
 62
     5
 63
     7
 74
     1
 91
        4
 64
     7
 65
   257
 75
     1
175
     1
 42
1.0
 92
        8
 66
     7
 43
1.0
 76
     1
 77
     6
 78
     2
 67
     7
 79
     5
170
     0
171
     0
290
     0
174
     0
 93
        1
 44
0.0
173
     0
291
     1
 45
0.0
1001
ACAD
1000
AcDbSavedByObjectVersion
1070
     0
  0
VISUALSTYLE
  5
426
102
{ACAD_REACTORS
330
425
102
}
102
{ACAD_XDICTIONARY
360
445
102
}
330
425
100
AcDbVisualStyle
  2
Flat
 70
     0
 71
     2
 72
     1
 73
     1
 90
        2
 40
-0.6
 41
30.0
 62
     5
 63
     7
 74
     0
 91
        4
 64
     7
 65
   257
 75
     1
175
     1
 42
1.0
 92
        8
 66
     7
 43
1.0
 76
     1
 77
     6
 78
     2
 67
     7
 79
     5
170
     0
171
     0
290
     0
174
     0
 93
       13
 44
0.0
173
     0
291
     1
 45
0.0
1001
ACAD
1000
AcDbSavedByObjectVersion
1070
     0
  0
VISUALSTYLE
  5
427
102
{ACAD_REACTORS
330
425
102
}
102
{ACAD_XDICTIONARY
360
447
102
}
330
425
100
AcDbVisualStyle
  2
FlatWithEdges
 70
     1
 71
     2
 72
     1
 73
     1
 90
        2
 40
-0.6
 41
30.0
 62
     5
 63
     7
 74
     1
 91
        4
 64
     7
 65
   257
 75
     1
175
     1
 42
1.0
 92
        0
 66
   257
 43
1.0
 76
     1
 77
     6
 78
     2
 67
     7
 79
     5
170
     0
171
     0
290
     0
174
     0
 93
       13
 44
0.0
173
     0
291
     1
 45
0.0
1001
ACAD
1000
AcDbSavedByObjectVersion
1070
     0
  0
VISUALSTYLE
  5
428
102
{ACAD_REACTORS
330
425
102
}
102
{ACAD_XDICTIONARY
360
449
102
}
330
425
100
AcDbVisualStyle
  2
Gouraud
 70
     2
 71
     2
 72
     2
 73
     1
 90
        2
 40
-0.6
 41
30.0
 62
     5
 63
     7
 74
     0
 91
        4
 64
     7
 65
   257
 75
     1
175
     1
 42
1.0
 92
        0
 66
     7
 43
1.0
 76
     1
 77
     6
 78
     2
 67
     7
 79
     5
170
     0
171
     0
290
     0
174
     0
 93
       13
 44
0.0
173
     0
291
     1
 45
0.0
1001
ACAD
1000
AcDbSavedByObjectVersion
1070
     0
  0
VISUALSTYLE
  5
429
102
{ACAD_REACTORS
330
425
102
}
102
{ACAD_XDICTIONARY
360
44B
102
}
330
425
100
AcDbVisualStyle
  2
GouraudWithEdges
 70
     3
 71
     2
 72
     2
 73
     1
 90
        2
 40
-0.6
 41
30.0
 62
     5
 63
     7
 74
     1
 91
        4
 64
     7
 65
   257
 75
     1
175
     1
 42
1.0
 92
        0
 66
   257
 43
1.0
 76
     1
 77
     6
 78
     2
 67
     7
 79
     5
170
     0
171
     0
290
     0
174
     0
 93
       13
 44
0.0
173
     0
291
     1
 45
0.0
1001
ACAD
1000
AcDbSavedByObjectVersion
1070
     0
  0
VISUALSTYLE
  5
433
102
{ACAD_REACTORS
330
425
102
}
102
{ACAD_XDICTIONARY
360
45F
102
}
330
425
100
AcDbVisualStyle
  2
Linepattern
 70
    14
 71
     2
 72
     2
 73
     0
 90
        0
 40
-0.6
 41
-30.0
 62
     5
 63
     7
 74
     1
 91
        4
 64
     7
 65
   257
 75
     7
175
     7
 42
1.0
 92
        8
 66
     7
 43
1.0
 76
     1
 77
     6
 78
     2
 67
     7
 79
     5
170
     0
171
     0
290
     0
174
     0
 93
        1
 44
0.0
173
     0
291
     1
 45
0.0
1001
ACAD
1000
AcDbSavedByObjectVersion
1070
     0
  0
VISUALSTYLE
  5
42E
102
{ACAD_REACTORS
330
425
102
}
102
{ACAD_XDICTIONARY
360
455
102
}
330
425
100
AcDbVisualStyle
  2
Realistic
 70
     8
 71
     2
 72
     2
 73
     0
 90
        0
 40
-0.6
 41
-30.0
 62
     5
 63
     7
 74
     1
 91
        0
 64
     7
 65
   257
 75
     1
175
     1
 42
1.0
 92
        8
 66
     8
 43
1.0
 76
     1
 77
     6
 78
     2
 67
     7
 79
     5
170
     0
171
     0
290
     0
174
     0
 93
       13
 44
0.0
173
     0
291
     0
 45
0.0
1001
ACAD
1000
AcDbSavedByObjectVersion
1070
     0
  0
VISUALSTYLE
  5
432
102
{ACAD_REACTORS
330
425
102
}
102
{ACAD_XDICTIONARY
360
45D
102
}
330
425
100
AcDbVisualStyle
  2
Thicken
 70
    13
 71
     2
 72
     2
 73
     0
 90
        0
 40
-0.6
 41
-30.0
 62
     5
 63
     7
 74
     1
 91
        4
 64
     7
 65
   257
 75
     1
175
     1
 42
1.0
 92
       12
 66
     7
 43
1.0
 76
     1
 77
     6
 78
     2
 67
     7
 79
     5
170
     0
171
     0
290
     0
174
     0
 93
        1
 44
0.0
173
     0
291
     1
 45
0.0
1001
ACAD
1000
AcDbSavedByObjectVersion
1070
     0
  0
DICTIONARYVAR
  5
444
102
{ACAD_REACTORS
330
43C
102
}
330
43C
100
DictionaryVariables
280
     0
  1
1:1
  0
DICTIONARYVAR
  5
440
102
{ACAD_REACTORS
330
43C
102
}
330
43C
100
DictionaryVariables
280
     0
  1
2
  0
DICTIONARYVAR
  5
441
102
{ACAD_REACTORS
330
43C
102
}
330
43C
100
DictionaryVariables
280
     0
  1
1
  0
DICTIONARYVAR
  5
43F
102
{ACAD_REACTORS
330
43C
102
}
330
43C
100
DictionaryVariables
280
     0
  1
0
  0
DICTIONARY
  5
467
330
438
100
AcDbDictionary
280
     1
281
     1
  3
ACAD_XREC_ROUNDTRIP
360
468
  0
DICTIONARY
  5
465
330
437
100
AcDbDictionary
280
     1
281
     1
  3
ACAD_XREC_ROUNDTRIP
360
466
  0
DICTIONARY
  5
469
330
439
100
AcDbDictionary
280
     1
281
     1
  3
ACAD_XREC_ROUNDTRIP
360
46A
  0
DICTIONARY
  5
44D
330
42A
100
AcDbDictionary
280
     1
281
     1
  3
ACAD_XREC_ROUNDTRIP
360
44E
  0
DICTIONARY
  5
451
330
42C
100
AcDbDictionary
280
     1
281
     1
  3
ACAD_XREC_ROUNDTRIP
360
452
  0
DICTIONARY
  5
44F
330
42B
100
AcDbDictionary
280
     1
281
     1
  3
ACAD_XREC_ROUNDTRIP
360
450
  0
DICTIONARY
  5
453
330
42D
100
AcDbDictionary
280
     1
281
     1
  3
ACAD_XREC_ROUNDTRIP
360
454
  0
DICTIONARY
  5
45B
330
431
100
AcDbDictionary
280
     1
281
     1
  3
ACAD_XREC_ROUNDTRIP
360
45C
  0
DICTIONARY
  5
463
330
435
100
AcDbDictionary
280
     1
281
     1
  3
ACAD_XREC_ROUNDTRIP
360
464
  0
DICTIONARY
  5
457
330
42F
100
AcDbDictionary
280
     1
281
     1
  3
ACAD_XREC_ROUNDTRIP
360
458
  0
DICTIONARY
  5
459
330
430
100
AcDbDictionary
280
     1
281
     1
  3
ACAD_XREC_ROUNDTRIP
360
45A
  0
DICTIONARY
  5
461
330
434
100
AcDbDictionary
280
     1
281
     1
  3
ACAD_XREC_ROUNDTRIP
360
462
  0
DICTIONARY
  5
445
330
426
100
AcDbDictionary
280
     1
281
     1
  3
ACAD_XREC_ROUNDTRIP
360
446
  0
DICTIONARY
  5
447
330
427
100
AcDbDictionary
280
     1
281
     1
  3
ACAD_XREC_ROUNDTRIP
360
448
  0
DICTIONARY
  5
449
330
428
100
AcDbDictionary
280
     1
281
     1
  3
ACAD_XREC_ROUNDTRIP
360
44A
  0
DICTIONARY
  5
44B
330
429
100
AcDbDictionary
280
     1
281
     1
  3
ACAD_XREC_ROUNDTRIP
360
44C
  0
DICTIONARY
  5
45F
330
433
100
AcDbDictionary
280
     1
281
     1
  3
ACAD_XREC_ROUNDTRIP
360
460
  0
DICTIONARY
  5
455
330
42E
100
AcDbDictionary
280
     1
281
     1
  3
ACAD_XREC_ROUNDTRIP
360
456
  0
DICTIONARY
  5
45D
330
432
100
AcDbDictionary
280
     1
281
     1
  3
ACAD_XREC_ROUNDTRIP
360
45E
  0
XRECORD
  5
468
102
{ACAD_REACTORS
330
467
102
}
330
467
100
AcDbXrecord
280
     1
102
MATERIAL
148
0.0
149
0.0
149
0.0
 93
        0
 94
      127
282
     0
 72
     1
 77
     1
171
     1
175
     1
179
     1
273
     0
  0
XRECORD
  5
466
102
{ACAD_REACTORS
330
465
102
}
330
465
100
AcDbXrecord
280
     1
102
MATERIAL
148
0.0
149
0.0
149
0.0
 93
        0
 94
      127
282
     0
 72
     1
 77
     1
171
     1
175
     1
179
     1
273
     0
  0
XRECORD
  5
46A
102
{ACAD_REACTORS
330
469
102
}
330
469
100
AcDbXrecord
280
     1
102
MATERIAL
148
0.0
149
0.0
149
0.0
 93
        0
 94
      127
282
     0
 72
     1
 77
     1
171
     1
175
     1
179
     1
273
     0
  0
XRECORD
  5
44E
102
{ACAD_REACTORS
330
44D
102
}
330
44D
100
AcDbXrecord
280
     1
102
RTVSPropertyOp0
 70
     1
102
RTVSPropertyOp1
 70
     1
102
RTVSPropertyOp2
 70
     1
102
RTVSPropertyOp3
 70
     1
102
RTVSPropertyOp4
 70
     1
102
RTVSPropertyOp5
 70
     1
102
RTVSPropertyOp6
 70
     1
102
RTVSPropertyOp7
 70
     1
102
RTVSPropertyOp8
 70
     1
102
RTVSPropertyOp9
 70
     1
102
RTVSPropertyOp10
 70
     1
102
RTVSPropertyOp11
 70
     1
102
RTVSPropertyOp12
 70
     1
102
RTVSPropertyOp13
 70
     1
102
RTVSPropertyOp14
 70
     1
102
RTVSPropertyOp15
 70
     1
102
RTVSPropertyOp16
 70
     1
102
RTVSPropertyOp17
 70
     1
102
RTVSPropertyOp18
 70
     1
102
RTVSPropertyOp19
 70
     1
102
RTVSPropertyOp20
 70
     1
102
RTVSPropertyOp21
 70
     1
102
RTVSPropertyOp22
 70
     1
102
RTVSPropertyOp23
 70
     1
102
RTVSPropertyOp24
 70
     1
102
RTVSPropertyOp25
 70
     1
102
RTVSPropertyOp26
 70
     1
102
RTVSPropertyOp27
 70
     1
102
RTVSPropertyOp28
 70
     1
102
RTVSPropertyOp29
 70
     1
102
RTVSPropertyOp30
 70
     1
102
RTVSPropertyOp31
 70
     1
102
RTVSPropertyOp32
 70
     1
  0
XRECORD
  5
452
102
{ACAD_REACTORS
330
451
102
}
330
451
100
AcDbXrecord
280
     1
102
RTVSPropertyOp0
 70
     1
102
RTVSPropertyOp1
 70
     1
102
RTVSPropertyOp2
 70
     1
102
RTVSPropertyOp3
 70
     1
102
RTVSPropertyOp4
 70
     1
102
RTVSPropertyOp5
 70
     1
102
RTVSPropertyOp6
 70
     1
102
RTVSPropertyOp7
 70
     1
102
RTVSPropertyOp8
 70
     1
102
RTVSPropertyOp9
 70
     1
102
RTVSPropertyOp10
 70
     1
102
RTVSPropertyOp11
 70
     1
102
RTVSPropertyOp12
 70
     1
102
RTVSPropertyOp13
 70
     1
102
RTVSPropertyOp14
 70
     1
102
RTVSPropertyOp15
 70
     1
102
RTVSPropertyOp16
 70
     1
102
RTVSPropertyOp17
 70
     1
102
RTVSPropertyOp18
 70
     1
102
RTVSPropertyOp19
 70
     1
102
RTVSPropertyOp20
 70
     1
102
RTVSPropertyOp21
 70
     1
102
RTVSPropertyOp22
 70
     1
102
RTVSPropertyOp23
 70
     1
102
RTVSPropertyOp24
 70
     1
102
RTVSPropertyOp25
 70
     1
102
RTVSPropertyOp26
 70
     1
102
RTVSPropertyOp27
 70
     1
102
RTVSPropertyOp28
 70
     1
102
RTVSPropertyOp29
 70
     1
102
RTVSPropertyOp30
 70
     1
102
RTVSPropertyOp31
 70
     1
102
RTVSPropertyOp32
 70
     1
  0
XRECORD
  5
450
102
{ACAD_REACTORS
330
44F
102
}
330
44F
100
AcDbXrecord
280
     1
102
RTVSPropertyOp0
 70
     1
102
RTVSPropertyOp1
 70
     1
102
RTVSPropertyOp2
 70
     1
102
RTVSPropertyOp3
 70
     1
102
RTVSPropertyOp4
 70
     1
102
RTVSPropertyOp5
 70
     1
102
RTVSPropertyOp6
 70
     1
102
RTVSPropertyOp7
 70
     1
102
RTVSPropertyOp8
 70
     1
102
RTVSPropertyOp9
 70
     1
102
RTVSPropertyOp10
 70
     1
102
RTVSPropertyOp11
 70
     1
102
RTVSPropertyOp12
 70
     1
102
RTVSPropertyOp13
 70
     1
102
RTVSPropertyOp14
 70
     1
102
RTVSPropertyOp15
 70
     1
102
RTVSPropertyOp16
 70
     1
102
RTVSPropertyOp17
 70
     1
102
RTVSPropertyOp18
 70
     1
102
RTVSPropertyOp19
 70
     1
102
RTVSPropertyOp20
 70
     1
102
RTVSPropertyOp21
 70
     1
102
RTVSPropertyOp22
 70
     1
102
RTVSPropertyOp23
 70
     1
102
RTVSPropertyOp24
 70
     1
102
RTVSPropertyOp25
 70
     1
102
RTVSPropertyOp26
 70
     1
102
RTVSPropertyOp27
 70
     1
102
RTVSPropertyOp28
 70
     1
102
RTVSPropertyOp29
 70
     1
102
RTVSPropertyOp30
 70
     1
102
RTVSPropertyOp31
 70
     1
102
RTVSPropertyOp32
 70
     1
  0
XRECORD
  5
454
102
{ACAD_REACTORS
330
453
102
}
330
453
100
AcDbXrecord
280
     1
102
RTVSPropertyOp0
 70
     1
102
RTVSPropertyOp1
 70
     1
102
RTVSPropertyOp2
 70
     1
102
RTVSPropertyOp3
 70
     1
102
RTVSPropertyOp4
 70
     1
102
RTVSPropertyOp5
 70
     1
102
RTVSPropertyOp6
 70
     1
102
RTVSPropertyOp7
 70
     1
102
RTVSPropertyOp8
 70
     1
102
RTVSPropertyOp9
 70
     1
102
RTVSPropertyOp10
 70
     1
102
RTVSPropertyOp11
 70
     1
102
RTVSPropertyOp12
 70
     1
102
RTVSPropertyOp13
 70
     1
102
RTVSPropertyOp14
 70
     1
102
RTVSPropertyOp15
 70
     1
102
RTVSPropertyOp16
 70
     1
102
RTVSPropertyOp17
 70
     1
102
RTVSPropertyOp18
 70
     1
102
RTVSPropertyOp19
 70
     1
102
RTVSPropertyOp20
 70
     1
102
RTVSPropertyOp21
 70
     1
102
RTVSPropertyOp22
 70
     1
102
RTVSPropertyOp23
 70
     1
102
RTVSPropertyOp24
 70
     1
102
RTVSPropertyOp25
 70
     1
102
RTVSPropertyOp26
 70
     1
102
RTVSPropertyOp27
 70
     1
102
RTVSPropertyOp28
 70
     1
102
RTVSPropertyOp29
 70
     1
102
RTVSPropertyOp30
 70
     1
102
RTVSPropertyOp31
 70
     1
102
RTVSPropertyOp32
 70
     1
  0
XRECORD
  5
45C
102
{ACAD_REACTORS
330
45B
102
}
330
45B
100
AcDbXrecord
280
     1
102
RTVSPropertyOp0
 70
     1
102
RTVSPropertyOp1
 70
     1
102
RTVSPropertyOp2
 70
     1
102
RTVSPropertyOp3
 70
     1
102
RTVSPropertyOp4
 70
     1
102
RTVSPropertyOp5
 70
     1
102
RTVSPropertyOp6
 70
     1
102
RTVSPropertyOp7
 70
     1
102
RTVSPropertyOp8
 70
     1
102
RTVSPropertyOp9
 70
     1
102
RTVSPropertyOp10
 70
     1
102
RTVSPropertyOp11
 70
     1
102
RTVSPropertyOp12
 70
     1
102
RTVSPropertyOp13
 70
     1
102
RTVSPropertyOp14
 70
     1
102
RTVSPropertyOp15
 70
     1
102
RTVSPropertyOp16
 70
     1
102
RTVSPropertyOp17
 70
     1
102
RTVSPropertyOp18
 70
     1
102
RTVSPropertyOp19
 70
     1
102
RTVSPropertyOp20
 70
     1
102
RTVSPropertyOp21
 70
     1
102
RTVSPropertyOp22
 70
     1
102
RTVSPropertyOp23
 70
     1
102
RTVSPropertyOp24
 70
     1
102
RTVSPropertyOp25
 70
     1
102
RTVSPropertyOp26
 70
     1
102
RTVSPropertyOp27
 70
     1
102
RTVSPropertyOp28
 70
     1
102
RTVSPropertyOp29
 70
     1
102
RTVSPropertyOp30
 70
     1
102
RTVSPropertyOp31
 70
     1
102
RTVSPropertyOp32
 70
     1
  0
XRECORD
  5
464
102
{ACAD_REACTORS
330
463
102
}
330
463
100
AcDbXrecord
280
     1
102
RTVSPropertyOp0
 70
     1
102
RTVSPropertyOp1
 70
     1
102
RTVSPropertyOp2
 70
     1
102
RTVSPropertyOp3
 70
     1
102
RTVSPropertyOp4
 70
     1
102
RTVSPropertyOp5
 70
     1
102
RTVSPropertyOp6
 70
     1
102
RTVSPropertyOp7
 70
     1
102
RTVSPropertyOp8
 70
     1
102
RTVSPropertyOp9
 70
     1
102
RTVSPropertyOp10
 70
     1
102
RTVSPropertyOp11
 70
     1
102
RTVSPropertyOp12
 70
     1
102
RTVSPropertyOp13
 70
     1
102
RTVSPropertyOp14
 70
     1
102
RTVSPropertyOp15
 70
     1
102
RTVSPropertyOp16
 70
     1
102
RTVSPropertyOp17
 70
     1
102
RTVSPropertyOp18
 70
     1
102
RTVSPropertyOp19
 70
     1
102
RTVSPropertyOp20
 70
     1
102
RTVSPropertyOp21
 70
     1
102
RTVSPropertyOp22
 70
     1
102
RTVSPropertyOp23
 70
     1
102
RTVSPropertyOp24
 70
     1
102
RTVSPropertyOp25
 70
     1
102
RTVSPropertyOp26
 70
     1
102
RTVSPropertyOp27
 70
     1
102
RTVSPropertyOp28
 70
     1
102
RTVSPropertyOp29
 70
     1
102
RTVSPropertyOp30
 70
     1
102
RTVSPropertyOp31
 70
     1
102
RTVSPropertyOp32
 70
     1
  0
XRECORD
  5
458
102
{ACAD_REACTORS
330
457
102
}
330
457
100
AcDbXrecord
280
     1
102
RTVSPropertyOp0
 70
     1
102
RTVSPropertyOp1
 70
     1
102
RTVSPropertyOp2
 70
     1
102
RTVSPropertyOp3
 70
     1
102
RTVSPropertyOp4
 70
     1
102
RTVSPropertyOp5
 70
     1
102
RTVSPropertyOp6
 70
     1
102
RTVSPropertyOp7
 70
     1
102
RTVSPropertyOp8
 70
     1
102
RTVSPropertyOp9
 70
     1
102
RTVSPropertyOp10
 70
     1
102
RTVSPropertyOp11
 70
     1
102
RTVSPropertyOp12
 70
     1
102
RTVSPropertyOp13
 70
     1
102
RTVSPropertyOp14
 70
     1
102
RTVSPropertyOp15
 70
     1
102
RTVSPropertyOp16
 70
     1
102
RTVSPropertyOp17
 70
     1
102
RTVSPropertyOp18
 70
     1
102
RTVSPropertyOp19
 70
     1
102
RTVSPropertyOp20
 70
     1
102
RTVSPropertyOp21
 70
     1
102
RTVSPropertyOp22
 70
     1
102
RTVSPropertyOp23
 70
     1
102
RTVSPropertyOp24
 70
     1
102
RTVSPropertyOp25
 70
     1
102
RTVSPropertyOp26
 70
     1
102
RTVSPropertyOp27
 70
     1
102
RTVSPropertyOp28
 70
     1
102
RTVSPropertyOp29
 70
     1
102
RTVSPropertyOp30
 70
     1
102
RTVSPropertyOp31
 70
     1
102
RTVSPropertyOp32
 70
     1
  0
XRECORD
  5
45A
102
{ACAD_REACTORS
330
459
102
}
330
459
100
AcDbXrecord
280
     1
102
RTVSPropertyOp0
 70
     1
102
RTVSPropertyOp1
 70
     1
102
RTVSPropertyOp2
 70
     1
102
RTVSPropertyOp3
 70
     1
102
RTVSPropertyOp4
 70
     1
102
RTVSPropertyOp5
 70
     1
102
RTVSPropertyOp6
 70
     1
102
RTVSPropertyOp7
 70
     1
102
RTVSPropertyOp8
 70
     1
102
RTVSPropertyOp9
 70
     1
102
RTVSPropertyOp10
 70
     1
102
RTVSPropertyOp11
 70
     1
102
RTVSPropertyOp12
 70
     1
102
RTVSPropertyOp13
 70
     1
102
RTVSPropertyOp14
 70
     1
102
RTVSPropertyOp15
 70
     1
102
RTVSPropertyOp16
 70
     1
102
RTVSPropertyOp17
 70
     1
102
RTVSPropertyOp18
 70
     1
102
RTVSPropertyOp19
 70
     1
102
RTVSPropertyOp20
 70
     1
102
RTVSPropertyOp21
 70
     1
102
RTVSPropertyOp22
 70
     1
102
RTVSPropertyOp23
 70
     1
102
RTVSPropertyOp24
 70
     1
102
RTVSPropertyOp25
 70
     1
102
RTVSPropertyOp26
 70
     1
102
RTVSPropertyOp27
 70
     1
102
RTVSPropertyOp28
 70
     1
102
RTVSPropertyOp29
 70
     1
102
RTVSPropertyOp30
 70
     1
102
RTVSPropertyOp31
 70
     1
102
RTVSPropertyOp32
 70
     1
  0
XRECORD
  5
462
102
{ACAD_REACTORS
330
461
102
}
330
461
100
AcDbXrecord
280
     1
102
RTVSPropertyOp0
 70
     1
102
RTVSPropertyOp1
 70
     1
102
RTVSPropertyOp2
 70
     1
102
RTVSPropertyOp3
 70
     1
102
RTVSPropertyOp4
 70
     1
102
RTVSPropertyOp5
 70
     1
102
RTVSPropertyOp6
 70
     1
102
RTVSPropertyOp7
 70
     1
102
RTVSPropertyOp8
 70
     1
102
RTVSPropertyOp9
 70
     1
102
RTVSPropertyOp10
 70
     1
102
RTVSPropertyOp11
 70
     1
102
RTVSPropertyOp12
 70
     1
102
RTVSPropertyOp13
 70
     1
102
RTVSPropertyOp14
 70
     1
102
RTVSPropertyOp15
 70
     1
102
RTVSPropertyOp16
 70
     1
102
RTVSPropertyOp17
 70
     1
102
RTVSPropertyOp18
 70
     1
102
RTVSPropertyOp19
 70
     1
102
RTVSPropertyOp20
 70
     1
102
RTVSPropertyOp21
 70
     1
102
RTVSPropertyOp22
 70
     1
102
RTVSPropertyOp23
 70
     1
102
RTVSPropertyOp24
 70
     1
102
RTVSPropertyOp25
 70
     1
102
RTVSPropertyOp26
 70
     1
102
RTVSPropertyOp27
 70
     1
102
RTVSPropertyOp28
 70
     1
102
RTVSPropertyOp29
 70
     1
102
RTVSPropertyOp30
 70
     1
102
RTVSPropertyOp31
 70
     1
102
RTVSPropertyOp32
 70
     1
  0
XRECORD
  5
446
102
{ACAD_REACTORS
330
445
102
}
330
445
100
AcDbXrecord
280
     1
102
RTVSPropertyOp0
 70
     1
102
RTVSPropertyOp1
 70
     1
102
RTVSPropertyOp2
 70
     1
102
RTVSPropertyOp3
 70
     1
102
RTVSPropertyOp4
 70
     1
102
RTVSPropertyOp5
 70
     1
102
RTVSPropertyOp6
 70
     1
102
RTVSPropertyOp7
 70
     1
102
RTVSPropertyOp8
 70
     1
102
RTVSPropertyOp9
 70
     1
102
RTVSPropertyOp10
 70
     1
102
RTVSPropertyOp11
 70
     1
102
RTVSPropertyOp12
 70
     1
102
RTVSPropertyOp13
 70
     1
102
RTVSPropertyOp14
 70
     1
102
RTVSPropertyOp15
 70
     1
102
RTVSPropertyOp16
 70
     1
102
RTVSPropertyOp17
 70
     1
102
RTVSPropertyOp18
 70
     1
102
RTVSPropertyOp19
 70
     1
102
RTVSPropertyOp20
 70
     1
102
RTVSPropertyOp21
 70
     1
102
RTVSPropertyOp22
 70
     1
102
RTVSPropertyOp23
 70
     1
102
RTVSPropertyOp24
 70
     1
102
RTVSPropertyOp25
 70
     1
102
RTVSPropertyOp26
 70
     1
102
RTVSPropertyOp27
 70
     1
102
RTVSPropertyOp28
 70
     1
102
RTVSPropertyOp29
 70
     1
102
RTVSPropertyOp30
 70
     1
102
RTVSPropertyOp31
 70
     1
102
RTVSPropertyOp32
 70
     1
  0
XRECORD
  5
448
102
{ACAD_REACTORS
330
447
102
}
330
447
100
AcDbXrecord
280
     1
102
RTVSPropertyOp0
 70
     1
102
RTVSPropertyOp1
 70
     1
102
RTVSPropertyOp2
 70
     1
102
RTVSPropertyOp3
 70
     1
102
RTVSPropertyOp4
 70
     1
102
RTVSPropertyOp5
 70
     1
102
RTVSPropertyOp6
 70
     1
102
RTVSPropertyOp7
 70
     1
102
RTVSPropertyOp8
 70
     1
102
RTVSPropertyOp9
 70
     1
102
RTVSPropertyOp10
 70
     1
102
RTVSPropertyOp11
 70
     1
102
RTVSPropertyOp12
 70
     1
102
RTVSPropertyOp13
 70
     1
102
RTVSPropertyOp14
 70
     1
102
RTVSPropertyOp15
 70
     1
102
RTVSPropertyOp16
 70
     1
102
RTVSPropertyOp17
 70
     1
102
RTVSPropertyOp18
 70
     1
102
RTVSPropertyOp19
 70
     1
102
RTVSPropertyOp20
 70
     1
102
RTVSPropertyOp21
 70
     1
102
RTVSPropertyOp22
 70
     1
102
RTVSPropertyOp23
 70
     1
102
RTVSPropertyOp24
 70
     1
102
RTVSPropertyOp25
 70
     1
102
RTVSPropertyOp26
 70
     1
102
RTVSPropertyOp27
 70
     1
102
RTVSPropertyOp28
 70
     1
102
RTVSPropertyOp29
 70
     1
102
RTVSPropertyOp30
 70
     1
102
RTVSPropertyOp31
 70
     1
102
RTVSPropertyOp32
 70
     1
  0
XRECORD
  5
44A
102
{ACAD_REACTORS
330
449
102
}
330
449
100
AcDbXrecord
280
     1
102
RTVSPropertyOp0
 70
     1
102
RTVSPropertyOp1
 70
     1
102
RTVSPropertyOp2
 70
     1
102
RTVSPropertyOp3
 70
     1
102
RTVSPropertyOp4
 70
     1
102
RTVSPropertyOp5
 70
     1
102
RTVSPropertyOp6
 70
     1
102
RTVSPropertyOp7
 70
     1
102
RTVSPropertyOp8
 70
     1
102
RTVSPropertyOp9
 70
     1
102
RTVSPropertyOp10
 70
     1
102
RTVSPropertyOp11
 70
     1
102
RTVSPropertyOp12
 70
     1
102
RTVSPropertyOp13
 70
     1
102
RTVSPropertyOp14
 70
     1
102
RTVSPropertyOp15
 70
     1
102
RTVSPropertyOp16
 70
     1
102
RTVSPropertyOp17
 70
     1
102
RTVSPropertyOp18
 70
     1
102
RTVSPropertyOp19
 70
     1
102
RTVSPropertyOp20
 70
     1
102
RTVSPropertyOp21
 70
     1
102
RTVSPropertyOp22
 70
     1
102
RTVSPropertyOp23
 70
     1
102
RTVSPropertyOp24
 70
     1
102
RTVSPropertyOp25
 70
     1
102
RTVSPropertyOp26
 70
     1
102
RTVSPropertyOp27
 70
     1
102
RTVSPropertyOp28
 70
     1
102
RTVSPropertyOp29
 70
     1
102
RTVSPropertyOp30
 70
     1
102
RTVSPropertyOp31
 70
     1
102
RTVSPropertyOp32
 70
     1
  0
XRECORD
  5
44C
102
{ACAD_REACTORS
330
44B
102
}
330
44B
100
AcDbXrecord
280
     1
102
RTVSPropertyOp0
 70
     1
102
RTVSPropertyOp1
 70
     1
102
RTVSPropertyOp2
 70
     1
102
RTVSPropertyOp3
 70
     1
102
RTVSPropertyOp4
 70
     1
102
RTVSPropertyOp5
 70
     1
102
RTVSPropertyOp6
 70
     1
102
RTVSPropertyOp7
 70
     1
102
RTVSPropertyOp8
 70
     1
102
RTVSPropertyOp9
 70
     1
102
RTVSPropertyOp10
 70
     1
102
RTVSPropertyOp11
 70
     1
102
RTVSPropertyOp12
 70
     1
102
RTVSPropertyOp13
 70
     1
102
RTVSPropertyOp14
 70
     1
102
RTVSPropertyOp15
 70
     1
102
RTVSPropertyOp16
 70
     1
102
RTVSPropertyOp17
 70
     1
102
RTVSPropertyOp18
 70
     1
102
RTVSPropertyOp19
 70
     1
102
RTVSPropertyOp20
 70
     1
102
RTVSPropertyOp21
 70
     1
102
RTVSPropertyOp22
 70
     1
102
RTVSPropertyOp23
 70
     1
102
RTVSPropertyOp24
 70
     1
102
RTVSPropertyOp25
 70
     1
102
RTVSPropertyOp26
 70
     1
102
RTVSPropertyOp27
 70
     1
102
RTVSPropertyOp28
 70
     1
102
RTVSPropertyOp29
 70
     1
102
RTVSPropertyOp30
 70
     1
102
RTVSPropertyOp31
 70
     1
102
RTVSPropertyOp32
 70
     1
  0
XRECORD
  5
460
102
{ACAD_REACTORS
330
45F
102
}
330
45F
100
AcDbXrecord
280
     1
102
RTVSPropertyOp0
 70
     1
102
RTVSPropertyOp1
 70
     1
102
RTVSPropertyOp2
 70
     1
102
RTVSPropertyOp3
 70
     1
102
RTVSPropertyOp4
 70
     1
102
RTVSPropertyOp5
 70
     1
102
RTVSPropertyOp6
 70
     1
102
RTVSPropertyOp7
 70
     1
102
RTVSPropertyOp8
 70
     1
102
RTVSPropertyOp9
 70
     1
102
RTVSPropertyOp10
 70
     1
102
RTVSPropertyOp11
 70
     1
102
RTVSPropertyOp12
 70
     1
102
RTVSPropertyOp13
 70
     1
102
RTVSPropertyOp14
 70
     1
102
RTVSPropertyOp15
 70
     1
102
RTVSPropertyOp16
 70
     1
102
RTVSPropertyOp17
 70
     1
102
RTVSPropertyOp18
 70
     1
102
RTVSPropertyOp19
 70
     1
102
RTVSPropertyOp20
 70
     1
102
RTVSPropertyOp21
 70
     1
102
RTVSPropertyOp22
 70
     1
102
RTVSPropertyOp23
 70
     1
102
RTVSPropertyOp24
 70
     1
102
RTVSPropertyOp25
 70
     1
102
RTVSPropertyOp26
 70
     1
102
RTVSPropertyOp27
 70
     1
102
RTVSPropertyOp28
 70
     1
102
RTVSPropertyOp29
 70
     1
102
RTVSPropertyOp30
 70
     1
102
RTVSPropertyOp31
 70
     1
102
RTVSPropertyOp32
 70
     1
  0
XRECORD
  5
456
102
{ACAD_REACTORS
330
455
102
}
330
455
100
AcDbXrecord
280
     1
102
RTVSPropertyOp0
 70
     1
102
RTVSPropertyOp1
 70
     1
102
RTVSPropertyOp2
 70
     1
102
RTVSPropertyOp3
 70
     1
102
RTVSPropertyOp4
 70
     1
102
RTVSPropertyOp5
 70
     1
102
RTVSPropertyOp6
 70
     1
102
RTVSPropertyOp7
 70
     1
102
RTVSPropertyOp8
 70
     1
102
RTVSPropertyOp9
 70
     1
102
RTVSPropertyOp10
 70
     1
102
RTVSPropertyOp11
 70
     1
102
RTVSPropertyOp12
 70
     1
102
RTVSPropertyOp13
 70
     1
102
RTVSPropertyOp14
 70
     1
102
RTVSPropertyOp15
 70
     1
102
RTVSPropertyOp16
 70
     1
102
RTVSPropertyOp17
 70
     1
102
RTVSPropertyOp18
 70
     1
102
RTVSPropertyOp19
 70
     1
102
RTVSPropertyOp20
 70
     1
102
RTVSPropertyOp21
 70
     1
102
RTVSPropertyOp22
 70
     1
102
RTVSPropertyOp23
 70
     1
102
RTVSPropertyOp24
 70
     1
102
RTVSPropertyOp25
 70
     1
102
RTVSPropertyOp26
 70
     1
102
RTVSPropertyOp27
 70
     1
102
RTVSPropertyOp28
 70
     1
102
RTVSPropertyOp29
 70
     1
102
RTVSPropertyOp30
 70
     1
102
RTVSPropertyOp31
 70
     1
102
RTVSPropertyOp32
 70
     1
  0
XRECORD
  5
45E
102
{ACAD_REACTORS
330
45D
102
}
330
45D
100
AcDbXrecord
280
     1
102
RTVSPropertyOp0
 70
     1
102
RTVSPropertyOp1
 70
     1
102
RTVSPropertyOp2
 70
     1
102
RTVSPropertyOp3
 70
     1
102
RTVSPropertyOp4
 70
     1
102
RTVSPropertyOp5
 70
     1
102
RTVSPropertyOp6
 70
     1
102
RTVSPropertyOp7
 70
     1
102
RTVSPropertyOp8
 70
     1
102
RTVSPropertyOp9
 70
     1
102
RTVSPropertyOp10
 70
     1
102
RTVSPropertyOp11
 70
     1
102
RTVSPropertyOp12
 70
     1
102
RTVSPropertyOp13
 70
     1
102
RTVSPropertyOp14
 70
     1
102
RTVSPropertyOp15
 70
     1
102
RTVSPropertyOp16
 70
     1
102
RTVSPropertyOp17
 70
     1
102
RTVSPropertyOp18
 70
     1
102
RTVSPropertyOp19
 70
     1
102
RTVSPropertyOp20
 70
     1
102
RTVSPropertyOp21
 70
     1
102
RTVSPropertyOp22
 70
     1
102
RTVSPropertyOp23
 70
     1
102
RTVSPropertyOp24
 70
     1
102
RTVSPropertyOp25
 70
     1
102
RTVSPropertyOp26
 70
     1
102
RTVSPropertyOp27
 70
     1
102
RTVSPropertyOp28
 70
     1
102
RTVSPropertyOp29
 70
     1
102
RTVSPropertyOp30
 70
     1
102
RTVSPropertyOp31
 70
     1
102
RTVSPropertyOp32
 70
     1
  0
ENDSEC
  0
EOF
