  0
SECTION
  2
HEADER
  9
$ACADVER
  1
AC1015
  9
$ACADMAINTVER
 70
     6
  9
$DWGCODEPAGE
  3
ANSI_1252
  9
$INSBASE
 10
0.0
 20
0.0
 30
0.0
  9
$EXTMIN
 10
0.0
 20
0.0
 30
0.0
  9
$EXTMAX
 10
210.0
 20
297.0
 30
0.0
  9
$LIMMIN
 10
0.0
 20
0.0
  9
$LIMMAX
 10
0.0
 20
0.0
  9
$ORTHOMODE
 70
     0
  9
$REGENMODE
 70
     1
  9
$FILLMODE
 70
     1
  9
$QTEXTMODE
 70
     0
  9
$MIRRTEXT
 70
     1
  9
$LTSCALE
 40
1.0
  9
$ATTMODE
 70
     1
  9
$TEXTSIZE
 40
0.0
  9
$TRACEWID
 40
0.05
  9
$TEXTSTYLE
  7
STANDARD
  9
$CLAYER
  8
0
  9
$CELTYPE
  6
CONTINUOUS
  9
$CECOLOR
 62
   256
  9
$CELTSCALE
 40
1.0
  9
$DISPSILH
 70
     0
  9
$DIMSCALE
 40
1.0
  9
$DIMASZ
 40
0.0
  9
$DIMEXO
 40
0.0
  9
$DIMDLI
 40
0.38
  9
$DIMRND
 40
0.0
  9
$DIMDLE
 40
1000.0
  9
$DIMEXE
 40
0.18
  9
$DIMTP
 40
0.0
  9
$DIMTM
 40
0.0
  9
$DIMTXT
 40
3.5
  9
$DIMCEN
 40
0.09
  9
$DIMTSZ
 40
0.0
  9
$DIMTOL
 70
     0
  9
$DIMLIM
 70
     0
  9
$DIMTIH
 70
     1
  9
$DIMTOH
 70
     1
  9
$DIMSE1
 70
     0
  9
$DIMSE2
 70
     0
  9
$DIMTAD
 70
     1
  9
$DIMZIN
 70
     0
  9
$DIMBLK
  1

  9
$DIMASO
 70
     1
  9
$DIMSHO
 70
     1
  9
$DIMPOST
  1

  9
$DIMAPOST
  1

  9
$DIMALT
 70
     0
  9
$DIMALTD
 70
     2
  9
$DIMALTF
 40
0.0394
  9
$DIMLFAC
 40
1.0
  9
$DIMTOFL
 70
     0
  9
$DIMTVP
 40
0.0
  9
$DIMTIX
 70
     0
  9
$DIMSOXD
 70
     0
  9
$DIMSAH
 70
     0
  9
$DIMBLK1
  1

  9
$DIMBLK2
  1

  9
$DIMSTYLE
  2
STANDARD
  9
$DIMCLRD
 70
     0
  9
$DIMCLRE
 70
     0
  9
$DIMCLRT
 70
     0
  9
$DIMTFAC
 40
1.0
  9
$DIMGAP
 40
0.0
  9
$DIMJUST
 70
     0
  9
$DIMSD1
 70
     0
  9
$DIMSD2
 70
     0
  9
$DIMTOLJ
 70
     1
  9
$DIMTZIN
 70
     0
  9
$DIMALTZ
 70
     0
  9
$DIMALTTZ
 70
     0
  9
$DIMUPT
 70
     0
  9
$DIMDEC
 70
     4
  9
$DIMTDEC
 70
     4
  9
$DIMALTU
 70
     2
  9
$DIMALTTD
 70
     2
  9
$DIMTXSTY
  7
STANDARD
  9
$DIMAUNIT
 70
     0
  9
$DIMADEC
 70
     0
  9
$DIMALTRND
 40
0.0
  9
$DIMAZIN
 70
     0
  9
$DIMDSEP
 70
    46
  9
$DIMATFIT
 70
     3
  9
$DIMFRAC
 70
     0
  9
$DIMLDRBLK
  1

  9
$DIMLUNIT
 70
     2
  9
$DIMLWD
 70
    -2
  9
$DIMLWE
 70
    -2
  9
$DIMTMOVE
 70
     2
  9
$LUNITS
 70
     2
  9
$LUPREC
 70
     2
  9
$SKETCHINC
 40
0.1
  9
$FILLETRAD
 40
0.0
  9
$AUNITS
 70
     0
  9
$AUPREC
 70
     2
  9
$MENU
  1
acad
  9
$ELEVATION
 40
0.0
  9
$PELEVATION
 40
0.0
  9
$THICKNESS
 40
0.0
  9
$LIMCHECK
 70
     0
  9
$CHAMFERA
 40
0.0
  9
$CHAMFERB
 40
0.0
  9
$CHAMFERC
 40
0.0
  9
$CHAMFERD
 40
0.0
  9
$SKPOLY
 70
     0
  9
$TDCREATE
 40
2447893.0
  9
$TDUCREATE
 40
2447892.916666667
  9
$TDUPDATE
 40
2458327.548778368
  9
$TDUUPDATE
 40
2458327.465445035
  9
$TDINDWG
 40
0.0
  9
$TDUSRTIMER
 40
0.0
  9
$USRTIMER
 70
     1
  9
$ANGBASE
 50
0.0
  9
$ANGDIR
 70
     0
  9
$PDMODE
 70
     0
  9
$PDSIZE
 40
-1.0
  9
$PLINEWID
 40
0.0
  9
$SPLFRAME
 70
     0
  9
$SPLINETYPE
 70
     6
  9
$SPLINESEGS
 70
     8
  9
$HANDSEED
  5
475
  9
$SURFTAB1
 70
     6
  9
$SURFTAB2
 70
     6
  9
$SURFTYPE
 70
     6
  9
$SURFU
 70
     6
  9
$SURFV
 70
     6
  9
$UCSBASE
  2

  9
$UCSNAME
  2

  9
$UCSORG
 10
0.0
 20
0.0
 30
0.0
  9
$UCSXDIR
 10
1.0
 20
0.0
 30
0.0
  9
$UCSYDIR
 10
0.0
 20
1.0
 30
0.0
  9
$UCSORTHOREF
  2

  9
$UCSORTHOVIEW
 70
     0
  9
$UCSORGTOP
 10
0.0
 20
0.0
 30
0.0
  9
$UCSORGBOTTOM
 10
0.0
 20
0.0
 30
0.0
  9
$UCSORGLEFT
 10
0.0
 20
0.0
 30
0.0
  9
$UCSORGRIGHT
 10
0.0
 20
0.0
 30
0.0
  9
$UCSORGFRONT
 10
0.0
 20
0.0
 30
0.0
  9
$UCSORGBACK
 10
0.0
 20
0.0
 30
0.0
  9
$PUCSBASE
  2

  9
$PUCSNAME
  2

  9
$PUCSORG
 10
0.0
 20
0.0
 30
0.0
  9
$PUCSXDIR
 10
1.0
 20
0.0
 30
0.0
  9
$PUCSYDIR
 10
0.0
 20
1.0
 30
0.0
  9
$PUCSORTHOREF
  2

  9
$PUCSORTHOVIEW
 70
     0
  9
$PUCSORGTOP
 10
0.0
 20
0.0
 30
0.0
  9
$PUCSORGBOTTOM
 10
0.0
 20
0.0
 30
0.0
  9
$PUCSORGLEFT
 10
0.0
 20
0.0
 30
0.0
  9
$PUCSORGRIGHT
 10
0.0
 20
0.0
 30
0.0
  9
$PUCSORGFRONT
 10
0.0
 20
0.0
 30
0.0
  9
$PUCSORGBACK
 10
0.0
 20
0.0
 30
0.0
  9
$USERI1
 70
     0
  9
$USERI2
 70
     0
  9
$USERI3
 70
     0
  9
$USERI4
 70
     0
  9
$USERI5
 70
     0
  9
$USERR1
 40
0.0
  9
$USERR2
 40
0.0
  9
$USERR3
 40
0.0
  9
$USERR4
 40
0.0
  9
$USERR5
 40
0.0
  9
$WORLDVIEW
 70
     1
  9
$SHADEDGE
 70
     3
  9
$SHADEDIF
 70
    70
  9
$TILEMODE
 70
     1
  9
$MAXACTVP
 70
    16
  9
$PINSBASE
 10
0.0
 20
0.0
 30
0.0
  9
$PLIMCHECK
 70
     0
  9
$PEXTMIN
 10
1.000000000000000E+20
 20
1.000000000000000E+20
 30
1.000000000000000E+20
  9
$PEXTMAX
 10
-1.000000000000000E+20
 20
-1.000000000000000E+20
 30
-1.000000000000000E+20
  9
$PLIMMIN
 10
0.0
 20
0.0
  9
$PLIMMAX
 10
12.0
 20
9.0
  9
$UNITMODE
 70
     0
  9
$VISRETAIN
 70
     0
  9
$PLINEGEN
 70
     1
  9
$PSLTSCALE
 70
     1
  9
$TREEDEPTH
 70
  3020
  9
$CMLSTYLE
  2
STANDARD
  9
$CMLJUST
 70
     0
  9
$CMLSCALE
 40
1.0
  9
$PROXYGRAPHICS
 70
     1
  9
$MEASUREMENT
 70
     0
  9
$CELWEIGHT
370
    -1
  9
$ENDCAPS
280
     0
  9
$JOINSTYLE
280
     0
  9
$LWDISPLAY
290
     0
  9
$INSUNITS
 70
     0
  9
$HYPERLINKBASE
  1

  9
$STYLESHEET
  1

  9
$XEDIT
290
     1
  9
$CEPSNTYPE
380
     0
  9
$PSTYLEMODE
290
     1
  9
$FINGERPRINTGUID
  2
{50F0E224-3249-4944-A3DD-7458B9B519A8}
  9
$VERSIONGUID
  2
{FAEB1C32-E019-11D5-929B-00C0DF256EC4}
  9
$EXTNAMES
290
     1
  9
$PSVPSCALE
 40
0.0
  9
$OLESTARTUP
290
     0
  0
ENDSEC
  0
SECTION
  2
CLASSES
  0
CLASS
  1
LWPOLYLINE
  2
AcDbPolyline
  3
ObjectDBX Classes
 90
        0
280
     0
281
     1
  0
CLASS
  1
IMAGE
  2
AcDbRasterImage
  3
ISM
 90
      127
280
     0
281
     1
  0
CLASS
  1
OLE2FRAME
  2
AcDbOle2Frame
  3
ObjectDBX Classes
 90
        0
280
     0
281
     1
  0
CLASS
  1
HATCH
  2
AcDbHatch
  3
ObjectDBX Classes
 90
        0
280
     0
281
     1
  0
CLASS
  1
DICTIONARYVAR
  2
AcDbDictionaryVar
  3
ObjectDBX Classes
 90
        0
280
     0
281
     0
  0
CLASS
  1
RASTERVARIABLES
  2
AcDbRasterVariables
  3
ISM
 90
        0
280
     0
281
     0
  0
CLASS
  1
IMAGEDEF
  2
AcDbRasterImageDef
  3
ISM
 90
        0
280
     0
281
     0
  0
CLASS
  1
IMAGEDEF_REACTOR
  2
AcDbRasterImageDefReactor
  3
ISM
 90
        1
280
     0
281
     0
  0
CLASS
  1
IDBUFFER
  2
AcDbIdBuffer
  3
ObjectDBX Classes
 90
        0
280
     0
281
     0
  0
CLASS
  1
SPATIAL_FILTER
  2
AcDbSpatialFilter
  3
ObjectDBX Classes
 90
        0
280
     0
281
     0
  0
CLASS
  1
XRECORD
  2
AcDbXrecord
  3
ObjectDBX Classes
 90
        0
280
     0
281
     0
  0
CLASS
  1
SORTENTSTABLE
  2
AcDbSortentsTable
  3
ObjectDBX Classes
 90
        0
280
     0
281
     0
  0
CLASS
  1
LAYER_INDEX
  2
AcDbLayerIndex
  3
ObjectDBX Classes
 90
        0
280
     0
281
     0
  0
CLASS
  1
SPATIAL_INDEX
  2
AcDbSpatialIndex
  3
AutoCAD 2000
 90
        0
280
     0
281
     0
  0
CLASS
  1
OBJECT_PTR
  2
CAseDLPNTableRecord
  3
ASE-LPNTableRecord
 90
        1
280
     0
281
     0
  0
CLASS
  1
LAYOUT
  2
AcDbLayout
  3
ObjectDBX Classes
 90
        0
280
     0
281
     0
  0
CLASS
  1
PLOTSETTINGS
  2
AcDbPlotSettings
  3
ObjectDBX Classes
 90
        0
280
     0
281
     0
  0
CLASS
  1
ACDBDICTIONARYWDFLT
  2
AcDbDictionaryWithDefault
  3
ObjectDBX Classes
 90
        0
280
     0
281
     0
  0
CLASS
  1
ACDBPLACEHOLDER
  2
AcDbPlaceHolder
  3
ObjectDBX Classes
 90
        0
280
     0
281
     0
  0
CLASS
  1
VBA_PROJECT
  2
AcDbVbaProject
  3
ObjectDBX Classes
 90
        0
280
     0
281
     0
  0
CLASS
  1
WIPEOUT
  2
AcDbWipeout
  3
WipeOut|AutoCAD Express Tool|expresstools@autodesk.com
 90
      127
280
     0
281
     1
  0
CLASS
  1
WIPEOUTVARIABLES
  2
AcDbWipeoutVariables
  3
WipeOut|AutoCAD Express Tool|expresstools@autodesk.com
 90
        0
280
     0
281
     0
  0
CLASS
  1
RTEXT
  2
RText
  3
RText|AutoCAD Express Tool|expresstools@autodesk.com
 90
        0
280
     0
281
     1
  0
CLASS
  1
ARCALIGNEDTEXT
  2
AcDbArcAlignedText
  3
ATEXT|AutoCAD Express Tool|expresstools@autodesk.com
 90
        0
280
     0
281
     1
  0
CLASS
  1
SCALE
  2
AcDbScale
  3
ObjectDBX Classes
 90
     1153
280
     0
281
     0
  0
CLASS
  1
VISUALSTYLE
  2
AcDbVisualStyle
  3
ObjectDBX Classes
 90
     4095
280
     0
281
     0
  0
CLASS
  1
MATERIAL
  2
AcDbMaterial
  3
ObjectDBX Classes
 90
     1153
280
     0
281
     0
  0
ENDSEC
  0
SECTION
  2
TABLES
  0
TABLE
  2
VPORT
  5
7
102
{ACAD_XDICTIONARY
360
43A
102
}
330
0
100
AcDbSymbolTable
 70
     1
  0
VPORT
  5
15
330
7
100
AcDbSymbolTableRecord
100
AcDbViewportTableRecord
  2
*ACTIVE
 70
     0
 10
0.0
 20
0.0
 11
1.0
 21
1.0
 12
105.0
 22
148.5
 13
0.0
 23
0.0
 14
1.0
 24
1.0
 15
0.0
 25
0.0
 16
0.0
 26
0.0
 36
1.0
 17
0.0
 27
0.0
 37
0.0
 40
297.0
 41
1.4142857143
 42
50.0
 43
0.0
 44
0.0
 50
0.0
 51
0.0
 71
     0
 72
  2000
 73
     1
 74
     1
 75
     0
 76
     0
 77
     0
 78
     0
281
     0
 65
     1
110
0.0
120
0.0
130
0.0
111
1.0
121
0.0
131
0.0
112
0.0
122
1.0
132
0.0
 79
     0
146
0.0
  0
ENDTAB
  0
TABLE
  2
LTYPE
  5
4
330
0
100
AcDbSymbolTable
 70
     6
  0
LTYPE
  5
11
330
4
100
AcDbSymbolTableRecord
100
AcDbLinetypeTableRecord
  2
BYBLOCK
 70
     0
  3

 72
    65
 73
     0
 40
0.0
  0
LTYPE
  5
12
330
4
100
AcDbSymbolTableRecord
100
AcDbLinetypeTableRecord
  2
BYLAYER
 70
     0
  3

 72
    65
 73
     0
 40
0.0
  0
LTYPE
  5
13
330
4
100
AcDbSymbolTableRecord
100
AcDbLinetypeTableRecord
  2
CONTINUOUS
 70
     0
  3
Solid line
 72
    65
 73
     0
 40
0.0
  0
LTYPE
  5
1D
330
4
100
AcDbSymbolTableRecord
100
AcDbLinetypeTableRecord
  2
HIDDEN
 70
     0
  3
Hidden __ __ __ __ __ __ __ __ __ __ __ __ __ __
 72
    65
 73
     2
 40
1.905
 49
1.27
 74
     0
 49
-0.635
 74
     0
  0
LTYPE
  5
1E
330
4
100
AcDbSymbolTableRecord
100
AcDbLinetypeTableRecord
  2
PHANTOM
 70
     0
  3
Phantom ______  __  __  ______  __  __  ______
 72
    65
 73
     6
 40
12.7
 49
6.35
 74
     0
 49
-1.27
 74
     0
 49
1.27
 74
     0
 49
-1.27
 74
     0
 49
1.27
 74
     0
 49
-1.27
 74
     0
  0
LTYPE
  5
1F
330
4
100
AcDbSymbolTableRecord
100
AcDbLinetypeTableRecord
  2
CENTER
 70
     0
  3
Center ____ _ ____ _ ____ _ ____ _ ____ _ ____
 72
    65
 73
     4
 40
10.16
 49
6.35
 74
     0
 49
-1.27
 74
     0
 49
1.27
 74
     0
 49
-1.27
 74
     0
  0
LTYPE
  5
20
330
4
100
AcDbSymbolTableRecord
100
AcDbLinetypeTableRecord
  2
CENTERX2
 70
     0
  3
Center (2x) ________  __  ________  __  _____
 72
    65
 73
     4
 40
20.32
 49
12.7
 74
     0
 49
-2.54
 74
     0
 49
2.54
 74
     0
 49
-2.54
 74
     0
  0
LTYPE
  5
21
330
4
100
AcDbSymbolTableRecord
100
AcDbLinetypeTableRecord
  2
DOT2
 70
     0
  3
Dot (.5x) ........................................
 72
    65
 73
     2
 40
0.635
 49
0.0
 74
     0
 49
-0.635
 74
     0
  0
LTYPE
  5
464
330
5
100
AcDbSymbolTableRecord
100
AcDbLinetypeTableRecord
  2
DASH
 70
     0
  3
DASH _ _ _ _ _
 72
    65
 73
     2
 40
0.75
 49
0.40
 74
     0
 49
-0.35
 74
     0
  0
LTYPE
  5
465
330
5
100
AcDbSymbolTableRecord
100
AcDbLinetypeTableRecord
  2
LONGDASH_DASH
 70
     0
  3
LONGDASH_DASH __ . __ . __
 72
    65
 73
     4
 40
0.85
 49
0.40
 74
     0
 49
-0.20
 74
     0
 49
0.05
 74
     0
 49
-0.20
 74
     0
  0
LTYPE
  5
466
330
5
100
AcDbSymbolTableRecord
100
AcDbLinetypeTableRecord
  2
LONGDASH_DASH_DASH
 70
     0
  3
LONGDASH_DASH_DASH __ . . __ . . __
 72
    65
 73
     6
 40
1.10
 49
0.40
 74
     0
 49
-0.20
 74
     0
 49
0.05
 74
     0
 49
-0.20
 74
     0
 49
0.05
 74
     0
 49
-0.20
 74
     0
  0
ENDTAB
  0
TABLE
  2
LAYER
  5
2
330
0
100
AcDbSymbolTable
 70
     8
  0
LAYER
  5
23
330
2
100
AcDbSymbolTableRecord
100
AcDbLayerTableRecord
  2
DEFPOINTS
 70
     0
 62
     7
  6
CONTINUOUS
290
     0
370
    -3
390
0
  0
LAYER
  5
467
330
2
100
AcDbSymbolTableRecord
100
AcDbLayerTableRecord
  2
0
 70
     0
 62
     -1
  6
CONTINUOUS
370
    -3
390
F
  0
LAYER
  5
468
330
2
100
AcDbSymbolTableRecord
100
AcDbLayerTableRecord
  2
1
 70
     0
 62
     4
  6
CONTINUOUS
370
    50
390
F
  0
LAYER
  5
469
330
2
100
AcDbSymbolTableRecord
100
AcDbLayerTableRecord
  2
2
 70
     0
 62
     7
  6
CONTINUOUS
370
    25
390
F
  0
LAYER
  5
46A
330
2
100
AcDbSymbolTableRecord
100
AcDbLayerTableRecord
  2
3
 70
     0
 62
     1
  6
DASH
370
    35
390
F
  0
LAYER
  5
46B
330
2
100
AcDbSymbolTableRecord
100
AcDbLayerTableRecord
  2
4
 70
     0
 62
     2
  6
LONGDASH_DASH
370
    25
390
F
  0
LAYER
  5
46C
330
2
100
AcDbSymbolTableRecord
100
AcDbLayerTableRecord
  2
6
 70
     0
 62
     5
  6
CONTINUOUS
370
    -3
390
F
  0
LAYER
  5
46D
330
2
100
AcDbSymbolTableRecord
100
AcDbLayerTableRecord
  2
CUT
 70
     0
 62
     1
  6
CONTINUOUS
370
    25
390
F
  0
LAYER
  5
46E
330
2
100
AcDbSymbolTableRecord
100
AcDbLayerTableRecord
  2
NOCUT
 70
     0
 62
     7
  6
CONTINUOUS
370
    25
390
F
  0
LAYER
  5
46F
330
2
100
AcDbSymbolTableRecord
100
AcDbLayerTableRecord
  2
SK1
 70
     0
 62
     4
  6
CONTINUOUS
370
    50
390
F
  0
LAYER
  5
470
330
2
100
AcDbSymbolTableRecord
100
AcDbLayerTableRecord
  2
SK2
 70
     0
 62
     7
  6
CONTINUOUS
370
    25
390
F
  0
LAYER
  5
471
330
2
100
AcDbSymbolTableRecord
100
AcDbLayerTableRecord
  2
SK3
 70
     0
 62
     1
  6
DASH
370
    35
390
F
  0
LAYER
  5
472
330
2
100
AcDbSymbolTableRecord
100
AcDbLayerTableRecord
  2
SK4
 70
     0
 62
     2
  6
LONGDASH_DASH
370
    25
390
F
  0
LAYER
  5
473
330
2
100
AcDbSymbolTableRecord
100
AcDbLayerTableRecord
  2
SK6
 70
     0
 62
     5
  6
CONTINUOUS
370
    -3
390
F
  0
LAYER
  5
474
330
2
100
AcDbSymbolTableRecord
100
AcDbLayerTableRecord
  2
INFTOTAL
 70
     0
 62
     9
  6
CONTINUOUS
370
    18
390
F
  0
ENDTAB
  0
TABLE
  2
STYLE
  5
3
330
0
100
AcDbSymbolTable
 70
     2
  0
STYLE
  5
17
330
3
100
AcDbSymbolTableRecord
100
AcDbTextStyleTableRecord
  2
STANDARD
 70
     0
 40
0.0
 41
1.0
 50
0.0
 71
     0
 42
0.2
  3
txt
  4

  0
STYLE
  5
432
330
3
100
AcDbSymbolTableRecord
100
AcDbTextStyleTableRecord
  2
BMG_Text
 70
     0
 40
3.5
 41
1.0
 50
0.0
 71
     0
 42
0.0
  3
monos.ttf
  4

1001
ACAD
1000
Monospac821 BT
1071
       49
  0
ENDTAB
  0
TABLE
  2
VIEW
  5
5
330
0
100
AcDbSymbolTable
 70
     0
  0
ENDTAB
  0
TABLE
  2
UCS
  5
6
330
0
100
AcDbSymbolTable
 70
     0
  0
ENDTAB
  0
TABLE
  2
APPID
  5
8
330
0
100
AcDbSymbolTable
 70
     1
  0
APPID
  5
16
330
8
100
AcDbSymbolTableRecord
100
AcDbRegAppTableRecord
  2
ACAD
 70
     0
  0
ENDTAB
  0
TABLE
  2
DIMSTYLE
  5
9
330
0
100
AcDbSymbolTable
 70
     1
100
AcDbDimStyleTable
  0
DIMSTYLE
105
18
330
9
100
AcDbSymbolTableRecord
100
AcDbDimStyleTableRecord
  2
STANDARD
 70
     0
178
     0
340
17
  0
ENDTAB
  0
TABLE
  2
BLOCK_RECORD
  5
1
330
0
100
AcDbSymbolTable
 70
     0
  0
BLOCK_RECORD
  5
A
330
1
100
AcDbSymbolTableRecord
100
AcDbBlockTableRecord
  2
*MODEL_SPACE
340
41B
  0
BLOCK_RECORD
  5
B
330
1
100
AcDbSymbolTableRecord
100
AcDbBlockTableRecord
  2
*PAPER_SPACE
340
41C
  0
ENDTAB
  0
ENDSEC
  0
SECTION
  2
BLOCKS
  0
BLOCK
  5
D
330
A
100
AcDbEntity
  8
0
100
AcDbBlockBegin
  2
*MODEL_SPACE
 70
     0
 10
0.0
 20
0.0
 30
0.0
  3
*MODEL_SPACE
  1

  0
ENDBLK
  5
E
330
A
100
AcDbEntity
  8
0
100
AcDbBlockEnd
  0
BLOCK
  5
F
330
B
100
AcDbEntity
 67
     1
  8
0
100
AcDbBlockBegin
  2
*PAPER_SPACE
 70
     0
 10
0.0
 20
0.0
 30
0.0
  3
*PAPER_SPACE
  1

  0
ENDBLK
  5
10
330
B
100
AcDbEntity
 67
     1
  8
0
100
AcDbBlockEnd
  0
ENDSEC
  0
SECTION
  2
ENTITIES
  0
ARC
  5
29
330
A
100
AcDbEntity
  8
1
  6
CONTINUOUS
370
    50
100
AcDbCircle
 10
97.8893036516
 20
148.66162964
 30
0.0
 40
0.5
100
AcDbArc
 50
66.4218215218
 51
90.0
  0
ARC
  5
2A
330
A
100
AcDbEntity
  8
1
  6
CONTINUOUS
370
    50
100
AcDbCircle
 10
97.8893036516
 20
193.51162964
 30
0.0
 40
0.5
100
AcDbArc
 50
270.0
 51
293.5781784782001
  0
LINE
  5
2B
330
A
100
AcDbEntity
  8
1
  6
CONTINUOUS
370
    50
100
AcDbLine
 10
97.0893036516
 20
193.31162964
 30
0.0
 11
29.6218250102
 21
183.4726223379
 31
0.0
  0
LINE
  5
2C
330
A
100
AcDbEntity
  8
1
  6
CONTINUOUS
370
    50
100
AcDbLine
 10
29.6218250102
 20
158.7006369421
 30
0.0
 11
97.0893036516
 21
148.86162964
 31
0.0
  0
LINE
  5
2D
330
A
100
AcDbEntity
  8
1
  6
CONTINUOUS
370
    50
100
AcDbLine
 10
97.0893036516
 20
148.86162964
 30
0.0
 11
97.6321939282
 21
149.1147835335
 31
0.0
  0
LINE
  5
2E
330
A
100
AcDbEntity
  8
1
  6
CONTINUOUS
370
    50
100
AcDbLine
 10
97.6321939282
 20
193.0584757465
 30
0.0
 11
97.0893036516
 21
193.31162964
 31
0.0
  0
ARC
  5
2F
330
A
100
AcDbEntity
  8
1
  6
CONTINUOUS
370
    50
100
AcDbCircle
 10
97.8435030591
 20
148.66162964
 30
0.0
 40
0.5
100
AcDbArc
 50
90.0
 51
115.0
  0
ARC
  5
30
330
A
100
AcDbEntity
  8
1
  6
CONTINUOUS
370
    50
100
AcDbCircle
 10
97.8435030591
 20
193.51162964
 30
0.0
 40
0.5
100
AcDbArc
 50
245.0
 51
270.0
  0
ARC
  5
31
330
A
100
AcDbEntity
  8
1
  6
CONTINUOUS
370
    50
100
AcDbCircle
 10
121.1393036516
 20
149.13662964
 30
0.0
 40
5.0
100
AcDbArc
 50
81.890385544
 51
180.0
  0
ARC
  5
32
330
A
100
AcDbEntity
  8
1
  6
CONTINUOUS
370
    50
100
AcDbCircle
 10
121.1393036516
 20
193.03662964
 30
0.0
 40
5.0
100
AcDbArc
 50
180.0
 51
278.109614456
  0
LINE
  5
33
330
A
100
AcDbEntity
  8
1
  6
CONTINUOUS
370
    50
100
AcDbLine
 10
132.617587075
 20
154.08662964
 30
0.0
 11
176.0561755476
 21
157.5053206948
 31
0.0
  0
LINE
  5
34
330
A
100
AcDbEntity
  8
1
  6
CONTINUOUS
370
    50
100
AcDbLine
 10
176.0561755476
 20
184.6679385851
 30
0.0
 11
132.617587075
 21
188.08662964
 31
0.0
  0
LINE
  5
35
330
A
100
AcDbEntity
  8
1
  6
CONTINUOUS
370
    50
100
AcDbLine
 10
121.8446404506
 20
154.08662964
 30
0.0
 11
132.617587075
 21
154.08662964
 31
0.0
  0
LINE
  5
36
330
A
100
AcDbEntity
  8
1
  6
CONTINUOUS
370
    50
100
AcDbLine
 10
132.617587075
 20
188.08662964
 30
0.0
 11
121.8446404506
 21
188.08662964
 31
0.0
  0
ARC
  5
37
330
A
100
AcDbEntity
  8
1
  6
CONTINUOUS
370
    50
100
AcDbCircle
 10
175.0893036516
 20
159.2560801691
 30
0.0
 40
2.0
100
AcDbArc
 50
298.9100507074
 51
0.0
  0
ARC
  5
38
330
A
100
AcDbEntity
  8
1
  6
CONTINUOUS
370
    50
100
AcDbCircle
 10
175.0893036516
 20
182.9171791109
 30
0.0
 40
2.0
100
AcDbArc
 50
0.0
 51
61.0899492926
  0
ARC
  5
39
330
A
100
AcDbEntity
  8
1
  6
CONTINUOUS
370
    50
100
AcDbCircle
 10
29.7893036516
 20
159.636261823
 30
0.0
 40
0.95
100
AcDbArc
 50
180.0
 51
258.0
  0
ARC
  5
3A
330
A
100
AcDbEntity
  8
1
  6
CONTINUOUS
370
    50
100
AcDbCircle
 10
29.7893036516
 20
182.536997457
 30
0.0
 40
0.95
100
AcDbArc
 50
102.0
 51
180.0
  0
LINE
  5
3B
330
A
100
AcDbEntity
  8
1
  6
CONTINUOUS
370
    50
100
AcDbLine
 10
111.7111402937
 20
140.6095480875
 30
0.0
 11
111.1056414684
 21
141.45954809
 31
0.0
  0
LWPOLYLINE
  5
3C
330
A
100
AcDbEntity
  8
1
  6
CONTINUOUS
370
    50
100
AcDbPolyline
 90
        3
 70
   128
 43
0.0
 10
110.1143036516
 20
143.242757381
 10
110.6934690434
 20
142.1999863324
 10
111.1056414684
 20
141.45954809
  0
LINE
  5
41
330
A
100
AcDbEntity
  8
1
  6
CONTINUOUS
370
    50
100
AcDbLine
 10
110.1143036516
 20
189.43662964
 30
0.0
 11
110.1143036516
 21
143.242757381
 31
0.0
  0
LINE
  5
42
330
A
100
AcDbEntity
  8
1
  6
CONTINUOUS
370
    50
100
AcDbLine
 10
111.7111402937
 20
189.43662964
 30
0.0
 11
110.1143036516
 21
189.43662964
 31
0.0
  0
LINE
  5
43
330
A
100
AcDbEntity
  8
1
  6
CONTINUOUS
370
    50
100
AcDbLine
 10
111.7111402937
 20
140.6095480875
 30
0.0
 11
111.7111402937
 21
189.43662964
 31
0.0
  0
LINE
  5
44
330
A
100
AcDbEntity
  8
1
  6
CONTINUOUS
370
    50
100
AcDbLine
 10
116.1393036516
 20
189.43662964
 30
0.0
 11
116.1393036516
 21
141.0136744858
 31
0.0
  0
LINE
  5
45
330
A
100
AcDbEntity
  8
1
  6
CONTINUOUS
370
    50
100
AcDbLine
 10
116.1393036516
 20
141.0136744858
 30
0.0
 11
115.6393036516
 21
140.6095480875
 31
0.0
  0
LINE
  5
46
330
A
100
AcDbEntity
  8
1
  6
CONTINUOUS
370
    50
100
AcDbLine
 10
115.6393036516
 20
140.6095480875
 30
0.0
 11
115.6393036516
 21
189.43662964
 31
0.0
  0
LINE
  5
47
330
A
100
AcDbEntity
  8
1
  6
CONTINUOUS
370
    50
100
AcDbLine
 10
115.6393036516
 20
189.43662964
 30
0.0
 11
116.1393036516
 21
189.43662964
 31
0.0
  0
LINE
  5
48
330
A
100
AcDbEntity
  8
1
  6
CONTINUOUS
370
    50
100
AcDbLine
 10
104.6674670095
 20
140.6095480875
 30
0.0
 11
104.6674670095
 21
189.43662964
 31
0.0
  0
LINE
  5
49
330
A
100
AcDbEntity
  8
1
  6
CONTINUOUS
370
    50
100
AcDbLine
 10
104.6674670095
 20
140.6095480875
 30
0.0
 11
99.9393036491
 21
140.6095480875
 31
0.0
  0
LWPOLYLINE
  5
4A
330
A
100
AcDbEntity
  8
1
  6
CONTINUOUS
370
    50
100
AcDbPolyline
 90
        3
 70
   128
 43
0.0
 10
98.5893036516
 20
141.0366712373
 10
99.2619222992
 20
140.8155829711
 10
99.9393036491
 20
140.6095480875
  0
LINE
  5
4F
330
A
100
AcDbEntity
  8
1
  6
CONTINUOUS
370
    50
100
AcDbLine
 10
98.5893036516
 20
189.43662964
 30
0.0
 11
98.5893036516
 21
141.0366712373
 31
0.0
  0
LINE
  5
50
330
A
100
AcDbEntity
  8
1
  6
CONTINUOUS
370
    50
100
AcDbLine
 10
104.6674670095
 20
189.43662964
 30
0.0
 11
98.5893036516
 21
189.43662964
 31
0.0
  0
LINE
  5
51
330
A
100
AcDbEntity
  8
1
  6
CONTINUOUS
370
    50
100
AcDbLine
 10
105.2729658348
 20
141.45954809
 30
0.0
 11
104.6674670095
 21
140.6095480875
 31
0.0
  0
LINE
  5
52
330
A
100
AcDbEntity
  8
1
  6
CONTINUOUS
370
    50
100
AcDbLine
 10
106.2643036516
 20
189.43662964
 30
0.0
 11
104.6674670095
 21
189.43662964
 31
0.0
  0
LINE
  5
53
330
A
100
AcDbEntity
  8
1
  6
CONTINUOUS
370
    50
100
AcDbLine
 10
106.2643036516
 20
143.242757381
 30
0.0
 11
106.2643036516
 21
189.43662964
 31
0.0
  0
LWPOLYLINE
  5
54
330
A
100
AcDbEntity
  8
1
  6
CONTINUOUS
370
    50
100
AcDbPolyline
 90
        3
 70
   128
 43
0.0
 10
105.2729658348
 20
141.45954809
 10
105.6851382598
 20
142.1999863324
 10
106.2643036516
 20
143.242757381
  0
LINE
  5
59
330
A
100
AcDbEntity
  8
1
  6
CONTINUOUS
370
    50
100
AcDbLine
 10
115.6393036516
 20
189.43662964
 30
0.0
 11
111.7111402937
 21
189.43662964
 31
0.0
  0
LINE
  5
5A
330
A
100
AcDbEntity
  8
1
  6
CONTINUOUS
370
    50
100
AcDbLine
 10
115.6393036516
 20
140.6095480875
 30
0.0
 11
111.7111402937
 21
140.6095480875
 31
0.0
  0
LINE
  5
5B
330
A
100
AcDbEntity
  8
1
  6
CONTINUOUS
370
    50
100
AcDbLine
 10
98.5893036516
 20
141.0366712373
 30
0.0
 11
98.0893036516
 21
141.7438281377
 31
0.0
  0
LINE
  5
5C
330
A
100
AcDbEntity
  8
1
  6
CONTINUOUS
370
    50
100
AcDbLine
 10
98.0893036516
 20
141.7438281377
 30
0.0
 11
98.0893036516
 21
189.43662964
 31
0.0
  0
LINE
  5
5D
330
A
100
AcDbEntity
  8
1
  6
CONTINUOUS
370
    50
100
AcDbLine
 10
98.0893036516
 20
189.43662964
 30
0.0
 11
98.5893036516
 21
189.43662964
 31
0.0
  0
ARC
  5
5E
330
A
100
AcDbEntity
  8
1
  6
CONTINUOUS
370
    50
100
AcDbCircle
 10
106.7756995904
 20
143.7573999689
 30
0.0
 40
0.5114987785
100
AcDbArc
 50
91.2766271414
 51
181.1489553382
  0
LINE
  5
5F
330
A
100
AcDbEntity
  8
1
  6
CONTINUOUS
370
    50
100
AcDbLine
 10
106.2643036516
 20
189.43662964
 30
0.0
 11
106.7643036516
 21
189.43662964
 31
0.0
  0
LINE
  5
60
330
A
100
AcDbEntity
  8
1
  6
CONTINUOUS
370
    50
100
AcDbLine
 10
106.7643036516
 20
189.43662964
 30
0.0
 11
106.7643036516
 21
144.2687717837
 31
0.0
  0
ARC
  5
61
330
A
100
AcDbEntity
  8
1
  6
CONTINUOUS
370
    50
100
AcDbCircle
 10
109.6046011611
 20
143.7590232018
 30
0.0
 40
0.5098409115
100
AcDbArc
 50
358.6648465171
 51
88.9095710034
  0
LINE
  5
62
330
A
100
AcDbEntity
  8
1
  6
CONTINUOUS
370
    50
100
AcDbLine
 10
109.6143036516
 20
189.43662964
 30
0.0
 11
109.6143036516
 21
144.2687717837
 31
0.0
  0
LINE
  5
63
330
A
100
AcDbEntity
  8
1
  6
CONTINUOUS
370
    50
100
AcDbLine
 10
109.6143036516
 20
189.43662964
 30
0.0
 11
110.1143036516
 21
189.43662964
 31
0.0
  0
LINE
  5
64
330
A
100
AcDbEntity
  8
1
  6
CONTINUOUS
370
    50
100
AcDbLine
 10
109.6143036516
 20
144.2687717837
 30
0.0
 11
106.7643036516
 21
144.2687717837
 31
0.0
  0
LINE
  5
65
330
A
100
AcDbEntity
  8
1
  6
CONTINUOUS
370
    50
100
AcDbLine
 10
106.7643036516
 20
189.43662964
 30
0.0
 11
109.6143036516
 21
189.43662964
 31
0.0
  0
LINE
  5
66
330
A
100
AcDbEntity
  8
1
  6
CONTINUOUS
370
    50
100
AcDbLine
 10
29.6218250102
 20
183.4726223379
 30
0.0
 11
29.6218250102
 21
158.7006369421
 31
0.0
  0
LINE
  5
67
330
A
100
AcDbEntity
  8
1
  6
CONTINUOUS
370
    50
100
AcDbLine
 10
97.0893036516
 20
148.86162964
 30
0.0
 11
97.0893036516
 21
193.31162964
 31
0.0
  0
LINE
  5
68
330
A
100
AcDbEntity
  8
1
  6
CONTINUOUS
370
    50
100
AcDbLine
 10
121.8446404506
 20
154.08662964
 30
0.0
 11
121.8446404506
 21
188.08662964
 31
0.0
  0
LINE
  5
69
330
A
100
AcDbEntity
  8
1
  6
CONTINUOUS
370
    50
100
AcDbLine
 10
98.5893036516
 20
196.99685928
 30
0.0
 11
98.0893036516
 21
196.381688446
 31
0.0
  0
LINE
  5
6A
330
A
100
AcDbEntity
  8
1
  6
CONTINUOUS
370
    50
100
AcDbLine
 10
98.5893036516
 20
196.99685928
 30
0.0
 11
104.6674670095
 21
196.99685928
 31
0.0
  0
LINE
  5
6B
330
A
100
AcDbEntity
  8
1
  6
CONTINUOUS
370
    50
100
AcDbLine
 10
104.6674670095
 20
196.99685928
 30
0.0
 11
106.2643036516
 21
193.5223427415
 31
0.0
  0
LINE
  5
6C
330
A
100
AcDbEntity
  8
1
  6
CONTINUOUS
370
    50
100
AcDbLine
 10
106.2643036516
 20
192.8932226797
 30
0.0
 11
106.2643036516
 21
193.5223427415
 31
0.0
  0
ARC
  5
6D
330
A
100
AcDbEntity
  8
1
  6
CONTINUOUS
370
    50
100
AcDbCircle
 10
106.8380239624
 20
192.8105106432
 30
0.0
 40
0.5796518576
100
AcDbArc
 50
171.7963139134
 51
262.6933157894999
  0
LINE
  5
6E
330
A
100
AcDbEntity
  8
1
  6
CONTINUOUS
370
    50
100
AcDbLine
 10
109.6143036516
 20
192.2355657834
 30
0.0
 11
106.7643036516
 21
192.2355657834
 31
0.0
  0
LWPOLYLINE
  5
6F
330
A
100
AcDbEntity
  8
1
  6
CONTINUOUS
370
    50
100
AcDbPolyline
 90
        7
 70
   128
 43
0.0
 10
110.1143036516
 20
192.8932226797
 10
110.0697951233
 20
192.6230028885
 10
109.9649103678
 20
192.4252204923
 10
109.8430027487
 20
192.3088168488
 10
109.7719992355
 20
192.2693400886
 10
109.6455209766
 20
192.2368572377
 10
109.6143036516
 20
192.2355657834
  0
LINE
  5
78
330
A
100
AcDbEntity
  8
1
  6
CONTINUOUS
370
    50
100
AcDbLine
 10
110.1143036516
 20
193.5223427415
 30
0.0
 11
110.1143036516
 21
192.8932226797
 31
0.0
  0
LINE
  5
79
330
A
100
AcDbEntity
  8
1
  6
CONTINUOUS
370
    50
100
AcDbLine
 10
110.1143036516
 20
193.5223427415
 30
0.0
 11
111.7111402937
 21
196.99685928
 31
0.0
  0
LINE
  5
7A
330
A
100
AcDbEntity
  8
1
  6
CONTINUOUS
370
    50
100
AcDbLine
 10
111.7111402937
 20
196.99685928
 30
0.0
 11
115.6393036516
 21
196.99685928
 31
0.0
  0
LINE
  5
7B
330
A
100
AcDbEntity
  8
1
  6
CONTINUOUS
370
    50
100
AcDbLine
 10
116.1393036516
 20
196.381688446
 30
0.0
 11
115.6393036516
 21
196.99685928
 31
0.0
  0
LINE
  5
7C
330
A
100
AcDbEntity
  8
1
  6
CONTINUOUS
370
    50
100
AcDbLine
 10
98.0893036516
 20
196.381688446
 30
0.0
 11
98.0893036516
 21
189.43662964
 31
0.0
  0
LINE
  5
7D
330
A
100
AcDbEntity
  8
1
  6
CONTINUOUS
370
    50
100
AcDbLine
 10
116.1393036516
 20
196.381688446
 30
0.0
 11
116.1393036516
 21
189.43662964
 31
0.0
  0
LINE
  5
7E
330
A
100
AcDbEntity
  8
1
  6
CONTINUOUS
370
    50
100
AcDbLine
 10
106.7643036516
 20
197.9044874963
 30
0.0
 11
106.7643036516
 21
192.2355657834
 31
0.0
  0
ARC
  5
7F
330
A
100
AcDbEntity
  8
1
  6
CONTINUOUS
370
    50
100
AcDbCircle
 10
106.7765973053
 20
198.4167198041
 30
0.0
 40
0.5123798114
100
AcDbArc
 50
178.9492610517
 51
268.6251564687
  0
LINE
  5
80
330
A
100
AcDbEntity
  8
1
  6
CONTINUOUS
370
    50
100
AcDbLine
 10
109.6143036516
 20
197.9044874963
 30
0.0
 11
109.6143036516
 21
192.2355657834
 31
0.0
  0
ARC
  5
81
330
A
100
AcDbEntity
  8
1
  6
CONTINUOUS
370
    50
100
AcDbCircle
 10
109.6036702433
 20
198.4151283974
 30
0.0
 40
0.5107516023
100
AcDbArc
 50
271.1929349485
 51
1.2326475311
  0
LINE
  5
82
330
A
100
AcDbEntity
  8
1
  6
CONTINUOUS
370
    50
100
AcDbLine
 10
109.6143036516
 20
197.9044874963
 30
0.0
 11
106.7643036516
 21
197.9044874963
 31
0.0
  0
LINE
  5
83
330
A
100
AcDbEntity
  8
1
  6
CONTINUOUS
370
    50
100
AcDbLine
 10
111.1056414684
 20
200.71371119
 30
0.0
 11
111.7111402937
 21
201.5637111924
 31
0.0
  0
LINE
  5
84
330
A
100
AcDbEntity
  8
1
  6
CONTINUOUS
370
    50
100
AcDbLine
 10
111.7111402937
 20
196.99685928
 30
0.0
 11
111.7111402937
 21
201.5637111924
 31
0.0
  0
LINE
  5
85
330
A
100
AcDbEntity
  8
1
  6
CONTINUOUS
370
    50
100
AcDbLine
 10
110.1143036516
 20
198.930501899
 30
0.0
 11
111.1056414684
 21
200.71371119
 31
0.0
  0
LINE
  5
86
330
A
100
AcDbEntity
  8
1
  6
CONTINUOUS
370
    50
100
AcDbLine
 10
110.1143036516
 20
198.930501899
 30
0.0
 11
110.1143036516
 21
193.5223427415
 31
0.0
  0
LINE
  5
87
330
A
100
AcDbEntity
  8
1
  6
CONTINUOUS
370
    50
100
AcDbLine
 10
104.6674670095
 20
201.5637111924
 30
0.0
 11
105.2729658348
 21
200.71371119
 31
0.0
  0
LINE
  5
88
330
A
100
AcDbEntity
  8
1
  6
CONTINUOUS
370
    50
100
AcDbLine
 10
105.2729658348
 20
200.71371119
 30
0.0
 11
106.2643036516
 21
198.930501899
 31
0.0
  0
LINE
  5
89
330
A
100
AcDbEntity
  8
1
  6
CONTINUOUS
370
    50
100
AcDbLine
 10
104.6674670095
 20
196.99685928
 30
0.0
 11
104.6674670095
 21
201.5637111924
 31
0.0
  0
LINE
  5
8A
330
A
100
AcDbEntity
  8
1
  6
CONTINUOUS
370
    50
100
AcDbLine
 10
106.2643036516
 20
193.5223427415
 30
0.0
 11
106.2643036516
 21
198.930501899
 31
0.0
  0
LINE
  5
8B
330
A
100
AcDbEntity
  8
1
  6
CONTINUOUS
370
    50
100
AcDbLine
 10
115.6393036516
 20
196.99685928
 30
0.0
 11
115.6393036516
 21
201.5637111924
 31
0.0
  0
LINE
  5
8C
330
A
100
AcDbEntity
  8
1
  6
CONTINUOUS
370
    50
100
AcDbLine
 10
115.6393036516
 20
201.5637111924
 30
0.0
 11
116.1393036516
 21
201.1595847941
 31
0.0
  0
LINE
  5
8D
330
A
100
AcDbEntity
  8
1
  6
CONTINUOUS
370
    50
100
AcDbLine
 10
116.1393036516
 20
201.1595847941
 30
0.0
 11
116.1393036516
 21
196.381688446
 31
0.0
  0
LINE
  5
8E
330
A
100
AcDbEntity
  8
1
  6
CONTINUOUS
370
    50
100
AcDbLine
 10
99.9393036491
 20
201.5637111924
 30
0.0
 11
104.6674670095
 21
201.5637111924
 31
0.0
  0
LINE
  5
8F
330
A
100
AcDbEntity
  8
1
  6
CONTINUOUS
370
    50
100
AcDbLine
 10
98.5893036516
 20
201.1365880426
 30
0.0
 11
98.5893036516
 21
196.99685928
 31
0.0
  0
LWPOLYLINE
  5
90
330
A
100
AcDbEntity
  8
1
  6
CONTINUOUS
370
    50
100
AcDbPolyline
 90
        3
 70
   128
 43
0.0
 10
98.5893036516
 20
201.1365880426
 10
99.2619222992
 20
201.3576763089
 10
99.9393036491
 20
201.5637111924
  0
LINE
  5
95
330
A
100
AcDbEntity
  8
1
  6
CONTINUOUS
370
    50
100
AcDbLine
 10
111.7111402937
 20
201.5637111924
 30
0.0
 11
115.6393036516
 21
201.5637111924
 31
0.0
  0
LINE
  5
96
330
A
100
AcDbEntity
  8
1
  6
CONTINUOUS
370
    50
100
AcDbLine
 10
98.0893036516
 20
200.4294311422
 30
0.0
 11
98.5893036516
 21
201.1365880426
 31
0.0
  0
LINE
  5
97
330
A
100
AcDbEntity
  8
1
  6
CONTINUOUS
370
    50
100
AcDbLine
 10
98.0893036516
 20
196.381688446
 30
0.0
 11
98.0893036516
 21
200.4294311422
 31
0.0
  0
LINE
  5
98
330
A
100
AcDbEntity
  8
1
  6
CONTINUOUS
370
    50
100
AcDbLine
 10
176.0561755476
 20
184.6679385851
 30
0.0
 11
176.0561755476
 21
157.5053206948
 31
0.0
  0
LINE
  5
99
330
A
100
AcDbEntity
  8
1
  6
CONTINUOUS
370
    50
100
AcDbLine
 10
132.617587075
 20
154.08662964
 30
0.0
 11
132.617587075
 21
188.08662964
 31
0.0
  0
LINE
  5
9A
330
A
100
AcDbEntity
  8
1
  6
CONTINUOUS
370
    50
100
AcDbLine
 10
177.0893036516
 20
159.2560801915
 30
0.0
 11
177.0893036516
 21
182.9171791109
 31
0.0
  0
LINE
  5
9B
330
A
100
AcDbEntity
  8
1
  6
CONTINUOUS
370
    50
100
AcDbLine
 10
28.8393036516
 20
159.6362618231
 30
0.0
 11
28.8393036516
 21
182.536997457
 31
0.0
  0
LINE
  5
9C
330
A
100
AcDbEntity
  8
1
  6
CONTINUOUS
370
    50
100
AcDbLine
 10
97.8893036516
 20
149.16162964
 30
0.0
 11
97.8893036516
 21
193.01162964
 31
0.0
  0
LINE
  5
9D
330
A
100
AcDbEntity
  8
1
  6
CONTINUOUS
370
    50
100
AcDbLine
 10
97.6321939282
 20
149.1147835335
 30
0.0
 11
97.6321939282
 21
193.0584757465
 31
0.0
  0
LINE
  5
9E
330
A
100
AcDbEntity
  8
1
  6
CONTINUOUS
370
    50
100
AcDbLine
 10
97.8435030591
 20
149.16162964
 30
0.0
 11
97.8435030591
 21
193.01162964
 31
0.0
  0
LINE
  5
9F
330
A
100
AcDbEntity
  8
1
  6
CONTINUOUS
370
    50
100
AcDbLine
 10
29.5917875453
 20
158.7070216023
 30
0.0
 11
29.5917875453
 21
183.4662376777
 31
0.0
  0
LWPOLYLINE
  5
A0
330
A
100
AcDbEntity
  8
1
  6
CONTINUOUS
370
    50
100
AcDbPolyline
 90
       27
 70
   128
 43
0.0
 10
112.7400825853
 20
162.4544646607
 10
112.6911054808
 20
161.9641972081
 10
112.7205410914
 20
161.5024223178
 10
112.8266787265
 20
161.095976668
 10
113.0033500523
 20
160.7684814024
 10
113.2402875737
 20
160.5389693554
 10
113.5237213432
 20
160.4207789331
 10
113.8371792203
 20
160.4207789331
 10
114.1624441725
 20
160.5389693554
 10
114.4806129832
 20
160.7684814024
 10
114.7731948376
 20
161.095976668
 10
115.0231859417
 20
161.5024223178
 10
115.2160577213
 20
161.9641972081
 10
115.3406011696
 20
162.4544646607
 10
115.3895782741
 20
162.9447321132
 10
115.3601426635
 20
163.4065070035
 10
115.2540050285
 20
163.8129526534
 10
115.0773337026
 20
164.140447919
 10
114.8403961812
 20
164.3699599659
 10
114.5569624117
 20
164.4881503882
 10
114.2435045346
 20
164.4881503882
 10
113.9182395824
 20
164.3699599659
 10
113.6000707717
 20
164.140447919
 10
113.3074889173
 20
163.8129526534
 10
113.0574978132
 20
163.4065070035
 10
112.8646260336
 20
162.9447321132
 10
112.7400825853
 20
162.4544646607
  0
LWPOLYLINE
  5
BD
330
A
100
AcDbEntity
  8
1
  6
CONTINUOUS
370
    50
100
AcDbPolyline
 90
       18
 70
   128
 43
0.0
 10
107.9286317883
 20
162.6579652572
 10
107.9119622696
 20
162.5537838499
 10
107.8958604114
 20
162.5059503889
 10
107.8808745432
 20
162.5160937855
 10
107.8675149906
 20
162.5838686185
 10
107.8562366973
 20
162.7069668971
 10
107.847423732
 20
162.8811966572
 10
107.8413762097
 20
163.1006247131
 10
107.8383000714
 20
163.3577787058
 10
107.8383000714
 20
163.6439015643
 10
107.8413762097
 20
163.9492497179
 10
107.847423732
 20
164.2634249014
 10
107.8562366973
 20
164.5757282558
 10
107.8675149906
 20
164.875524665
 10
107.8808745432
 20
165.1526049216
 10
107.8958604114
 20
165.39753339
 10
107.9119622696
 20
165.6019693249
 10
107.9286317883
 20
165.7589509058
  0
LWPOLYLINE
  5
D1
330
A
100
AcDbEntity
  8
1
  6
CONTINUOUS
370
    50
100
AcDbPolyline
 90
       18
 70
   128
 43
0.0
 10
107.9286317883
 20
165.7589509058
 10
107.4310671868
 20
165.7399809124
 10
106.950446551
 20
165.6688567458
 10
106.5031368403
 20
165.5480004543
 10
106.1043706504
 20
165.3815276539
 10
105.7677274855
 20
165.1751073762
 10
105.504671325
 20
164.9357690161
 10
105.3241602308
 20
164.6716629544
 10
105.2323412917
 20
164.3917830063
 10
105.2323412917
 20
164.1056601478
 10
105.3241602308
 20
163.8230379496
 10
105.504671325
 20
163.5535407718
 10
105.7677274855
 20
163.3063460174
 10
106.1043706504
 20
163.0898716074
 10
106.5031368403
 20
162.9114893183
 10
106.950446551
 20
162.7772737447
 10
107.4310671868
 20
162.6917954373
 10
107.9286317883
 20
162.6579652572
  0
LWPOLYLINE
  5
E5
330
A
100
AcDbEntity
  8
1
  6
CONTINUOUS
370
    50
100
AcDbPolyline
 90
       27
 70
   128
 43
0.0
 10
112.7415080395
 20
162.4554874729
 10
112.8655735856
 20
162.9438736554
 10
113.0577052714
 20
163.4038766082
 10
113.3067371016
 20
163.8087626317
 10
113.5981962514
 20
164.135001222
 10
113.9151441745
 20
164.3636325779
 10
114.2391610096
 20
164.4813694761
 10
114.551416076
 20
164.4813694761
 10
114.8337622443
 20
164.3636325779
 10
115.0697905815
 20
164.135001222
 10
115.2457839784
 20
163.8087626317
 10
115.3515143387
 20
163.4038766082
 10
115.380836998
 20
162.9438736554
 10
115.33204783
 20
162.4554874729
 10
115.2079822838
 20
161.9671012904
 10
115.0158505981
 20
161.5070983376
 10
114.7668187679
 20
161.1022123141
 10
114.475359618
 20
160.7759737239
 10
114.158411695
 20
160.547342368
 10
113.8343948599
 20
160.4296054697
 10
113.5221397934
 20
160.4296054697
 10
113.2397936251
 20
160.547342368
 10
113.003765288
 20
160.7759737239
 10
112.8277718911
 20
161.1022123141
 10
112.7220415308
 20
161.5070983376
 10
112.6927188715
 20
161.9671012904
 10
112.7415080395
 20
162.4554874729
  0
LWPOLYLINE
  5
102
330
A
100
AcDbEntity
  8
1
  6
CONTINUOUS
370
    50
100
AcDbPolyline
 90
       24
 70
   128
 43
0.0
 10
114.7743355145
 20
162.5370137863
 10
114.659599321
 20
162.1027402813
 10
114.477602792
 20
161.7006748554
 10
114.2418437775
 20
161.3606368621
 10
113.969807445
 20
161.1078453637
 10
113.6816694848
 20
160.9610487491
 10
113.3987997713
 20
160.9311342518
 10
113.1421774572
 20
161.0203204932
 10
112.9308350454
 20
161.2219929377
 10
112.7804468359
 20
161.5211944628
 10
112.7021664341
 20
161.89573466
 10
112.7017995394
 20
162.3178355963
 10
112.7793733626
 20
162.7561919763
 10
112.9291346082
 20
163.1782929127
 10
113.1399761696
 20
163.5528331099
 10
113.3962608929
 20
163.8520346349
 10
113.6789813124
 20
164.0537070794
 10
113.9671693482
 20
164.1428933208
 10
114.2394514118
 20
164.1129788235
 10
114.4756335883
 20
163.966182209
 10
114.6581993261
 20
163.7133907105
 10
114.7736085596
 20
163.3733527172
 10
114.8133019139
 20
162.9712872913
 10
114.7743355145
 20
162.5370137863
  0
ARC
  5
11C
330
A
100
AcDbEntity
  8
1
  6
CONTINUOUS
370
    50
100
AcDbCircle
 10
109.5006505458
 20
165.5639303507
 30
0.0
 40
1.58406944
100
AcDbArc
 50
169.5837820624
 51
172.9281660985
  0
ARC
  5
11D
330
A
100
AcDbEntity
  8
1
  6
CONTINUOUS
370
    50
100
AcDbCircle
 10
103.7026144325
 20
155.8039129731
 30
0.0
 40
10.9045232025
100
AcDbArc
 50
65.78271100279999
 51
67.1179062879
  0
ARC
  5
11E
330
A
100
AcDbEntity
  8
1
  6
CONTINUOUS
370
    50
100
AcDbCircle
 10
107.85824238
 20
161.036655591
 30
0.0
 40
4.7228198896
100
AcDbArc
 50
86.1466391328
 51
89.14602601069998
  0
ARC
  5
11F
330
A
100
AcDbEntity
  8
1
  6
CONTINUOUS
370
    50
100
AcDbCircle
 10
107.9991593454
 20
167.3736145448
 30
0.0
 40
4.7161766655
100
AcDbArc
 50
269.1431444838
 51
272.1444122427
  0
ARC
  5
120
330
A
100
AcDbEntity
  8
1
  6
CONTINUOUS
370
    50
100
AcDbCircle
 10
113.9490269368
 20
173.6094195248
 30
0.0
 40
12.3776278985
100
AcDbArc
 50
240.9706336714
 51
242.1966722693
  0
ARC
  5
121
330
A
100
AcDbEntity
  8
1
  6
CONTINUOUS
370
    50
100
AcDbCircle
 10
103.6733365099
 20
163.1874128358
 30
0.0
 40
4.2881059507
100
AcDbArc
 50
352.9076566903
 51
354.6390928975
  0
LWPOLYLINE
  5
122
330
A
100
AcDbEntity
  8
1
  6
CONTINUOUS
370
    50
100
AcDbPolyline
 90
       24
 70
   128
 43
0.0
 10
104.5922207022
 20
164.872774075
 10
104.5532543028
 20
164.4385005699
 10
104.5929476571
 20
164.0364351441
 10
104.7083568906
 20
163.6963971508
 10
104.8909226284
 20
163.4436056523
 10
105.1271048049
 20
163.2968090378
 10
105.3993868685
 20
163.2668945405
 10
105.6875749042
 20
163.3560807819
 10
105.9702953238
 20
163.5577532264
 10
106.2265800471
 20
163.8569547514
 10
106.4374216085
 20
164.2314949486
 10
106.5871828541
 20
164.653595885
 10
106.6647566773
 20
165.091952265
 10
106.6643897826
 20
165.5140532013
 10
106.5861093808
 20
165.8885933985
 10
106.4357211713
 20
166.1877949236
 10
106.2243787595
 20
166.3894673681
 10
105.9677564453
 20
166.4786536095
 10
105.6848867319
 20
166.4487391122
 10
105.3967487717
 20
166.3019424976
 10
105.1247124392
 20
166.0491509992
 10
104.8889534247
 20
165.7091130059
 10
104.7069568957
 20
165.30704758
 10
104.5922207022
 20
164.872774075
  0
LINE
  5
13C
330
A
100
AcDbEntity
  8
1
  6
CONTINUOUS
370
    50
100
AcDbLine
 10
98.3424575451
 20
148.48662964
 30
0.0
 11
98.3424575451
 21
194.0792886713
 31
0.0
  0
LINE
  5
13D
330
A
100
AcDbEntity
  8
1
  6
CONTINUOUS
370
    50
100
AcDbLine
 10
98.3893036516
 20
148.48662964
 30
0.0
 11
98.3893036516
 21
193.8679795405
 31
0.0
  0
LWPOLYLINE
  5
13E
330
A
100
AcDbEntity
  8
1
  6
CONTINUOUS
370
    50
100
AcDbPolyline
 90
        9
 70
   128
 43
0.0
 10
108.1756307384
 20
165.7487986638
 10
108.1465087885
 20
165.7666522402
 10
108.1173323594
 20
165.7830585189
 10
108.0881292373
 20
165.7980018754
 10
108.0589272336
 20
165.8114680786
 10
108.0297541588
 20
165.8234443038
 10
108.0006377958
 20
165.8339191456
 10
107.9716058736
 20
165.8428826282
 10
107.9426860405
 20
165.8503262153
  0
LWPOLYLINE
  5
149
330
A
100
AcDbEntity
  8
1
  6
CONTINUOUS
370
    50
100
AcDbPolyline
 90
       26
 70
   128
 43
0.0
 10
104.3678503758
 20
164.8749725381
 10
104.3208896876
 20
164.3897613987
 10
104.3546893059
 20
163.9350378596
 10
104.4671254763
 20
163.5393738732
 10
104.6511334206
 20
163.227630463
 10
104.8951512431
 20
163.0193956138
 10
105.1838464064
 20
162.9277534871
 10
105.4990791318
 20
162.9584622947
 10
105.8210421877
 20
163.1095924894
 10
106.1295054513
 20
163.3716480051
 10
106.4050870412
 20
163.7281629301
 10
106.6304711527
 20
164.1567361204
 10
106.791496073
 20
164.6304387464
 10
106.8780440143
 20
165.1195063298
 10
106.8846768512
 20
165.5932089557
 10
106.8109778179
 20
166.0217821461
 10
106.661577696
 20
166.3782970711
 10
106.4458638444
 20
166.6403525868
 10
106.1773903579
 20
166.7914827815
 10
105.8730264129
 20
166.8221915891
 10
105.5518963156
 20
166.7305494624
 10
105.2341778508
 20
166.5223146132
 10
104.9398344384
 20
166.210571203
 10
104.6873607573
 20
165.8149072166
 10
104.4926206575
 20
165.3601836775
 10
104.3678503758
 20
164.8749725381
  0
LWPOLYLINE
  5
165
330
A
100
AcDbEntity
  8
1
  6
CONTINUOUS
370
    50
100
AcDbPolyline
 90
       26
 70
   128
 43
0.0
 10
104.3755108202
 20
164.872774075
 10
104.3285501321
 20
164.3875629356
 10
104.3623497504
 20
163.9328393965
 10
104.4747859207
 20
163.5371754101
 10
104.6587938651
 20
163.2254319998
 10
104.9028116875
 20
163.0171971507
 10
105.1915068509
 20
162.925555024
 10
105.5067395762
 20
162.9562638316
 10
105.8287026322
 20
163.1073940263
 10
106.1371658957
 20
163.369449542
 10
106.4127474856
 20
163.725964467
 10
106.6381315971
 20
164.1545376573
 10
106.7991565175
 20
164.6282402833
 10
106.8857044588
 20
165.1173078667
 10
106.8923372956
 20
165.5910104926
 10
106.8186382624
 20
166.019583683
 10
106.6692381404
 20
166.3760986079
 10
106.4535242889
 20
166.6381541237
 10
106.1850508023
 20
166.7892843184
 10
105.8806868574
 20
166.819993126
 10
105.55955676
 20
166.7283509993
 10
105.2418382953
 20
166.5201161501
 10
104.9474948828
 20
166.2083727398
 10
104.6950212017
 20
165.8127087535
 10
104.500281102
 20
165.3579852144
 10
104.3755108202
 20
164.872774075
  0
LWPOLYLINE
  5
181
330
A
100
AcDbEntity
  8
1
  6
CONTINUOUS
370
    50
100
AcDbPolyline
 90
       24
 70
   128
 43
0.0
 10
104.5845602578
 20
164.8749725381
 10
104.5455938584
 20
164.440699033
 10
104.5852872127
 20
164.0386336072
 10
104.7006964462
 20
163.6985956139
 10
104.883262184
 20
163.4458041154
 10
105.1194443605
 20
163.2990075009
 10
105.3917264241
 20
163.2690930036
 10
105.6799144598
 20
163.358279245
 10
105.9626348794
 20
163.5599516895
 10
106.2189196026
 20
163.8591532145
 10
106.4297611641
 20
164.2336934117
 10
106.5795224097
 20
164.6557943481
 10
106.6570962329
 20
165.0941507281
 10
106.6567293381
 20
165.5162516644
 10
106.5784489364
 20
165.8907918616
 10
106.4280607268
 20
166.1899933867
 10
106.2167183151
 20
166.3916658312
 10
105.9600960009
 20
166.4808520726
 10
105.6772262875
 20
166.4509375753
 10
105.3890883273
 20
166.3041409607
 10
105.1170519948
 20
166.0513494623
 10
104.8812929803
 20
165.711311469
 10
104.6992964513
 20
165.3092460431
 10
104.5845602578
 20
164.8749725381
  0
LWPOLYLINE
  5
19B
330
A
100
AcDbEntity
  8
1
  6
CONTINUOUS
370
    50
100
AcDbPolyline
 90
       23
 70
   128
 43
0.0
 10
89.8447189791
 20
169.1051444948
 10
89.7671751231
 20
168.6985806457
 10
89.8346551144
 20
168.2990543284
 10
90.0327214041
 20
167.950047479
 10
90.3625649757
 20
167.6477905133
 10
90.9987497392
 20
167.3508970673
 10
92.0138228272
 20
167.2014582751
 10
92.6926443002
 20
167.2373650264
 10
93.3740731473
 20
167.3718302755
 10
94.2067545073
 20
167.7162149659
 10
94.6143719265
 20
168.0354704583
 10
94.8260671304
 20
168.3441944553
 10
94.8991539088
 20
168.6303321014
 10
94.8636710716
 20
168.928250121
 10
94.7371711307
 20
169.1948930378
 10
94.3959448791
 20
169.5665747993
 10
93.6519384744
 20
169.9981004653
 10
93.0173307852
 20
170.197513437
 10
92.3395423361
 20
170.2943995565
 10
91.217302097
 20
170.1917762329
 10
90.5281759553
 20
169.8989808959
 10
90.0894968788
 20
169.5212216334
 10
89.8447189791
 20
169.1051444948
  0
LWPOLYLINE
  5
1B4
330
A
100
AcDbEntity
  8
1
  6
CONTINUOUS
370
    50
100
AcDbPolyline
 90
        9
 70
   128
 43
0.0
 10
107.9426860405
 20
162.7867793002
 10
107.9716058736
 20
162.7659707909
 10
108.0006377958
 20
162.7465726759
 10
108.0297541588
 20
162.7286034291
 10
108.0589272336
 20
162.7120801633
 10
108.0881292373
 20
162.6970186145
 10
108.1173323594
 20
162.6834331264
 10
108.1465087885
 20
162.6713366373
 10
108.1756307384
 20
162.6607406671
  0
LINE
  5
1BF
330
A
100
AcDbEntity
  8
1
  6
CONTINUOUS
370
    50
100
AcDbLine
 10
98.0893036516
 20
147.73662964
 30
0.0
 11
100.7893036516
 21
147.73662964
 31
0.0
  0
LINE
  5
1C0
330
A
100
AcDbEntity
  8
1
  6
CONTINUOUS
370
    50
100
AcDbLine
 10
100.7893036516
 20
196.63662964
 30
0.0
 11
98.0893036516
 21
196.63662964
 31
0.0
  0
LINE
  5
1C1
330
A
100
AcDbEntity
  8
1
  6
CONTINUOUS
370
    50
100
AcDbLine
 10
100.4786434798
 20
148.48662964
 30
0.0
 11
98.0893036516
 21
148.48662964
 31
0.0
  0
LINE
  5
1C2
330
A
100
AcDbEntity
  8
1
  6
CONTINUOUS
370
    50
100
AcDbLine
 10
98.0893036516
 20
195.88662964
 30
0.0
 11
100.4786434798
 21
195.88662964
 31
0.0
  0
LINE
  5
1C3
330
A
100
AcDbEntity
  8
1
  6
CONTINUOUS
370
    50
100
AcDbLine
 10
29.1105900977
 20
162.2714482703
 30
0.0
 11
29.1105900977
 21
179.9018110097
 31
0.0
  0
LINE
  5
1C4
330
A
100
AcDbEntity
  8
1
  6
CONTINUOUS
370
    50
100
AcDbLine
 10
99.9393036491
 20
140.6095480875
 30
0.0
 11
100.7893036516
 21
141.45954809
 31
0.0
  0
LINE
  5
1C5
330
A
100
AcDbEntity
  8
1
  6
CONTINUOUS
370
    50
100
AcDbLine
 10
99.9393036491
 20
201.5637111924
 30
0.0
 11
100.7893036516
 21
200.71371119
 31
0.0
  0
LINE
  5
1C6
330
A
100
AcDbEntity
  8
1
  6
CONTINUOUS
370
    50
100
AcDbLine
 10
29.6105900977
 20
162.5601234049
 30
0.0
 11
29.6105900977
 21
179.6131358751
 31
0.0
  0
LINE
  5
1C7
330
A
100
AcDbEntity
  8
1
  6
CONTINUOUS
370
    50
100
AcDbLine
 10
34.7692074622
 20
179.58662964
 30
0.0
 11
34.7692074622
 21
162.58662964
 31
0.0
  0
LINE
  5
1C8
330
A
100
AcDbEntity
  8
1
  6
CONTINUOUS
370
    50
100
AcDbLine
 10
35.0290150833
 20
179.73662964
 30
0.0
 11
35.0290150833
 21
162.43662964
 31
0.0
  0
LINE
  5
1C9
330
A
100
AcDbEntity
  8
1
  6
CONTINUOUS
370
    50
100
AcDbLine
 10
38.2486303256
 20
178.16162964
 30
0.0
 11
38.2486303256
 21
164.01162964
 31
0.0
  0
LINE
  5
1CA
330
A
100
AcDbEntity
  8
1
  6
CONTINUOUS
370
    50
100
AcDbLine
 10
37.3393036516
 20
179.73662964
 30
0.0
 11
37.3393036516
 21
162.43662964
 31
0.0
  0
LINE
  5
1CB
330
A
100
AcDbEntity
  8
1
  6
CONTINUOUS
370
    50
100
AcDbLine
 10
29.8393036516
 20
179.58662964
 30
0.0
 11
29.8393036516
 21
162.60155792
 31
0.0
  0
LINE
  5
1CC
330
A
100
AcDbEntity
  8
1
  6
CONTINUOUS
370
    50
100
AcDbLine
 10
176.0260816272
 20
164.08662964
 30
0.0
 11
176.0260816272
 21
178.08662964
 31
0.0
  0
LINE
  5
1CD
330
A
100
AcDbEntity
  8
1
  6
CONTINUOUS
370
    50
100
AcDbLine
 10
111.1056414684
 20
141.45954809
 30
0.0
 11
116.1393036516
 21
141.45954809
 31
0.0
  0
LINE
  5
1CE
330
A
100
AcDbEntity
  8
1
  6
CONTINUOUS
370
    50
100
AcDbLine
 10
100.7893036516
 20
141.45954809
 30
0.0
 11
105.2729658348
 21
141.45954809
 31
0.0
  0
LINE
  5
1CF
330
A
100
AcDbEntity
  8
1
  6
CONTINUOUS
370
    50
100
AcDbLine
 10
100.7893036516
 20
141.45954809
 30
0.0
 11
100.7893036516
 21
147.73662964
 31
0.0
  0
LINE
  5
1D0
330
A
100
AcDbEntity
  8
1
  6
CONTINUOUS
370
    50
100
AcDbLine
 10
100.7893036516
 20
147.73662964
 30
0.0
 11
116.1393036516
 21
147.73662964
 31
0.0
  0
LINE
  5
1D1
330
A
100
AcDbEntity
  8
1
  6
CONTINUOUS
370
    50
100
AcDbLine
 10
116.1393036516
 20
148.48662964
 30
0.0
 11
100.4786434798
 21
148.48662964
 31
0.0
  0
LINE
  5
1D2
330
A
100
AcDbEntity
  8
1
  6
CONTINUOUS
370
    50
100
AcDbLine
 10
100.7893036516
 20
147.73662964
 30
0.0
 11
100.4786434798
 21
148.48662964
 31
0.0
  0
LINE
  5
1D3
330
A
100
AcDbEntity
  8
1
  6
CONTINUOUS
370
    50
100
AcDbLine
 10
100.4786434798
 20
195.88662964
 30
0.0
 11
116.1393036516
 21
195.88662964
 31
0.0
  0
LINE
  5
1D4
330
A
100
AcDbEntity
  8
1
  6
CONTINUOUS
370
    50
100
AcDbLine
 10
100.7893036516
 20
196.63662964
 30
0.0
 11
100.4786434798
 21
195.88662964
 31
0.0
  0
LINE
  5
1D5
330
A
100
AcDbEntity
  8
1
  6
CONTINUOUS
370
    50
100
AcDbLine
 10
116.1393036516
 20
196.63662964
 30
0.0
 11
100.7893036516
 21
196.63662964
 31
0.0
  0
LINE
  5
1D6
330
A
100
AcDbEntity
  8
1
  6
CONTINUOUS
370
    50
100
AcDbLine
 10
111.1056414684
 20
200.71371119
 30
0.0
 11
116.1393036516
 21
200.71371119
 31
0.0
  0
LINE
  5
1D7
330
A
100
AcDbEntity
  8
1
  6
CONTINUOUS
370
    50
100
AcDbLine
 10
100.7893036516
 20
200.71371119
 30
0.0
 11
105.2729658348
 21
200.71371119
 31
0.0
  0
LINE
  5
1D8
330
A
100
AcDbEntity
  8
1
  6
CONTINUOUS
370
    50
100
AcDbLine
 10
100.7893036516
 20
200.71371119
 30
0.0
 11
100.7893036516
 21
196.63662964
 31
0.0
  0
LINE
  5
1D9
330
A
100
AcDbEntity
  8
1
  6
CONTINUOUS
370
    50
100
AcDbLine
 10
62.8393036516
 20
179.08662964
 30
0.0
 11
62.8393036516
 21
163.08662964
 31
0.0
  0
LINE
  5
1DA
330
A
100
AcDbEntity
  8
1
  6
CONTINUOUS
370
    50
100
AcDbLine
 10
62.8293036516
 20
179.08662964
 30
0.0
 11
62.8293036516
 21
163.08662964
 31
0.0
  0
LINE
  5
1DB
330
A
100
AcDbEntity
  8
1
  6
CONTINUOUS
370
    50
100
AcDbLine
 10
130.5893036516
 20
178.28662964
 30
0.0
 11
130.5893036516
 21
163.9014228122
 31
0.0
  0
LINE
  5
1DC
330
A
100
AcDbEntity
  8
1
  6
CONTINUOUS
370
    50
100
AcDbLine
 10
130.0893036516
 20
164.3866297066
 30
0.0
 11
130.0893036516
 21
177.78662964
 31
0.0
  0
LINE
  5
1DD
330
A
100
AcDbEntity
  8
1
  6
CONTINUOUS
370
    50
100
AcDbLine
 10
139.9738336016
 20
163.88662964
 30
0.0
 11
139.9738336016
 21
178.28662964
 31
0.0
  0
LINE
  5
1DE
330
A
100
AcDbEntity
  8
1
  6
CONTINUOUS
370
    50
100
AcDbLine
 10
140.0893036554
 20
178.08662964
 30
0.0
 11
140.0893036554
 21
164.08662964
 31
0.0
  0
LINE
  5
1DF
330
A
100
AcDbEntity
  8
1
  6
CONTINUOUS
370
    50
100
AcDbLine
 10
73.8393036516
 20
178.16162964
 30
0.0
 11
73.8393036516
 21
164.01162964
 31
0.0
  0
LINE
  5
1E0
330
A
100
AcDbEntity
  8
1
  6
CONTINUOUS
370
    50
100
AcDbLine
 10
73.8575021633
 20
178.11162964
 30
0.0
 11
73.8575021633
 21
164.06162964
 31
0.0
  0
LINE
  5
1E1
330
A
100
AcDbEntity
  8
1
  6
CONTINUOUS
370
    50
100
AcDbLine
 10
107.8393036516
 20
178.11162964
 30
0.0
 11
107.8393036516
 21
164.06162964
 31
0.0
  0
LINE
  5
1E2
330
A
100
AcDbEntity
  8
1
  6
CONTINUOUS
370
    50
100
AcDbLine
 10
109.2971130813
 20
175.58662964
 30
0.0
 11
109.2971130813
 21
166.58662964
 31
0.0
  0
LWPOLYLINE
  5
1E3
330
A
100
AcDbEntity
  8
1
  6
CONTINUOUS
370
    50
100
AcDbPolyline
 90
       23
 70
   128
 43
0.0
 10
89.8447189791
 20
173.0681147851
 10
89.7671751231
 20
173.4746786342
 10
89.8346551144
 20
173.8742049516
 10
90.0327214041
 20
174.223211801
 10
90.3625649757
 20
174.5254687667
 10
90.9987497392
 20
174.8223622126
 10
92.0138228272
 20
174.9718010049
 10
92.7023988116
 20
174.9351148036
 10
93.3740731473
 20
174.8014290044
 10
94.2067545073
 20
174.457044314
 10
94.6143719265
 20
174.1377888217
 10
94.8260671304
 20
173.8290648247
 10
94.8991539088
 20
173.5429271785
 10
94.8636710716
 20
173.245009159
 10
94.7371711307
 20
172.9783662422
 10
94.3959448791
 20
172.6066844807
 10
93.6519384744
 20
172.1751588146
 10
93.0083236699
 20
171.9732900846
 10
92.3395423361
 20
171.8788597234
 10
91.217302097
 20
171.981483047
 10
90.5281759553
 20
172.274278384
 10
90.0894968788
 20
172.6520376466
 10
89.8447189791
 20
173.0681147851
  0
LINE
  5
1FC
330
A
100
AcDbEntity
  8
1
  6
CONTINUOUS
370
    50
100
AcDbLine
 10
103.1893036516
 20
195.68662964
 30
0.0
 11
113.1893036516
 21
195.68662964
 31
0.0
  0
LINE
  5
1FD
330
A
100
AcDbEntity
  8
1
  6
CONTINUOUS
370
    50
100
AcDbLine
 10
103.4893037183
 20
191.18662964
 30
0.0
 11
112.8893036516
 21
191.18662964
 31
0.0
  0
LINE
  5
1FE
330
A
100
AcDbEntity
  8
1
  6
CONTINUOUS
370
    50
100
AcDbLine
 10
113.1893036516
 20
191.48662964
 30
0.0
 11
103.1893036516
 21
191.48662964
 31
0.0
  0
LINE
  5
1FF
330
A
100
AcDbEntity
  8
1
  6
CONTINUOUS
370
    50
100
AcDbLine
 10
107.0893036516
 20
190.78662964
 30
0.0
 11
109.2893036516
 21
190.78662964
 31
0.0
  0
LINE
  5
200
330
A
100
AcDbEntity
  8
1
  6
CONTINUOUS
370
    50
100
AcDbLine
 10
106.9393036516
 20
187.37662964
 30
0.0
 11
109.4393036516
 21
187.37662964
 31
0.0
  0
LINE
  5
201
330
A
100
AcDbEntity
  8
1
  6
CONTINUOUS
370
    50
100
AcDbLine
 10
106.9393036516
 20
187.38662964
 30
0.0
 11
109.4393036516
 21
187.38662964
 31
0.0
  0
LINE
  5
202
330
A
100
AcDbEntity
  8
1
  6
CONTINUOUS
370
    50
100
AcDbLine
 10
107.0893036516
 20
184.78662964
 30
0.0
 11
109.2893036516
 21
184.78662964
 31
0.0
  0
LWPOLYLINE
  5
203
330
A
100
AcDbEntity
  8
1
  6
CONTINUOUS
370
    50
100
AcDbPolyline
 90
       24
 70
   128
 43
0.0
 10
104.5845602578
 20
177.2982867419
 10
104.5455938584
 20
177.7325602469
 10
104.5852872127
 20
178.1346256728
 10
104.7006964462
 20
178.4746636661
 10
104.883262184
 20
178.7274551645
 10
105.1194443605
 20
178.874251779
 10
105.3917264241
 20
178.9041662763
 10
105.6799144598
 20
178.814980035
 10
105.9626348794
 20
178.6133075904
 10
106.2189196026
 20
178.3141060654
 10
106.4297611641
 20
177.9395658682
 10
106.5795224097
 20
177.5174649319
 10
106.6570962329
 20
177.0791085519
 10
106.6567293381
 20
176.6570076155
 10
106.5784489364
 20
176.2824674183
 10
106.4280607268
 20
175.9832658933
 10
106.2167183151
 20
175.7815934488
 10
105.9600960009
 20
175.6924072074
 10
105.6772262875
 20
175.7223217047
 10
105.3890883273
 20
175.8691183192
 10
105.1170519948
 20
176.1219098177
 10
104.8812929803
 20
176.461947811
 10
104.6992964513
 20
176.8640132368
 10
104.5845602578
 20
177.2982867419
  0
LINE
  5
21D
330
A
100
AcDbEntity
  8
1
  6
CONTINUOUS
370
    50
100
AcDbLine
 10
109.6143036516
 20
144.2687717837
 30
0.0
 11
109.6143036516
 21
197.9044874963
 31
0.0
  0
LINE
  5
21E
330
A
100
AcDbEntity
  8
1
  6
CONTINUOUS
370
    50
100
AcDbLine
 10
110.1143036516
 20
189.43662964
 30
0.0
 11
110.1143036516
 21
192.8932226797
 31
0.0
  0
LINE
  5
21F
330
A
100
AcDbEntity
  8
1
  6
CONTINUOUS
370
    50
100
AcDbLine
 10
106.7643036516
 20
144.2687717837
 30
0.0
 11
106.7643036516
 21
197.9044874963
 31
0.0
  0
LINE
  5
220
330
A
100
AcDbEntity
  8
1
  6
CONTINUOUS
370
    50
100
AcDbLine
 10
106.2643036516
 20
189.43662964
 30
0.0
 11
106.2643036516
 21
192.8932226797
 31
0.0
  0
LINE
  5
221
330
A
100
AcDbEntity
  8
1
  6
CONTINUOUS
370
    50
100
AcDbLine
 10
104.6674670095
 20
196.99685928
 30
0.0
 11
104.6674670095
 21
189.43662964
 31
0.0
  0
LINE
  5
222
330
A
100
AcDbEntity
  8
1
  6
CONTINUOUS
370
    50
100
AcDbLine
 10
115.6393036516
 20
196.99685928
 30
0.0
 11
115.6393036516
 21
189.43662964
 31
0.0
  0
LINE
  5
223
330
A
100
AcDbEntity
  8
1
  6
CONTINUOUS
370
    50
100
AcDbLine
 10
111.7111402937
 20
196.99685928
 30
0.0
 11
111.7111402937
 21
189.43662964
 31
0.0
  0
LINE
  5
224
330
A
100
AcDbEntity
  8
1
  6
CONTINUOUS
370
    50
100
AcDbLine
 10
98.5893036516
 20
189.43662964
 30
0.0
 11
98.5893036516
 21
196.99685928
 31
0.0
  0
LWPOLYLINE
  5
225
330
A
100
AcDbEntity
  8
1
  6
CONTINUOUS
370
    50
100
AcDbPolyline
 90
       26
 70
   128
 43
0.0
 10
104.3678503758
 20
177.2982867419
 10
104.3208896876
 20
177.7834978813
 10
104.3546893059
 20
178.2382214204
 10
104.4671254763
 20
178.6338854067
 10
104.6511334206
 20
178.945628817
 10
104.8951512431
 20
179.1538636662
 10
105.1838464064
 20
179.2455057929
 10
105.4990791318
 20
179.2147969852
 10
105.8210421877
 20
179.0636667906
 10
106.1295054513
 20
178.8016112748
 10
106.4050870412
 20
178.4450963498
 10
106.6304711527
 20
178.0165231595
 10
106.791496073
 20
177.5428205336
 10
106.8780440143
 20
177.0537529502
 10
106.8846768512
 20
176.5800503242
 10
106.8109778179
 20
176.1514771339
 10
106.661577696
 20
175.7949622089
 10
106.4458638444
 20
175.5329066932
 10
106.1773903579
 20
175.3817764985
 10
105.8730264129
 20
175.3510676908
 10
105.5518963156
 20
175.4427098175
 10
105.2341778508
 20
175.6509446667
 10
104.9398344384
 20
175.962688077
 10
104.6873607573
 20
176.3583520634
 10
104.4926206575
 20
176.8130756024
 10
104.3678503758
 20
177.2982867419
  0
LWPOLYLINE
  5
241
330
A
100
AcDbEntity
  8
1
  6
CONTINUOUS
370
    50
100
AcDbPolyline
 90
       26
 70
   128
 43
0.0
 10
104.3755108202
 20
177.300485205
 10
104.3285501321
 20
177.7856963444
 10
104.3623497504
 20
178.2404198835
 10
104.4747859207
 20
178.6360838698
 10
104.6587938651
 20
178.9478272801
 10
104.9028116875
 20
179.1560621293
 10
105.1915068509
 20
179.247704256
 10
105.5067395762
 20
179.2169954484
 10
105.8287026322
 20
179.0658652537
 10
106.1371658957
 20
178.8038097379
 10
106.4127474856
 20
178.4472948129
 10
106.6381315971
 20
178.0187216226
 10
106.7991565175
 20
177.5450189967
 10
106.8857044588
 20
177.0559514133
 10
106.8923372956
 20
176.5822487873
 10
106.8186382624
 20
176.153675597
 10
106.6692381404
 20
175.797160672
 10
106.4535242889
 20
175.5351051563
 10
106.1850508023
 20
175.3839749616
 10
105.8806868574
 20
175.3532661539
 10
105.55955676
 20
175.4449082806
 10
105.2418382953
 20
175.6531431298
 10
104.9474948828
 20
175.9648865401
 10
104.6950212017
 20
176.3605505265
 10
104.500281102
 20
176.8152740655
 10
104.3755108202
 20
177.300485205
  0
LWPOLYLINE
  5
25D
330
A
100
AcDbEntity
  8
1
  6
CONTINUOUS
370
    50
100
AcDbPolyline
 90
       24
 70
   128
 43
0.0
 10
104.5922207022
 20
177.300485205
 10
104.5532543028
 20
177.73475871
 10
104.5929476571
 20
178.1368241359
 10
104.7083568906
 20
178.4768621292
 10
104.8909226284
 20
178.7296536276
 10
105.1271048049
 20
178.8764502422
 10
105.3993868685
 20
178.9063647394
 10
105.6875749042
 20
178.8171784981
 10
105.9702953238
 20
178.6155060536
 10
106.2265800471
 20
178.3163045285
 10
106.4374216085
 20
177.9417643313
 10
106.5871828541
 20
177.519663395
 10
106.6647566773
 20
177.081307015
 10
106.6643897826
 20
176.6592060786
 10
106.5861093808
 20
176.2846658814
 10
106.4357211713
 20
175.9854643564
 10
106.2243787595
 20
175.7837919119
 10
105.9677564453
 20
175.6946056705
 10
105.6848867319
 20
175.7245201678
 10
105.3967487717
 20
175.8713167823
 10
105.1247124392
 20
176.1241082808
 10
104.8889534247
 20
176.4641462741
 10
104.7069568957
 20
176.8662116999
 10
104.5922207022
 20
177.300485205
  0
LWPOLYLINE
  5
277
330
A
100
AcDbEntity
  8
1
  6
CONTINUOUS
370
    50
100
AcDbPolyline
 90
       24
 70
   128
 43
0.0
 10
114.7743355145
 20
179.6362454936
 10
114.659599321
 20
180.0705189987
 10
114.477602792
 20
180.4725844245
 10
114.2418437775
 20
180.8126224179
 10
113.969807445
 20
181.0654139163
 10
113.6816694848
 20
181.2122105308
 10
113.3987997713
 20
181.2421250281
 10
113.1421774572
 20
181.1529387867
 10
112.9308350454
 20
180.9512663422
 10
112.7804468359
 20
180.6520648172
 10
112.7021664341
 20
180.27752462
 10
112.7017995394
 20
179.8554236837
 10
112.7793733626
 20
179.4170673036
 10
112.9291346082
 20
178.9949663673
 10
113.1399761696
 20
178.6204261701
 10
113.3962608929
 20
178.3212246451
 10
113.6789813124
 20
178.1195522006
 10
113.9671693482
 20
178.0303659592
 10
114.2394514118
 20
178.0602804565
 10
114.4756335883
 20
178.207077071
 10
114.6581993261
 20
178.4598685694
 10
114.7736085596
 20
178.7999065628
 10
114.8133019139
 20
179.2019719886
 10
114.7743355145
 20
179.6362454936
  0
ARC
  5
291
330
A
100
AcDbEntity
  8
1
  6
CONTINUOUS
370
    50
100
AcDbCircle
 10
109.5006505418
 20
176.6093289287
 30
0.0
 40
1.5840694361
100
AcDbArc
 50
187.0718338973
 51
190.4162179418
  0
ARC
  5
292
330
A
100
AcDbEntity
  8
1
  6
CONTINUOUS
370
    50
100
AcDbCircle
 10
103.7026144326
 20
186.3693463067
 30
0.0
 40
10.9045232024
100
AcDbArc
 50
292.8820937121
 51
294.2172889972
  0
ARC
  5
293
330
A
100
AcDbEntity
  8
1
  6
CONTINUOUS
370
    50
100
AcDbCircle
 10
107.85824238
 20
181.1366036896
 30
0.0
 40
4.7228198902
100
AcDbArc
 50
270.8539739895
 51
273.853360867
  0
LWPOLYLINE
  5
294
330
A
100
AcDbEntity
  8
1
  6
CONTINUOUS
370
    50
100
AcDbPolyline
 90
       18
 70
   128
 43
0.0
 10
107.9286317883
 20
179.5152940228
 10
107.9119622696
 20
179.6194754301
 10
107.8958604114
 20
179.667308891
 10
107.8808745432
 20
179.6571654944
 10
107.8675149906
 20
179.5893906615
 10
107.8562366973
 20
179.4662923829
 10
107.847423732
 20
179.2920626228
 10
107.8413762097
 20
179.0726345668
 10
107.8383000714
 20
178.8154805742
 10
107.8383000714
 20
178.5293577156
 10
107.8413762097
 20
178.224009562
 10
107.847423732
 20
177.9098343785
 10
107.8562366973
 20
177.5975310241
 10
107.8675149906
 20
177.297734615
 10
107.8808745432
 20
177.0206543583
 10
107.8958604114
 20
176.7757258899
 10
107.9119622696
 20
176.571289955
 10
107.9286317883
 20
176.4143083742
  0
ARC
  5
2A8
330
A
100
AcDbEntity
  8
1
  6
CONTINUOUS
370
    50
100
AcDbCircle
 10
107.9991593454
 20
174.7996447341
 30
0.0
 40
4.7161766665
100
AcDbArc
 50
87.8555877576
 51
90.8568555159
  0
ARC
  5
2A9
330
A
100
AcDbEntity
  8
1
  6
CONTINUOUS
370
    50
100
AcDbCircle
 10
113.9490269365
 20
168.5638397557
 30
0.0
 40
12.3776278979
100
AcDbArc
 50
117.8033277306
 51
119.0293663287
  0
ARC
  5
2AA
330
A
100
AcDbEntity
  8
1
  6
CONTINUOUS
370
    50
100
AcDbCircle
 10
103.6733365071
 20
178.9858464439
 30
0.0
 40
4.2881059536
100
AcDbArc
 50
5.360907103100001
 51
7.0923433091
  0
LWPOLYLINE
  5
2AB
330
A
100
AcDbEntity
  8
1
  6
CONTINUOUS
370
    50
100
AcDbPolyline
 90
       18
 70
   128
 43
0.0
 10
107.9286317883
 20
176.4143083742
 10
107.4310671868
 20
176.4332783676
 10
106.950446551
 20
176.5044025341
 10
106.5031368403
 20
176.6252588256
 10
106.1043706504
 20
176.791731626
 10
105.7677274855
 20
176.9981519038
 10
105.504671325
 20
177.2374902639
 10
105.3241602308
 20
177.5015963256
 10
105.2323412917
 20
177.7814762737
 10
105.2323412917
 20
178.0675991322
 10
105.3241602308
 20
178.3502213304
 10
105.504671325
 20
178.6197185082
 10
105.7677274855
 20
178.8669132625
 10
106.1043706504
 20
179.0833876725
 10
106.5031368403
 20
179.2617699617
 10
106.950446551
 20
179.3959855352
 10
107.4310671868
 20
179.4814638426
 10
107.9286317883
 20
179.5152940228
  0
LWPOLYLINE
  5
2BF
330
A
100
AcDbEntity
  8
1
  6
CONTINUOUS
370
    50
100
AcDbPolyline
 90
        9
 70
   128
 43
0.0
 10
107.9426860405
 20
179.3864799798
 10
107.9716058736
 20
179.4072884891
 10
108.0006377958
 20
179.426686604
 10
108.0297541588
 20
179.4446558509
 10
108.0589272336
 20
179.4611791167
 10
108.0881292373
 20
179.4762406655
 10
108.1173323594
 20
179.4898261535
 10
108.1465087885
 20
179.5019226427
 10
108.1756307384
 20
179.5125186129
  0
LWPOLYLINE
  5
2CA
330
A
100
AcDbEntity
  8
1
  6
CONTINUOUS
370
    50
100
AcDbPolyline
 90
        9
 70
   128
 43
0.0
 10
108.1756307384
 20
176.4244606161
 10
108.1465087885
 20
176.4066070398
 10
108.1173323594
 20
176.3902007611
 10
108.0881292373
 20
176.3752574045
 10
108.0589272336
 20
176.3617912014
 10
108.0297541588
 20
176.3498149762
 10
108.0006377958
 20
176.3393401344
 10
107.9716058736
 20
176.3303766518
 10
107.9426860405
 20
176.3229330647
  0
LWPOLYLINE
  5
2D5
330
A
100
AcDbEntity
  8
1
  6
CONTINUOUS
370
    50
100
AcDbPolyline
 90
       27
 70
   128
 43
0.0
 10
112.7400825853
 20
179.7187946193
 10
112.6911054808
 20
180.2090620719
 10
112.7205410914
 20
180.6708369621
 10
112.8266787265
 20
181.077282612
 10
113.0033500523
 20
181.4047778776
 10
113.2402875737
 20
181.6342899245
 10
113.5237213432
 20
181.7524803469
 10
113.8371792203
 20
181.7524803469
 10
114.1624441725
 20
181.6342899245
 10
114.4806129832
 20
181.4047778776
 10
114.7731948376
 20
181.077282612
 10
115.0231859417
 20
180.6708369621
 10
115.2160577213
 20
180.2090620719
 10
115.3406011696
 20
179.7187946193
 10
115.3895782741
 20
179.2285271667
 10
115.3601426635
 20
178.7667522764
 10
115.2540050285
 20
178.3603066266
 10
115.0773337026
 20
178.032811361
 10
114.8403961812
 20
177.803299314
 10
114.5569624117
 20
177.6851088917
 10
114.2435045346
 20
177.6851088917
 10
113.9182395824
 20
177.803299314
 10
113.6000707717
 20
178.032811361
 10
113.3074889173
 20
178.3603066266
 10
113.0574978132
 20
178.7667522764
 10
112.8646260336
 20
179.2285271667
 10
112.7400825853
 20
179.7187946193
  0
LWPOLYLINE
  5
2F2
330
A
100
AcDbEntity
  8
1
  6
CONTINUOUS
370
    50
100
AcDbPolyline
 90
       27
 70
   128
 43
0.0
 10
115.33204783
 20
179.717771807
 10
115.2079822838
 20
180.2061579895
 10
115.0158505981
 20
180.6661609423
 10
114.7668187679
 20
181.0710469658
 10
114.475359618
 20
181.3972855561
 10
114.158411695
 20
181.625916912
 10
113.8343948599
 20
181.7436538102
 10
113.5221397934
 20
181.7436538102
 10
113.2397936251
 20
181.625916912
 10
113.003765288
 20
181.3972855561
 10
112.8277718911
 20
181.0710469658
 10
112.7220415308
 20
180.6661609423
 10
112.6927188715
 20
180.2061579895
 10
112.7415080395
 20
179.717771807
 10
112.8655735856
 20
179.2293856245
 10
113.0577052714
 20
178.7693826717
 10
113.3067371016
 20
178.3644966482
 10
113.5981962514
 20
178.038258058
 10
113.9151441745
 20
177.8096267021
 10
114.2391610096
 20
177.6918898038
 10
114.551416076
 20
177.6918898038
 10
114.8337622443
 20
177.8096267021
 10
115.0697905815
 20
178.038258058
 10
115.2457839784
 20
178.3644966482
 10
115.3515143387
 20
178.7693826717
 10
115.380836998
 20
179.2293856245
 10
115.33204783
 20
179.717771807
  0
LINE
  5
30F
330
A
100
AcDbEntity
  8
1
  6
CONTINUOUS
370
    50
100
AcDbLine
 10
112.2393036516
 20
162.5301912625
 30
0.0
 11
112.2393036516
 21
169.5301912625
 31
0.0
  0
LINE
  5
310
330
A
100
AcDbEntity
  8
1
  6
CONTINUOUS
370
    50
100
AcDbLine
 10
112.2393036516
 20
177.2037005624
 30
0.0
 11
112.2393036516
 21
177.3566339166
 31
0.0
  0
LINE
  5
311
330
A
100
AcDbEntity
  8
1
  6
CONTINUOUS
370
    50
100
AcDbLine
 10
112.2393036516
 20
170.3566339166
 30
0.0
 11
112.2393036516
 21
177.2037005624
 31
0.0
  0
LINE
  5
312
330
A
100
AcDbEntity
  8
1
  6
CONTINUOUS
370
    50
100
AcDbLine
 10
99.8893036516
 20
151.08662964
 30
0.0
 11
103.8893036516
 21
151.08662964
 31
0.0
  0
LINE
  5
313
330
A
100
AcDbEntity
  8
1
  6
CONTINUOUS
370
    50
100
AcDbLine
 10
99.8893036516
 20
191.08662964
 30
0.0
 11
99.8893036516
 21
151.08662964
 31
0.0
  0
LINE
  5
314
330
A
100
AcDbEntity
  8
1
  6
CONTINUOUS
370
    50
100
AcDbLine
 10
103.8893036516
 20
151.08662964
 30
0.0
 11
103.8893036516
 21
191.08662964
 31
0.0
  0
LINE
  5
315
330
A
100
AcDbEntity
  8
1
  6
CONTINUOUS
370
    50
100
AcDbLine
 10
114.6893036516
 20
151.08662964
 30
0.0
 11
114.6893036516
 21
191.08662964
 31
0.0
  0
LINE
  5
316
330
A
100
AcDbEntity
  8
1
  6
CONTINUOUS
370
    50
100
AcDbLine
 10
112.6893036516
 20
151.08662964
 30
0.0
 11
114.6893036516
 21
151.08662964
 31
0.0
  0
LINE
  5
317
330
A
100
AcDbEntity
  8
1
  6
CONTINUOUS
370
    50
100
AcDbLine
 10
112.6893036516
 20
191.08662964
 30
0.0
 11
112.6893036516
 21
151.08662964
 31
0.0
  0
LINE
  5
318
330
A
100
AcDbEntity
  8
1
  6
CONTINUOUS
370
    50
100
AcDbLine
 10
114.6893036516
 20
191.08662964
 30
0.0
 11
112.6893036516
 21
191.08662964
 31
0.0
  0
LINE
  5
319
330
A
100
AcDbEntity
  8
1
  6
CONTINUOUS
370
    50
100
AcDbLine
 10
103.8893036516
 20
191.08662964
 30
0.0
 11
99.8893036516
 21
191.08662964
 31
0.0
  0
LINE
  5
31A
330
A
100
AcDbEntity
  8
1
  6
CONTINUOUS
370
    50
100
AcDbLine
 10
116.1393036516
 20
164.0368556403
 30
0.0
 11
114.6196346451
 21
164.4729838925
 31
0.0
  0
LINE
  5
31B
330
A
100
AcDbEntity
  8
1
  6
CONTINUOUS
370
    50
100
AcDbLine
 10
113.4610491098
 20
160.4359454288
 30
0.0
 11
116.1393036516
 21
159.6673159001
 31
0.0
  0
LINE
  5
31C
330
A
100
AcDbEntity
  8
1
  6
CONTINUOUS
370
    50
100
AcDbLine
 10
98.0893036516
 20
160.1554291085
 30
0.0
 11
107.8917956585
 21
162.5029797162
 31
0.0
  0
LINE
  5
31D
330
A
100
AcDbEntity
  8
1
  6
CONTINUOUS
370
    50
100
AcDbLine
 10
106.8291186828
 20
165.6417977564
 30
0.0
 11
98.0893036516
 21
163.5487424319
 31
0.0
  0
LINE
  5
31E
330
A
100
AcDbEntity
  8
1
  6
CONTINUOUS
370
    50
100
AcDbLine
 10
113.1874052482
 20
163.6332490217
 30
0.0
 11
113.0827682639
 21
163.4659624521
 31
0.0
  0
LINE
  5
31F
330
A
100
AcDbEntity
  8
1
  6
CONTINUOUS
370
    50
100
AcDbLine
 10
112.6921036576
 20
162.1047094464
 30
0.0
 11
112.6921036576
 21
161.9073932158
 31
0.0
  0
LINE
  5
320
330
A
100
AcDbEntity
  8
1
  6
CONTINUOUS
370
    50
100
AcDbLine
 10
114.2078618167
 20
164.1229931828
 30
0.0
 11
106.0690116063
 21
166.4587534714
 31
0.0
  0
LINE
  5
321
330
A
100
AcDbEntity
  8
1
  6
CONTINUOUS
370
    50
100
AcDbLine
 10
107.8896996582
 20
162.5030262757
 30
0.0
 11
113.2975446104
 21
160.9510343899
 31
0.0
  0
LINE
  5
322
330
A
100
AcDbEntity
  8
1
  6
CONTINUOUS
370
    50
100
AcDbLine
 10
105.1586944
 20
163.2867946785
 30
0.0
 11
106.7665556533
 21
162.8253562237
 31
0.0
  0
LINE
  5
323
330
A
100
AcDbEntity
  8
1
  6
CONTINUOUS
370
    50
100
AcDbLine
 10
98.3424575451
 20
194.0792886713
 30
0.0
 11
98.0893036516
 21
194.6221789479
 31
0.0
  0
ARC
  5
324
330
A
100
AcDbEntity
  8
1
  6
CONTINUOUS
370
    50
100
AcDbCircle
 10
97.8893036516
 20
193.8679795405
 30
0.0
 40
0.5
100
AcDbArc
 50
0.0
 51
25.0
  0
ARC
  5
325
330
A
100
AcDbEntity
  8
1
  6
CONTINUOUS
370
    50
100
AcDbCircle
 10
97.8893036516
 20
148.66162964
 30
0.0
 40
0.5
100
AcDbArc
 50
0.0
 51
66.4218215218
  0
ARC
  5
326
330
A
100
AcDbEntity
  8
1
  6
CONTINUOUS
370
    50
100
AcDbCircle
 10
97.8893036516
 20
193.51162964
 30
0.0
 40
0.5
100
AcDbArc
 50
293.5781784782001
 51
0.0
  0
LINE
  5
327
330
A
100
AcDbEntity
  8
1
  6
CONTINUOUS
370
    50
100
AcDbLine
 10
106.0613511618
 20
166.4609519345
 30
0.0
 11
93.2418356426
 21
170.1400115678
 31
0.0
  0
LINE
  5
328
330
A
100
AcDbEntity
  8
1
  6
CONTINUOUS
370
    50
100
AcDbLine
 10
91.0449676679
 20
167.3372786626
 30
0.0
 11
105.1510339556
 21
163.2889931416
 31
0.0
  0
ARC
  5
329
330
A
100
AcDbEntity
  8
1
  6
CONTINUOUS
370
    50
100
AcDbCircle
 10
29.8393036516
 20
161.58662964
 30
0.0
 40
1.0
100
AcDbArc
 50
136.778654881
 51
180.0
  0
ARC
  5
32A
330
A
100
AcDbEntity
  8
1
  6
CONTINUOUS
370
    50
100
AcDbCircle
 10
29.8393036516
 20
180.58662964
 30
0.0
 40
1.0
100
AcDbArc
 50
180.0
 51
223.221345119
  0
LINE
  5
32B
330
A
100
AcDbEntity
  8
1
  6
CONTINUOUS
370
    50
100
AcDbLine
 10
29.1105900977
 20
162.2714482703
 30
0.0
 11
29.6105900977
 21
162.5601234049
 31
0.0
  0
LINE
  5
32C
330
A
100
AcDbEntity
  8
1
  6
CONTINUOUS
370
    50
100
AcDbLine
 10
29.6105900977
 20
179.6131358751
 30
0.0
 11
29.1105900977
 21
179.9018110097
 31
0.0
  0
LINE
  5
32D
330
A
100
AcDbEntity
  8
1
  6
CONTINUOUS
370
    50
100
AcDbLine
 10
35.0290150833
 20
179.73662964
 30
0.0
 11
34.7692074622
 21
179.58662964
 31
0.0
  0
LINE
  5
32E
330
A
100
AcDbEntity
  8
1
  6
CONTINUOUS
370
    50
100
AcDbLine
 10
34.7692074622
 20
162.58662964
 30
0.0
 11
35.0290150833
 21
162.43662964
 31
0.0
  0
LINE
  5
32F
330
A
100
AcDbEntity
  8
1
  6
CONTINUOUS
370
    50
100
AcDbLine
 10
37.3393036516
 20
162.43662964
 30
0.0
 11
38.2486303256
 21
164.01162964
 31
0.0
  0
LINE
  5
330
330
A
100
AcDbEntity
  8
1
  6
CONTINUOUS
370
    50
100
AcDbLine
 10
38.2486303256
 20
178.16162964
 30
0.0
 11
37.3393036516
 21
179.73662964
 31
0.0
  0
LINE
  5
331
330
A
100
AcDbEntity
  8
1
  6
CONTINUOUS
370
    50
100
AcDbLine
 10
37.3393036516
 20
179.73662964
 30
0.0
 11
35.0290150833
 21
179.73662964
 31
0.0
  0
LINE
  5
332
330
A
100
AcDbEntity
  8
1
  6
CONTINUOUS
370
    50
100
AcDbLine
 10
35.0290150833
 20
162.43662964
 30
0.0
 11
37.3393036516
 21
162.43662964
 31
0.0
  0
ARC
  5
333
330
A
100
AcDbEntity
  8
1
  6
CONTINUOUS
370
    50
100
AcDbCircle
 10
29.8393036516
 20
161.58662964
 30
0.0
 40
1.0
100
AcDbArc
 50
90.0
 51
103.221345119
  0
ARC
  5
334
330
A
100
AcDbEntity
  8
1
  6
CONTINUOUS
370
    50
100
AcDbCircle
 10
29.8393036516
 20
180.58662964
 30
0.0
 40
1.0
100
AcDbArc
 50
256.778654881
 51
270.0
  0
LINE
  5
335
330
A
100
AcDbEntity
  8
1
  6
CONTINUOUS
370
    50
100
AcDbLine
 10
29.8393036516
 20
162.58662964
 30
0.0
 11
34.7692074622
 21
162.58662964
 31
0.0
  0
LINE
  5
336
330
A
100
AcDbEntity
  8
1
  6
CONTINUOUS
370
    50
100
AcDbLine
 10
34.7692074622
 20
179.58662964
 30
0.0
 11
29.8393036516
 21
179.58662964
 31
0.0
  0
ARC
  5
337
330
A
100
AcDbEntity
  8
1
  6
CONTINUOUS
370
    50
100
AcDbCircle
 10
175.5893036516
 20
162.65162964
 30
0.0
 40
1.5
100
AcDbArc
 50
0.0
 51
73.0710674448
  0
ARC
  5
338
330
A
100
AcDbEntity
  8
1
  6
CONTINUOUS
370
    50
100
AcDbCircle
 10
175.5893036516
 20
179.52162964
 30
0.0
 40
1.5
100
AcDbArc
 50
286.9289325552
 51
0.0
  0
ARC
  5
339
330
A
100
AcDbEntity
  8
1
  6
CONTINUOUS
370
    50
100
AcDbCircle
 10
130.5893036516
 20
164.38662964
 30
0.0
 40
0.5
100
AcDbArc
 50
180.0
 51
270.0
  0
ARC
  5
33A
330
A
100
AcDbEntity
  8
1
  6
CONTINUOUS
370
    50
100
AcDbCircle
 10
130.5893036516
 20
177.78662964
 30
0.0
 40
0.5
100
AcDbArc
 50
90.0
 51
180.0
  0
LINE
  5
33B
330
A
100
AcDbEntity
  8
1
  6
CONTINUOUS
370
    50
100
AcDbLine
 10
130.5893036516
 20
163.88662964
 30
0.0
 11
139.9738336016
 21
163.88662964
 31
0.0
  0
LINE
  5
33C
330
A
100
AcDbEntity
  8
1
  6
CONTINUOUS
370
    50
100
AcDbLine
 10
139.9738336016
 20
178.28662964
 30
0.0
 11
130.5893036516
 21
178.28662964
 31
0.0
  0
LINE
  5
33D
330
A
100
AcDbEntity
  8
1
  6
CONTINUOUS
370
    50
100
AcDbLine
 10
139.9738336016
 20
163.88662964
 30
0.0
 11
140.0893036554
 21
164.08662964
 31
0.0
  0
LINE
  5
33E
330
A
100
AcDbEntity
  8
1
  6
CONTINUOUS
370
    50
100
AcDbLine
 10
140.0893036554
 20
178.08662964
 30
0.0
 11
139.9738336016
 21
178.28662964
 31
0.0
  0
LINE
  5
33F
330
A
100
AcDbEntity
  8
1
  6
CONTINUOUS
370
    50
100
AcDbLine
 10
62.8293036516
 20
178.16162964
 30
0.0
 11
38.2486303256
 21
178.16162964
 31
0.0
  0
LINE
  5
340
330
A
100
AcDbEntity
  8
1
  6
CONTINUOUS
370
    50
100
AcDbLine
 10
38.2486303256
 20
164.01162964
 30
0.0
 11
62.8293036516
 21
164.01162964
 31
0.0
  0
LINE
  5
341
330
A
100
AcDbEntity
  8
1
  6
CONTINUOUS
370
    50
100
AcDbLine
 10
73.8393036516
 20
178.16162964
 30
0.0
 11
62.8393036516
 21
178.16162964
 31
0.0
  0
LINE
  5
342
330
A
100
AcDbEntity
  8
1
  6
CONTINUOUS
370
    50
100
AcDbLine
 10
62.8393036516
 20
164.01162964
 30
0.0
 11
73.8393036516
 21
164.01162964
 31
0.0
  0
LINE
  5
343
330
A
100
AcDbEntity
  8
1
  6
CONTINUOUS
370
    50
100
AcDbLine
 10
107.8393036516
 20
164.06162964
 30
0.0
 11
109.2971130813
 21
166.58662964
 31
0.0
  0
LINE
  5
344
330
A
100
AcDbEntity
  8
1
  6
CONTINUOUS
370
    50
100
AcDbLine
 10
109.2971130813
 20
175.58662964
 30
0.0
 11
107.8393036516
 21
178.11162964
 31
0.0
  0
LINE
  5
345
330
A
100
AcDbEntity
  8
1
  6
CONTINUOUS
370
    50
100
AcDbLine
 10
107.8393036516
 20
178.11162964
 30
0.0
 11
73.8575021633
 21
178.11162964
 31
0.0
  0
LINE
  5
346
330
A
100
AcDbEntity
  8
1
  6
CONTINUOUS
370
    50
100
AcDbLine
 10
73.8575021633
 20
164.06162964
 30
0.0
 11
107.8393036516
 21
164.06162964
 31
0.0
  0
LINE
  5
347
330
A
100
AcDbEntity
  8
1
  6
CONTINUOUS
370
    50
100
AcDbLine
 10
140.0893036554
 20
164.08662964
 30
0.0
 11
176.0260816272
 21
164.08662964
 31
0.0
  0
LINE
  5
348
330
A
100
AcDbEntity
  8
1
  6
CONTINUOUS
370
    50
100
AcDbLine
 10
176.0260816272
 20
178.08662964
 30
0.0
 11
140.0893036554
 21
178.08662964
 31
0.0
  0
LINE
  5
349
330
A
100
AcDbEntity
  8
1
  6
CONTINUOUS
370
    50
100
AcDbLine
 10
102.9893036516
 20
195.88662964
 30
0.0
 11
103.1893036516
 21
195.68662964
 31
0.0
  0
LINE
  5
34A
330
A
100
AcDbEntity
  8
1
  6
CONTINUOUS
370
    50
100
AcDbLine
 10
113.1893036516
 20
195.68662964
 30
0.0
 11
113.3893036516
 21
195.88662964
 31
0.0
  0
ARC
  5
34B
330
A
100
AcDbEntity
  8
1
  6
CONTINUOUS
370
    50
100
AcDbCircle
 10
103.4893036516
 20
191.48662964
 30
0.0
 40
0.3
100
AcDbArc
 50
180.0
 51
270.0
  0
ARC
  5
34C
330
A
100
AcDbEntity
  8
1
  6
CONTINUOUS
370
    50
100
AcDbCircle
 10
112.8893036516
 20
191.48662964
 30
0.0
 40
0.3
100
AcDbArc
 50
270.0
 51
0.0
  0
LINE
  5
34D
330
A
100
AcDbEntity
  8
1
  6
CONTINUOUS
370
    50
100
AcDbLine
 10
103.1893036516
 20
195.68662964
 30
0.0
 11
103.1893036516
 21
191.48662964
 31
0.0
  0
LINE
  5
34E
330
A
100
AcDbEntity
  8
1
  6
CONTINUOUS
370
    50
100
AcDbLine
 10
113.1893036516
 20
191.48662964
 30
0.0
 11
113.1893036516
 21
195.68662964
 31
0.0
  0
LINE
  5
34F
330
A
100
AcDbEntity
  8
1
  6
CONTINUOUS
370
    50
100
AcDbLine
 10
109.2971130813
 20
166.58662964
 30
0.0
 11
130.0893036516
 21
166.58662964
 31
0.0
  0
LINE
  5
350
330
A
100
AcDbEntity
  8
1
  6
CONTINUOUS
370
    50
100
AcDbLine
 10
130.0893036516
 20
175.58662964
 30
0.0
 11
109.2971130813
 21
175.58662964
 31
0.0
  0
LINE
  5
351
330
A
100
AcDbEntity
  8
1
  6
CONTINUOUS
370
    50
100
AcDbLine
 10
106.6893036516
 20
191.18662964
 30
0.0
 11
107.0893036516
 21
190.78662964
 31
0.0
  0
LINE
  5
352
330
A
100
AcDbEntity
  8
1
  6
CONTINUOUS
370
    50
100
AcDbLine
 10
109.2893036516
 20
190.78662964
 30
0.0
 11
109.6893036516
 21
191.18662964
 31
0.0
  0
LINE
  5
353
330
A
100
AcDbEntity
  8
1
  6
CONTINUOUS
370
    50
100
AcDbLine
 10
107.0893036516
 20
184.78662964
 30
0.0
 11
108.1893036516
 21
184.3862623823
 31
0.0
  0
LINE
  5
354
330
A
100
AcDbEntity
  8
1
  6
CONTINUOUS
370
    50
100
AcDbLine
 10
108.1893036516
 20
184.3862623823
 30
0.0
 11
109.2893036516
 21
184.78662964
 31
0.0
  0
LINE
  5
355
330
A
100
AcDbEntity
  8
1
  6
CONTINUOUS
370
    50
100
AcDbLine
 10
107.0893036516
 20
187.37662964
 30
0.0
 11
107.0893036516
 21
184.78662964
 31
0.0
  0
LINE
  5
356
330
A
100
AcDbEntity
  8
1
  6
CONTINUOUS
370
    50
100
AcDbLine
 10
109.2893036516
 20
184.78662964
 30
0.0
 11
109.2893036516
 21
187.37662964
 31
0.0
  0
LINE
  5
357
330
A
100
AcDbEntity
  8
1
  6
CONTINUOUS
370
    50
100
AcDbLine
 10
107.0893036516
 20
190.78662964
 30
0.0
 11
107.0893036516
 21
187.38662964
 31
0.0
  0
LINE
  5
358
330
A
100
AcDbEntity
  8
1
  6
CONTINUOUS
370
    50
100
AcDbLine
 10
109.2893036516
 20
187.38662964
 30
0.0
 11
109.2893036516
 21
190.78662964
 31
0.0
  0
LINE
  5
359
330
A
100
AcDbEntity
  8
1
  6
CONTINUOUS
370
    50
100
AcDbLine
 10
105.1510339556
 20
178.8842661383
 30
0.0
 11
91.0449676679
 21
174.8359806174
 31
0.0
  0
LINE
  5
35A
330
A
100
AcDbEntity
  8
1
  6
CONTINUOUS
370
    50
100
AcDbLine
 10
93.2419350688
 20
172.0332762464
 30
0.0
 11
106.0613511618
 21
175.7123073454
 31
0.0
  0
LINE
  5
35B
330
A
100
AcDbEntity
  8
1
  6
CONTINUOUS
370
    50
100
AcDbLine
 10
106.7665556533
 20
179.3479030562
 30
0.0
 11
105.1586944
 21
178.8864646014
 31
0.0
  0
LINE
  5
35C
330
A
100
AcDbEntity
  8
1
  6
CONTINUOUS
370
    50
100
AcDbLine
 10
113.2975446104
 20
181.2222248901
 30
0.0
 11
107.8896996582
 21
179.6702330042
 31
0.0
  0
LINE
  5
35D
330
A
100
AcDbEntity
  8
1
  6
CONTINUOUS
370
    50
100
AcDbLine
 10
106.0690116063
 20
175.7145058085
 30
0.0
 11
114.2078618167
 21
178.0502660972
 31
0.0
  0
LINE
  5
35E
330
A
100
AcDbEntity
  8
1
  6
CONTINUOUS
370
    50
100
AcDbLine
 10
98.0893036516
 20
178.6245168481
 30
0.0
 11
106.8291186828
 21
176.5314615236
 31
0.0
  0
LINE
  5
35F
330
A
100
AcDbEntity
  8
1
  6
CONTINUOUS
370
    50
100
AcDbLine
 10
107.8917956585
 20
179.6702795638
 30
0.0
 11
98.0893036516
 21
182.0178301715
 31
0.0
  0
LINE
  5
360
330
A
100
AcDbEntity
  8
1
  6
CONTINUOUS
370
    50
100
AcDbLine
 10
116.1393036516
 20
182.5059433799
 30
0.0
 11
113.4610491098
 21
181.7373138512
 31
0.0
  0
LINE
  5
361
330
A
100
AcDbEntity
  8
1
  6
CONTINUOUS
370
    50
100
AcDbLine
 10
114.6196346451
 20
177.7002753874
 30
0.0
 11
116.1393036516
 21
178.1364036397
 31
0.0
  0
LINE
  5
362
330
A
100
AcDbEntity
  8
1
  6
CONTINUOUS
370
    50
100
AcDbLine
 10
112.6921036576
 20
180.2658660641
 30
0.0
 11
112.6921036576
 21
180.0685498335
 31
0.0
  0
LINE
  5
363
330
A
100
AcDbEntity
  8
1
  6
CONTINUOUS
370
    50
100
AcDbLine
 10
113.0827682639
 20
178.7072968279
 30
0.0
 11
113.1874052482
 21
178.5400102582
 31
0.0
  0
LINE
  5
364
330
A
100
AcDbEntity
  8
1
  6
CONTINUOUS
370
    50
100
AcDbLine
 10
112.2393036516
 20
162.5301912625
 30
0.0
 11
116.1393036516
 21
162.5301912625
 31
0.0
  0
LINE
  5
365
330
A
100
AcDbEntity
  8
1
  6
CONTINUOUS
370
    50
100
AcDbLine
 10
116.1393036516
 20
169.5301912625
 30
0.0
 11
112.2393036516
 21
169.5301912625
 31
0.0
  0
LINE
  5
366
330
A
100
AcDbEntity
  8
1
  6
CONTINUOUS
370
    50
100
AcDbLine
 10
112.2393036516
 20
169.5301912625
 30
0.0
 11
110.9654078317
 21
166.0301912625
 31
0.0
  0
LINE
  5
367
330
A
100
AcDbEntity
  8
1
  6
CONTINUOUS
370
    50
100
AcDbLine
 10
110.9654078317
 20
166.0301912625
 30
0.0
 11
112.2393036516
 21
162.5301912625
 31
0.0
  0
LINE
  5
368
330
A
100
AcDbEntity
  8
1
  6
CONTINUOUS
370
    50
100
AcDbLine
 10
112.2393036516
 20
170.3566339166
 30
0.0
 11
116.1393036516
 21
170.3566339166
 31
0.0
  0
LINE
  5
369
330
A
100
AcDbEntity
  8
1
  6
CONTINUOUS
370
    50
100
AcDbLine
 10
116.1393036516
 20
177.3566339166
 30
0.0
 11
112.2393036516
 21
177.3566339166
 31
0.0
  0
LINE
  5
36A
330
A
100
AcDbEntity
  8
1
  6
CONTINUOUS
370
    50
100
AcDbLine
 10
112.2393036516
 20
177.3566339166
 30
0.0
 11
110.9654078317
 21
173.8566339166
 31
0.0
  0
LINE
  5
36B
330
A
100
AcDbEntity
  8
1
  6
CONTINUOUS
370
    50
100
AcDbLine
 10
110.9654078317
 20
173.8566339166
 30
0.0
 11
112.2393036516
 21
170.3566339166
 31
0.0
  0
LINE
  5
36C
330
A
100
AcDbEntity
  8
1
  6
CONTINUOUS
370
    50
100
AcDbLine
 10
97.8893036516
 20
193.01162964
 30
0.0
 11
97.8893036516
 21
149.16162964
 31
0.0
  0
LINE
  5
36D
330
A
100
AcDbEntity
  8
1
  6
CONTINUOUS
370
    50
100
AcDbLine
 10
97.6321939282
 20
193.0584757465
 30
0.0
 11
97.6321939282
 21
149.1147835335
 31
0.0
  0
LINE
  5
36E
330
A
100
AcDbEntity
  8
1
  6
CONTINUOUS
370
    50
100
AcDbLine
 10
97.8435030591
 20
193.01162964
 30
0.0
 11
97.8435030591
 21
149.16162964
 31
0.0
  0
LINE
  5
36F
330
A
100
AcDbEntity
  8
1
  6
CONTINUOUS
370
    50
100
AcDbLine
 10
29.5917875453
 20
183.4662376777
 30
0.0
 11
29.5917875453
 21
158.7070216023
 31
0.0
  0
LINE
  5
370
330
A
100
AcDbEntity
  8
1
  6
CONTINUOUS
370
    50
100
AcDbLine
 10
104.3678503758
 20
177.2982867419
 30
0.0
 11
104.3210959371
 21
177.8733744371
 31
0.0
  0
LINE
  5
371
330
A
100
AcDbEntity
  8
1
  6
CONTINUOUS
370
    50
100
AcDbLine
 10
104.3210959371
 20
177.8733744371
 30
0.0
 11
104.3885279728
 21
178.3973630668
 31
0.0
  0
LINE
  5
372
330
A
100
AcDbEntity
  8
1
  6
CONTINUOUS
370
    50
100
AcDbLine
 10
104.3885279728
 20
178.3973630668
 30
0.0
 11
104.5641548505
 21
178.8236939419
 31
0.0
  0
LINE
  5
373
330
A
100
AcDbEntity
  8
1
  6
CONTINUOUS
370
    50
100
AcDbLine
 10
104.5641548505
 20
178.8236939419
 30
0.0
 11
104.8323713516
 21
179.1144856931
 31
0.0
  0
LINE
  5
374
330
A
100
AcDbEntity
  8
1
  6
CONTINUOUS
370
    50
100
AcDbLine
 10
104.8323713516
 20
179.1144856931
 30
0.0
 11
105.1693452628
 21
179.2439001972
 31
0.0
  0
LINE
  5
375
330
A
100
AcDbEntity
  8
1
  6
CONTINUOUS
370
    50
100
AcDbLine
 10
105.1693452628
 20
179.2439001972
 30
0.0
 11
105.5451349733
 21
179.2004384077
 31
0.0
  0
LINE
  5
376
330
A
100
AcDbEntity
  8
1
  6
CONTINUOUS
370
    50
100
AcDbLine
 10
105.5451349733
 20
179.2004384077
 30
0.0
 11
105.9263499182
 21
178.9879620951
 31
0.0
  0
LINE
  5
377
330
A
100
AcDbEntity
  8
1
  6
CONTINUOUS
370
    50
100
AcDbLine
 10
105.9263499182
 20
178.9879620951
 30
0.0
 11
106.2791174767
 21
178.6253507125
 31
0.0
  0
LINE
  5
378
330
A
100
AcDbEntity
  8
1
  6
CONTINUOUS
370
    50
100
AcDbLine
 10
106.2791174767
 20
178.6253507125
 30
0.0
 11
106.5720927032
 21
178.1448238723
 31
0.0
  0
LINE
  5
379
330
A
100
AcDbEntity
  8
1
  6
CONTINUOUS
370
    50
100
AcDbLine
 10
106.5720927032
 20
178.1448238723
 30
0.0
 11
106.7792434631
 21
177.5890784931
 31
0.0
  0
LINE
  5
37A
330
A
100
AcDbEntity
  8
1
  6
CONTINUOUS
370
    50
100
AcDbLine
 10
106.7792434631
 20
177.5890784931
 30
0.0
 11
106.8821635022
 21
177.0074949907
 31
0.0
  0
LINE
  5
37B
330
A
100
AcDbEntity
  8
1
  6
CONTINUOUS
370
    50
100
AcDbLine
 10
106.8821635022
 20
177.0074949907
 30
0.0
 11
106.8717079235
 21
176.4517496115
 31
0.0
  0
LINE
  5
37C
330
A
100
AcDbEntity
  8
1
  6
CONTINUOUS
370
    50
100
AcDbLine
 10
106.8717079235
 20
176.4517496115
 30
0.0
 11
106.7488057511
 21
175.9712227713
 31
0.0
  0
LINE
  5
37D
330
A
100
AcDbEntity
  8
1
  6
CONTINUOUS
370
    50
100
AcDbLine
 10
106.7488057511
 20
175.9712227713
 30
0.0
 11
106.5243773822
 21
175.6086113886
 31
0.0
  0
LINE
  5
37E
330
A
100
AcDbEntity
  8
1
  6
CONTINUOUS
370
    50
100
AcDbLine
 10
106.5243773822
 20
175.6086113886
 30
0.0
 11
106.2183642624
 21
175.3961350761
 31
0.0
  0
LINE
  5
37F
330
A
100
AcDbEntity
  8
1
  6
CONTINUOUS
370
    50
100
AcDbLine
 10
106.2183642624
 20
175.3961350761
 30
0.0
 11
105.8579570002
 21
175.3526732865
 31
0.0
  0
LINE
  5
380
330
A
100
AcDbEntity
  8
1
  6
CONTINUOUS
370
    50
100
AcDbLine
 10
105.8579570002
 20
175.3526732865
 30
0.0
 11
105.4751793625
 21
175.4820877906
 31
0.0
  0
LINE
  5
381
330
A
100
AcDbEntity
  8
1
  6
CONTINUOUS
370
    50
100
AcDbLine
 10
105.4751793625
 20
175.4820877906
 30
0.0
 11
105.1040428223
 21
175.7728795419
 31
0.0
  0
LINE
  5
382
330
A
100
AcDbEntity
  8
1
  6
CONTINUOUS
370
    50
100
AcDbLine
 10
105.1040428223
 20
175.7728795419
 30
0.0
 11
104.7775244898
 21
176.1992104169
 31
0.0
  0
LINE
  5
383
330
A
100
AcDbEntity
  8
1
  6
CONTINUOUS
370
    50
100
AcDbLine
 10
104.7775244898
 20
176.1992104169
 30
0.0
 11
104.5246369518
 21
176.7231990467
 31
0.0
  0
LINE
  5
384
330
A
100
AcDbEntity
  8
1
  6
CONTINUOUS
370
    50
100
AcDbLine
 10
104.5246369518
 20
176.7231990467
 30
0.0
 11
104.3678503758
 21
177.2982867419
 31
0.0
  0
LINE
  5
385
330
A
100
AcDbEntity
  8
1
  6
CONTINUOUS
370
    50
100
AcDbLine
 10
112.5420498148
 20
180.7619271423
 30
0.0
 11
112.4683658095
 21
180.2421990186
 31
0.0
  0
LINE
  5
386
330
A
100
AcDbEntity
  8
1
  6
CONTINUOUS
370
    50
100
AcDbLine
 10
112.4683658095
 20
180.2421990186
 30
0.0
 11
112.5088008187
 21
179.6686292651
 31
0.0
  0
LINE
  5
387
330
A
100
AcDbEntity
  8
1
  6
CONTINUOUS
370
    50
100
AcDbLine
 10
112.5088008187
 20
179.6686292651
 30
0.0
 11
112.6597620146
 21
179.0921820714
 31
0.0
  0
LINE
  5
388
330
A
100
AcDbEntity
  8
1
  6
CONTINUOUS
370
    50
100
AcDbLine
 10
112.6597620146
 20
179.0921820714
 30
0.0
 11
112.9078358322
 21
178.5640773004
 31
0.0
  0
LINE
  5
389
330
A
100
AcDbEntity
  8
1
  6
CONTINUOUS
370
    50
100
AcDbLine
 10
112.9078358322
 20
178.5640773004
 30
0.0
 11
113.2309798243
 21
178.1312393784
 31
0.0
  0
LINE
  5
38A
330
A
100
AcDbEntity
  8
1
  6
CONTINUOUS
370
    50
100
AcDbLine
 10
113.2309798243
 20
178.1312393784
 30
0.0
 11
113.6004812291
 21
177.8321278544
 31
0.0
  0
LINE
  5
38B
330
A
100
AcDbEntity
  8
1
  6
CONTINUOUS
370
    50
100
AcDbLine
 10
113.6004812291
 20
177.8321278544
 30
0.0
 11
113.9835082252
 21
177.6933200999
 31
0.0
  0
LINE
  5
38C
330
A
100
AcDbEntity
  8
1
  6
CONTINUOUS
370
    50
100
AcDbLine
 10
113.9835082252
 20
177.6933200999
 30
0.0
 11
114.3460271832
 21
177.727149793
 31
0.0
  0
LINE
  5
38D
330
A
100
AcDbEntity
  8
1
  6
CONTINUOUS
370
    50
100
AcDbLine
 10
114.3460271832
 20
177.727149793
 30
0.0
 11
114.6558267027
 21
177.930611017
 31
0.0
  0
LINE
  5
38E
330
A
100
AcDbEntity
  8
1
  6
CONTINUOUS
370
    50
100
AcDbLine
 10
114.6558267027
 20
177.930611017
 30
0.0
 11
114.8853797369
 21
178.2856253493
 31
0.0
  0
LINE
  5
38F
330
A
100
AcDbEntity
  8
1
  6
CONTINUOUS
370
    50
100
AcDbLine
 10
114.8853797369
 20
178.2856253493
 30
0.0
 11
115.0142894913
 21
178.7606482086
 31
0.0
  0
LINE
  5
390
330
A
100
AcDbEntity
  8
1
  6
CONTINUOUS
370
    50
100
AcDbLine
 10
115.0142894913
 20
178.7606482086
 30
0.0
 11
115.0311017686
 21
179.3134717291
 31
0.0
  0
LINE
  5
391
330
A
100
AcDbEntity
  8
1
  6
CONTINUOUS
370
    50
100
AcDbLine
 10
115.0311017686
 20
179.3134717291
 30
0.0
 11
114.9343227241
 21
179.8949751151
 31
0.0
  0
LINE
  5
392
330
A
100
AcDbEntity
  8
1
  6
CONTINUOUS
370
    50
100
AcDbLine
 10
114.9343227241
 20
179.8949751151
 30
0.0
 11
114.7325516006
 21
180.4534892388
 31
0.0
  0
LINE
  5
393
330
A
100
AcDbEntity
  8
1
  6
CONTINUOUS
370
    50
100
AcDbLine
 10
114.7325516006
 20
180.4534892388
 30
0.0
 11
114.443716648
 21
180.9393876693
 31
0.0
  0
LINE
  5
394
330
A
100
AcDbEntity
  8
1
  6
CONTINUOUS
370
    50
100
AcDbLine
 10
114.443716648
 20
180.9393876693
 30
0.0
 11
114.0934821192
 21
181.3094961988
 31
0.0
  0
LINE
  5
395
330
A
100
AcDbEntity
  8
1
  6
CONTINUOUS
370
    50
100
AcDbLine
 10
114.0934821192
 20
181.3094961988
 30
0.0
 11
113.7129678892
 21
181.5309290602
 31
0.0
  0
LINE
  5
396
330
A
100
AcDbEntity
  8
1
  6
CONTINUOUS
370
    50
100
AcDbLine
 10
113.7129678892
 20
181.5309290602
 30
0.0
 11
113.3359843171
 21
181.584010972
 31
0.0
  0
LINE
  5
397
330
A
100
AcDbEntity
  8
1
  6
CONTINUOUS
370
    50
100
AcDbLine
 10
113.3359843171
 20
181.584010972
 30
0.0
 11
112.9960280477
 21
181.4640253734
 31
0.0
  0
LINE
  5
398
330
A
100
AcDbEntity
  8
1
  6
CONTINUOUS
370
    50
100
AcDbLine
 10
112.9960280477
 20
181.4640253734
 30
0.0
 11
112.7233056874
 21
181.1816335114
 31
0.0
  0
LINE
  5
399
330
A
100
AcDbEntity
  8
1
  6
CONTINUOUS
370
    50
100
AcDbLine
 10
112.7233056874
 20
181.1816335114
 30
0.0
 11
112.5420498148
 21
180.7619271423
 31
0.0
  0
LINE
  5
39A
330
A
100
AcDbEntity
  8
1
  6
CONTINUOUS
370
    50
100
AcDbLine
 10
106.8521951861
 20
177.300485205
 30
0.0
 11
106.8989496248
 21
176.7253975098
 31
0.0
  0
LINE
  5
39B
330
A
100
AcDbEntity
  8
1
  6
CONTINUOUS
370
    50
100
AcDbLine
 10
106.8989496248
 20
176.7253975098
 30
0.0
 11
106.8315175891
 21
176.20140888
 31
0.0
  0
LINE
  5
39C
330
A
100
AcDbEntity
  8
1
  6
CONTINUOUS
370
    50
100
AcDbLine
 10
106.8315175891
 20
176.20140888
 30
0.0
 11
106.6558907113
 21
175.775078005
 31
0.0
  0
LINE
  5
39D
330
A
100
AcDbEntity
  8
1
  6
CONTINUOUS
370
    50
100
AcDbLine
 10
106.6558907113
 20
175.775078005
 30
0.0
 11
106.3876742102
 21
175.4842862538
 31
0.0
  0
LINE
  5
39E
330
A
100
AcDbEntity
  8
1
  6
CONTINUOUS
370
    50
100
AcDbLine
 10
106.3876742102
 20
175.4842862538
 30
0.0
 11
106.0507002991
 21
175.3548717496
 31
0.0
  0
LINE
  5
39F
330
A
100
AcDbEntity
  8
1
  6
CONTINUOUS
370
    50
100
AcDbLine
 10
106.0507002991
 20
175.3548717496
 30
0.0
 11
105.6749105886
 21
175.3983335392
 31
0.0
  0
LINE
  5
3A0
330
A
100
AcDbEntity
  8
1
  6
CONTINUOUS
370
    50
100
AcDbLine
 10
105.6749105886
 20
175.3983335392
 30
0.0
 11
105.2936956437
 21
175.6108098517
 31
0.0
  0
LINE
  5
3A1
330
A
100
AcDbEntity
  8
1
  6
CONTINUOUS
370
    50
100
AcDbLine
 10
105.2936956437
 20
175.6108098517
 30
0.0
 11
104.9409280851
 21
175.9734212344
 31
0.0
  0
LINE
  5
3A2
330
A
100
AcDbEntity
  8
1
  6
CONTINUOUS
370
    50
100
AcDbLine
 10
104.9409280851
 20
175.9734212344
 30
0.0
 11
104.6479528587
 21
176.4539480746
 31
0.0
  0
LINE
  5
3A3
330
A
100
AcDbEntity
  8
1
  6
CONTINUOUS
370
    50
100
AcDbLine
 10
104.6479528587
 20
176.4539480746
 30
0.0
 11
104.4408020988
 21
177.0096934538
 31
0.0
  0
LINE
  5
3A4
330
A
100
AcDbEntity
  8
1
  6
CONTINUOUS
370
    50
100
AcDbLine
 10
104.4408020988
 20
177.0096934538
 30
0.0
 11
104.3378820596
 21
177.5912769562
 31
0.0
  0
LINE
  5
3A5
330
A
100
AcDbEntity
  8
1
  6
CONTINUOUS
370
    50
100
AcDbLine
 10
104.3378820596
 20
177.5912769562
 30
0.0
 11
104.3483376383
 21
178.1470223354
 31
0.0
  0
LINE
  5
3A6
330
A
100
AcDbEntity
  8
1
  6
CONTINUOUS
370
    50
100
AcDbLine
 10
104.3483376383
 20
178.1470223354
 30
0.0
 11
104.4712398108
 21
178.6275491756
 31
0.0
  0
LINE
  5
3A7
330
A
100
AcDbEntity
  8
1
  6
CONTINUOUS
370
    50
100
AcDbLine
 10
104.4712398108
 20
178.6275491756
 30
0.0
 11
104.6956681797
 21
178.9901605582
 31
0.0
  0
LINE
  5
3A8
330
A
100
AcDbEntity
  8
1
  6
CONTINUOUS
370
    50
100
AcDbLine
 10
104.6956681797
 20
178.9901605582
 30
0.0
 11
105.0016812995
 21
179.2026368708
 31
0.0
  0
LINE
  5
3A9
330
A
100
AcDbEntity
  8
1
  6
CONTINUOUS
370
    50
100
AcDbLine
 10
105.0016812995
 20
179.2026368708
 30
0.0
 11
105.3620885617
 21
179.2460986603
 31
0.0
  0
LINE
  5
3AA
330
A
100
AcDbEntity
  8
1
  6
CONTINUOUS
370
    50
100
AcDbLine
 10
105.3620885617
 20
179.2460986603
 30
0.0
 11
105.7448661993
 21
179.1166841562
 31
0.0
  0
LINE
  5
3AB
330
A
100
AcDbEntity
  8
1
  6
CONTINUOUS
370
    50
100
AcDbLine
 10
105.7448661993
 20
179.1166841562
 30
0.0
 11
106.1160027396
 21
178.825892405
 31
0.0
  0
LINE
  5
3AC
330
A
100
AcDbEntity
  8
1
  6
CONTINUOUS
370
    50
100
AcDbLine
 10
106.1160027396
 20
178.825892405
 30
0.0
 11
106.4425210721
 21
178.3995615299
 31
0.0
  0
LINE
  5
3AD
330
A
100
AcDbEntity
  8
1
  6
CONTINUOUS
370
    50
100
AcDbLine
 10
106.4425210721
 20
178.3995615299
 30
0.0
 11
106.6954086101
 21
177.8755729002
 31
0.0
  0
LINE
  5
3AE
330
A
100
AcDbEntity
  8
1
  6
CONTINUOUS
370
    50
100
AcDbLine
 10
106.6954086101
 20
177.8755729002
 30
0.0
 11
106.8521951861
 21
177.300485205
 31
0.0
  0
LINE
  5
3AF
330
A
100
AcDbEntity
  8
1
  6
CONTINUOUS
370
    50
100
AcDbLine
 10
104.3678503758
 20
164.8749725381
 30
0.0
 11
104.3210959371
 21
164.2998848429
 31
0.0
  0
LINE
  5
3B0
330
A
100
AcDbEntity
  8
1
  6
CONTINUOUS
370
    50
100
AcDbLine
 10
104.3210959371
 20
164.2998848429
 30
0.0
 11
104.3885279728
 21
163.7758962131
 31
0.0
  0
LINE
  5
3B1
330
A
100
AcDbEntity
  8
1
  6
CONTINUOUS
370
    50
100
AcDbLine
 10
104.3885279728
 20
163.7758962131
 30
0.0
 11
104.5641548505
 21
163.3495653381
 31
0.0
  0
LINE
  5
3B2
330
A
100
AcDbEntity
  8
1
  6
CONTINUOUS
370
    50
100
AcDbLine
 10
104.5641548505
 20
163.3495653381
 30
0.0
 11
104.8323713516
 21
163.0587735869
 31
0.0
  0
LINE
  5
3B3
330
A
100
AcDbEntity
  8
1
  6
CONTINUOUS
370
    50
100
AcDbLine
 10
104.8323713516
 20
163.0587735869
 30
0.0
 11
105.1693452628
 21
162.9293590827
 31
0.0
  0
LINE
  5
3B4
330
A
100
AcDbEntity
  8
1
  6
CONTINUOUS
370
    50
100
AcDbLine
 10
105.1693452628
 20
162.9293590827
 30
0.0
 11
105.5451349733
 21
162.9728208723
 31
0.0
  0
LINE
  5
3B5
330
A
100
AcDbEntity
  8
1
  6
CONTINUOUS
370
    50
100
AcDbLine
 10
105.5451349733
 20
162.9728208723
 30
0.0
 11
105.9263499182
 21
163.1852971848
 31
0.0
  0
LINE
  5
3B6
330
A
100
AcDbEntity
  8
1
  6
CONTINUOUS
370
    50
100
AcDbLine
 10
105.9263499182
 20
163.1852971848
 30
0.0
 11
106.2791174767
 21
163.5479085675
 31
0.0
  0
LINE
  5
3B7
330
A
100
AcDbEntity
  8
1
  6
CONTINUOUS
370
    50
100
AcDbLine
 10
106.2791174767
 20
163.5479085675
 30
0.0
 11
106.5720927032
 21
164.0284354077
 31
0.0
  0
LINE
  5
3B8
330
A
100
AcDbEntity
  8
1
  6
CONTINUOUS
370
    50
100
AcDbLine
 10
106.5720927032
 20
164.0284354077
 30
0.0
 11
106.7792434631
 21
164.5841807869
 31
0.0
  0
LINE
  5
3B9
330
A
100
AcDbEntity
  8
1
  6
CONTINUOUS
370
    50
100
AcDbLine
 10
106.7792434631
 20
164.5841807869
 30
0.0
 11
106.8821635022
 21
165.1657642893
 31
0.0
  0
LINE
  5
3BA
330
A
100
AcDbEntity
  8
1
  6
CONTINUOUS
370
    50
100
AcDbLine
 10
106.8821635022
 20
165.1657642893
 30
0.0
 11
106.8717079235
 21
165.7215096685
 31
0.0
  0
LINE
  5
3BB
330
A
100
AcDbEntity
  8
1
  6
CONTINUOUS
370
    50
100
AcDbLine
 10
106.8717079235
 20
165.7215096685
 30
0.0
 11
106.7488057511
 21
166.2020365087
 31
0.0
  0
LINE
  5
3BC
330
A
100
AcDbEntity
  8
1
  6
CONTINUOUS
370
    50
100
AcDbLine
 10
106.7488057511
 20
166.2020365087
 30
0.0
 11
106.5243773822
 21
166.5646478913
 31
0.0
  0
LINE
  5
3BD
330
A
100
AcDbEntity
  8
1
  6
CONTINUOUS
370
    50
100
AcDbLine
 10
106.5243773822
 20
166.5646478913
 30
0.0
 11
106.2183642624
 21
166.7771242039
 31
0.0
  0
LINE
  5
3BE
330
A
100
AcDbEntity
  8
1
  6
CONTINUOUS
370
    50
100
AcDbLine
 10
106.2183642624
 20
166.7771242039
 30
0.0
 11
105.8579570002
 21
166.8205859934
 31
0.0
  0
LINE
  5
3BF
330
A
100
AcDbEntity
  8
1
  6
CONTINUOUS
370
    50
100
AcDbLine
 10
105.8579570002
 20
166.8205859934
 30
0.0
 11
105.4751793625
 21
166.6911714893
 31
0.0
  0
LINE
  5
3C0
330
A
100
AcDbEntity
  8
1
  6
CONTINUOUS
370
    50
100
AcDbLine
 10
105.4751793625
 20
166.6911714893
 30
0.0
 11
105.1040428223
 21
166.4003797381
 31
0.0
  0
LINE
  5
3C1
330
A
100
AcDbEntity
  8
1
  6
CONTINUOUS
370
    50
100
AcDbLine
 10
105.1040428223
 20
166.4003797381
 30
0.0
 11
104.7775244898
 21
165.974048863
 31
0.0
  0
LINE
  5
3C2
330
A
100
AcDbEntity
  8
1
  6
CONTINUOUS
370
    50
100
AcDbLine
 10
104.7775244898
 20
165.974048863
 30
0.0
 11
104.5246369518
 21
165.4500602333
 31
0.0
  0
LINE
  5
3C3
330
A
100
AcDbEntity
  8
1
  6
CONTINUOUS
370
    50
100
AcDbLine
 10
104.5246369518
 20
165.4500602333
 30
0.0
 11
104.3678503758
 21
164.8749725381
 31
0.0
  0
LINE
  5
3C4
330
A
100
AcDbEntity
  8
1
  6
CONTINUOUS
370
    50
100
AcDbLine
 10
112.5420498148
 20
161.4113321377
 30
0.0
 11
112.4683658095
 21
161.9310602613
 31
0.0
  0
LINE
  5
3C5
330
A
100
AcDbEntity
  8
1
  6
CONTINUOUS
370
    50
100
AcDbLine
 10
112.4683658095
 20
161.9310602613
 30
0.0
 11
112.5088008187
 21
162.5046300148
 31
0.0
  0
LINE
  5
3C6
330
A
100
AcDbEntity
  8
1
  6
CONTINUOUS
370
    50
100
AcDbLine
 10
112.5088008187
 20
162.5046300148
 30
0.0
 11
112.6597620146
 21
163.0810772085
 31
0.0
  0
LINE
  5
3C7
330
A
100
AcDbEntity
  8
1
  6
CONTINUOUS
370
    50
100
AcDbLine
 10
112.6597620146
 20
163.0810772085
 30
0.0
 11
112.9078358322
 21
163.6091819796
 31
0.0
  0
LINE
  5
3C8
330
A
100
AcDbEntity
  8
1
  6
CONTINUOUS
370
    50
100
AcDbLine
 10
112.9078358322
 20
163.6091819796
 30
0.0
 11
113.2309798243
 21
164.0420199016
 31
0.0
  0
LINE
  5
3C9
330
A
100
AcDbEntity
  8
1
  6
CONTINUOUS
370
    50
100
AcDbLine
 10
113.2309798243
 20
164.0420199016
 30
0.0
 11
113.6004812291
 21
164.3411314256
 31
0.0
  0
LINE
  5
3CA
330
A
100
AcDbEntity
  8
1
  6
CONTINUOUS
370
    50
100
AcDbLine
 10
113.6004812291
 20
164.3411314256
 30
0.0
 11
113.9835082252
 21
164.4799391801
 31
0.0
  0
LINE
  5
3CB
330
A
100
AcDbEntity
  8
1
  6
CONTINUOUS
370
    50
100
AcDbLine
 10
113.9835082252
 20
164.4799391801
 30
0.0
 11
114.3460271832
 21
164.446109487
 31
0.0
  0
LINE
  5
3CC
330
A
100
AcDbEntity
  8
1
  6
CONTINUOUS
370
    50
100
AcDbLine
 10
114.3460271832
 20
164.446109487
 30
0.0
 11
114.6558267027
 21
164.2426482629
 31
0.0
  0
LINE
  5
3CD
330
A
100
AcDbEntity
  8
1
  6
CONTINUOUS
370
    50
100
AcDbLine
 10
114.6558267027
 20
164.2426482629
 30
0.0
 11
114.8853797369
 21
163.8876339306
 31
0.0
  0
LINE
  5
3CE
330
A
100
AcDbEntity
  8
1
  6
CONTINUOUS
370
    50
100
AcDbLine
 10
114.8853797369
 20
163.8876339306
 30
0.0
 11
115.0142894913
 21
163.4126110713
 31
0.0
  0
LINE
  5
3CF
330
A
100
AcDbEntity
  8
1
  6
CONTINUOUS
370
    50
100
AcDbLine
 10
115.0142894913
 20
163.4126110713
 30
0.0
 11
115.0311017686
 21
162.8597875508
 31
0.0
  0
LINE
  5
3D0
330
A
100
AcDbEntity
  8
1
  6
CONTINUOUS
370
    50
100
AcDbLine
 10
115.0311017686
 20
162.8597875508
 30
0.0
 11
114.9343227241
 21
162.2782841648
 31
0.0
  0
LINE
  5
3D1
330
A
100
AcDbEntity
  8
1
  6
CONTINUOUS
370
    50
100
AcDbLine
 10
114.9343227241
 20
162.2782841648
 30
0.0
 11
114.7325516006
 21
161.7197700411
 31
0.0
  0
LINE
  5
3D2
330
A
100
AcDbEntity
  8
1
  6
CONTINUOUS
370
    50
100
AcDbLine
 10
114.7325516006
 20
161.7197700411
 30
0.0
 11
114.443716648
 21
161.2338716106
 31
0.0
  0
LINE
  5
3D3
330
A
100
AcDbEntity
  8
1
  6
CONTINUOUS
370
    50
100
AcDbLine
 10
114.443716648
 20
161.2338716106
 30
0.0
 11
114.0934821192
 21
160.8637630812
 31
0.0
  0
LINE
  5
3D4
330
A
100
AcDbEntity
  8
1
  6
CONTINUOUS
370
    50
100
AcDbLine
 10
114.0934821192
 20
160.8637630812
 30
0.0
 11
113.7129678892
 21
160.6423302198
 31
0.0
  0
LINE
  5
3D5
330
A
100
AcDbEntity
  8
1
  6
CONTINUOUS
370
    50
100
AcDbLine
 10
113.7129678892
 20
160.6423302198
 30
0.0
 11
113.3359843171
 21
160.589248308
 31
0.0
  0
LINE
  5
3D6
330
A
100
AcDbEntity
  8
1
  6
CONTINUOUS
370
    50
100
AcDbLine
 10
113.3359843171
 20
160.589248308
 30
0.0
 11
112.9960280477
 21
160.7092339066
 31
0.0
  0
LINE
  5
3D7
330
A
100
AcDbEntity
  8
1
  6
CONTINUOUS
370
    50
100
AcDbLine
 10
112.9960280477
 20
160.7092339066
 30
0.0
 11
112.7233056874
 21
160.9916257685
 31
0.0
  0
LINE
  5
3D8
330
A
100
AcDbEntity
  8
1
  6
CONTINUOUS
370
    50
100
AcDbLine
 10
112.7233056874
 20
160.9916257685
 30
0.0
 11
112.5420498148
 21
161.4113321377
 31
0.0
  0
LINE
  5
3D9
330
A
100
AcDbEntity
  8
1
  6
CONTINUOUS
370
    50
100
AcDbLine
 10
104.3755108202
 20
164.872774075
 30
0.0
 11
104.3287563815
 21
164.2976863798
 31
0.0
  0
LINE
  5
3DA
330
A
100
AcDbEntity
  8
1
  6
CONTINUOUS
370
    50
100
AcDbLine
 10
104.3287563815
 20
164.2976863798
 30
0.0
 11
104.3961884172
 21
163.77369775
 31
0.0
  0
LINE
  5
3DB
330
A
100
AcDbEntity
  8
1
  6
CONTINUOUS
370
    50
100
AcDbLine
 10
104.3961884172
 20
163.77369775
 30
0.0
 11
104.571815295
 21
163.347366875
 31
0.0
  0
LINE
  5
3DC
330
A
100
AcDbEntity
  8
1
  6
CONTINUOUS
370
    50
100
AcDbLine
 10
104.571815295
 20
163.347366875
 30
0.0
 11
104.840031796
 21
163.0565751238
 31
0.0
  0
LINE
  5
3DD
330
A
100
AcDbEntity
  8
1
  6
CONTINUOUS
370
    50
100
AcDbLine
 10
104.840031796
 20
163.0565751238
 30
0.0
 11
105.1770057072
 21
162.9271606196
 31
0.0
  0
LINE
  5
3DE
330
A
100
AcDbEntity
  8
1
  6
CONTINUOUS
370
    50
100
AcDbLine
 10
105.1770057072
 20
162.9271606196
 30
0.0
 11
105.5527954177
 21
162.9706224092
 31
0.0
  0
LINE
  5
3DF
330
A
100
AcDbEntity
  8
1
  6
CONTINUOUS
370
    50
100
AcDbLine
 10
105.5527954177
 20
162.9706224092
 30
0.0
 11
105.9340103626
 21
163.1830987217
 31
0.0
  0
LINE
  5
3E0
330
A
100
AcDbEntity
  8
1
  6
CONTINUOUS
370
    50
100
AcDbLine
 10
105.9340103626
 20
163.1830987217
 30
0.0
 11
106.2867779211
 21
163.5457101044
 31
0.0
  0
LINE
  5
3E1
330
A
100
AcDbEntity
  8
1
  6
CONTINUOUS
370
    50
100
AcDbLine
 10
106.2867779211
 20
163.5457101044
 30
0.0
 11
106.5797531476
 21
164.0262369446
 31
0.0
  0
LINE
  5
3E2
330
A
100
AcDbEntity
  8
1
  6
CONTINUOUS
370
    50
100
AcDbLine
 10
106.5797531476
 20
164.0262369446
 30
0.0
 11
106.7869039075
 21
164.5819823238
 31
0.0
  0
LINE
  5
3E3
330
A
100
AcDbEntity
  8
1
  6
CONTINUOUS
370
    50
100
AcDbLine
 10
106.7869039075
 20
164.5819823238
 30
0.0
 11
106.8898239466
 21
165.1635658262
 31
0.0
  0
LINE
  5
3E4
330
A
100
AcDbEntity
  8
1
  6
CONTINUOUS
370
    50
100
AcDbLine
 10
106.8898239466
 20
165.1635658262
 30
0.0
 11
106.879368368
 21
165.7193112054
 31
0.0
  0
LINE
  5
3E5
330
A
100
AcDbEntity
  8
1
  6
CONTINUOUS
370
    50
100
AcDbLine
 10
106.879368368
 20
165.7193112054
 30
0.0
 11
106.7564661955
 21
166.1998380456
 31
0.0
  0
LINE
  5
3E6
330
A
100
AcDbEntity
  8
1
  6
CONTINUOUS
370
    50
100
AcDbLine
 10
106.7564661955
 20
166.1998380456
 30
0.0
 11
106.5320378266
 21
166.5624494282
 31
0.0
  0
LINE
  5
3E7
330
A
100
AcDbEntity
  8
1
  6
CONTINUOUS
370
    50
100
AcDbLine
 10
106.5320378266
 20
166.5624494282
 30
0.0
 11
106.2260247068
 21
166.7749257408
 31
0.0
  0
LINE
  5
3E8
330
A
100
AcDbEntity
  8
1
  6
CONTINUOUS
370
    50
100
AcDbLine
 10
106.2260247068
 20
166.7749257408
 30
0.0
 11
105.8656174446
 21
166.8183875303
 31
0.0
  0
LINE
  5
3E9
330
A
100
AcDbEntity
  8
1
  6
CONTINUOUS
370
    50
100
AcDbLine
 10
105.8656174446
 20
166.8183875303
 30
0.0
 11
105.482839807
 21
166.6889730262
 31
0.0
  0
LINE
  5
3EA
330
A
100
AcDbEntity
  8
1
  6
CONTINUOUS
370
    50
100
AcDbLine
 10
105.482839807
 20
166.6889730262
 30
0.0
 11
105.1117032667
 21
166.398181275
 31
0.0
  0
LINE
  5
3EB
330
A
100
AcDbEntity
  8
1
  6
CONTINUOUS
370
    50
100
AcDbLine
 10
105.1117032667
 20
166.398181275
 30
0.0
 11
104.7851849342
 21
165.9718503999
 31
0.0
  0
LINE
  5
3EC
330
A
100
AcDbEntity
  8
1
  6
CONTINUOUS
370
    50
100
AcDbLine
 10
104.7851849342
 20
165.9718503999
 30
0.0
 11
104.5322973962
 21
165.4478617702
 31
0.0
  0
LINE
  5
3ED
330
A
100
AcDbEntity
  8
1
  6
CONTINUOUS
370
    50
100
AcDbLine
 10
104.5322973962
 20
165.4478617702
 30
0.0
 11
104.3755108202
 21
164.872774075
 31
0.0
  0
LINE
  5
3EE
330
A
100
AcDbEntity
  8
1
  6
CONTINUOUS
370
    50
100
AcDbLine
 10
62.7493036516
 20
179.08662964
 30
0.0
 11
37.7145813266
 21
179.08662964
 31
0.0
  0
LINE
  5
3EF
330
A
100
AcDbEntity
  8
1
  6
CONTINUOUS
370
    50
100
AcDbLine
 10
37.7145813266
 20
163.08662964
 30
0.0
 11
62.7493036516
 21
163.08662964
 31
0.0
  0
LINE
  5
3F0
330
A
100
AcDbEntity
  8
1
  6
CONTINUOUS
370
    50
100
AcDbLine
 10
62.7493036516
 20
179.08662964
 30
0.0
 11
62.7493036516
 21
179.0642600174
 31
0.0
  0
LINE
  5
3F1
330
A
100
AcDbEntity
  8
1
  6
CONTINUOUS
370
    50
100
AcDbLine
 10
62.7493036516
 20
179.0642600174
 30
0.0
 11
62.7493036516
 21
163.08662964
 31
0.0
  0
LINE
  5
3F2
330
A
100
AcDbEntity
  8
1
  6
CONTINUOUS
370
    50
100
AcDbLine
 10
62.7493036516
 20
178.16162964
 30
0.0
 11
62.7493036516
 21
178.0745246497
 31
0.0
  0
LINE
  5
3F3
330
A
100
AcDbEntity
  8
1
  6
CONTINUOUS
370
    50
100
AcDbLine
 10
62.7493036516
 20
178.0745246497
 30
0.0
 11
62.7493036516
 21
171.08662964
 31
0.0
  0
LINE
  5
3F4
330
A
100
AcDbEntity
  8
1
  6
CONTINUOUS
370
    50
100
AcDbLine
 10
130.0893036516
 20
176.08662964
 30
0.0
 11
109.2971130813
 21
176.08662964
 31
0.0
  0
LINE
  5
3F5
330
A
100
AcDbEntity
  8
1
  6
CONTINUOUS
370
    50
100
AcDbLine
 10
109.2971130813
 20
166.08662964
 30
0.0
 11
130.0893036516
 21
166.08662964
 31
0.0
  0
ENDSEC
  0
SECTION
  2
OBJECTS
  0
DICTIONARY
  5
19
330
0
100
AcDbDictionary
281
     1
  3
ACAD_GROUP
350
1A
  3
ACAD_LAYOUT
350
41A
  3
ACAD_MATERIAL
350
42E
  3
ACAD_MLEADERSTYLE
350
436
  3
ACAD_MLINESTYLE
350
1B
  3
ACAD_SCALELIST
350
3F8
  3
ACAD_VISUALSTYLE
350
41D
  3
ACDB_RECOMPOSE_DATA
350
463
  3
AcDbVariableDictionary
350
434
  0
DICTIONARY
  5
43A
330
7
100
AcDbDictionary
280
     1
281
     1
  3
ACAD_XREC_ROUNDTRIP
360
43B
  0
DICTIONARY
  5
1A
102
{ACAD_REACTORS
330
19
102
}
330
19
100
AcDbDictionary
281
     1
  0
DICTIONARY
  5
41A
102
{ACAD_REACTORS
330
19
102
}
330
19
100
AcDbDictionary
281
     1
  3
Layout1
350
41C
  3
Model
350
41B
  0
DICTIONARY
  5
42E
102
{ACAD_REACTORS
330
19
102
}
330
19
100
AcDbDictionary
281
     1
  3
ByBlock
350
430
  3
ByLayer
350
42F
  3
Global
350
431
  0
DICTIONARY
  5
436
102
{ACAD_REACTORS
330
19
102
}
330
19
100
AcDbDictionary
281
     1
  0
DICTIONARY
  5
1B
102
{ACAD_REACTORS
330
19
102
}
330
19
100
AcDbDictionary
281
     1
  3
STANDARD
350
1C
  0
DICTIONARY
  5
3F8
102
{ACAD_REACTORS
330
19
102
}
330
19
100
AcDbDictionary
281
     1
  3
A0
350
3F9
  3
A1
350
3FA
  3
A2
350
3FB
  3
A3
350
3FC
  3
A4
350
3FD
  3
A5
350
3FE
  3
A6
350
3FF
  3
A7
350
400
  3
A8
350
401
  3
A9
350
402
  3
B0
350
403
  3
B1
350
404
  3
B2
350
405
  3
B3
350
406
  3
B4
350
407
  3
B5
350
408
  3
B6
350
409
  3
B7
350
40A
  3
B8
350
40B
  3
B9
350
40C
  3
C0
350
40D
  3
C1
350
40E
  3
C2
350
40F
  3
C3
350
410
  3
C4
350
411
  3
C5
350
412
  3
C6
350
413
  3
C7
350
414
  3
C8
350
415
  3
C9
350
416
  3
D0
350
417
  3
D1
350
418
  3
D2
350
419
  0
DICTIONARY
  5
41D
102
{ACAD_REACTORS
330
19
102
}
330
19
100
AcDbDictionary
281
     1
  3
2dWireframe
350
422
  3
3D Hidden
350
424
  3
3dWireframe
350
423
  3
Basic
350
425
  3
Brighten
350
429
  3
ColorChange
350
42D
  3
Conceptual
350
427
  3
Dim
350
428
  3
Facepattern
350
42C
  3
Flat
350
41E
  3
FlatWithEdges
350
41F
  3
Gouraud
350
420
  3
GouraudWithEdges
350
421
  3
Linepattern
350
42B
  3
Realistic
350
426
  3
Thicken
350
42A
  0
XRECORD
  5
463
102
{ACAD_REACTORS
330
19
102
}
330
19
100
AcDbXrecord
280
     1
  0
DICTIONARY
  5
434
102
{ACAD_REACTORS
330
19
102
}
330
19
100
AcDbDictionary
281
     1
  3
CANNOSCALE
350
43C
  3
DIMASSOC
350
438
  3
HIDETEXT
350
439
  3
MSLTSCALE
350
437
  0
XRECORD
  5
43B
102
{ACAD_REACTORS
330
43A
102
}
330
43A
100
AcDbXrecord
280
     1
102
VTR_0.000_0.000_1.000_1.000_VISUALSTYLE
340
422
102
VTR_0.000_0.000_1.000_1.000_GRIDDISPLAY
 70
     3
102
VTR_0.000_0.000_1.000_1.000_GRIDMAJOR
 70
     5
102
VTR_0.000_0.000_1.000_1.000_DEFAULTLIGHTING
280
     1
102
VTR_0.000_0.000_1.000_1.000_DEFAULTLIGHTINGTYPE
 70
     1
102
VTR_0.000_0.000_1.000_1.000_BRIGHTNESS
141
0.0
102
VTR_0.000_0.000_1.000_1.000_CONTRAST
142
0.0
  0
LAYOUT
  5
41C
102
{ACAD_REACTORS
330
41A
102
}
330
41A
100
AcDbPlotSettings
  1

  2
none_device
  4

  6

 40
0.0
 41
0.0
 42
0.0
 43
0.0
 44
0.0
 45
0.0
 46
0.0
 47
0.0
 48
0.0
 49
0.0
140
0.0
141
0.0
142
1.0
143
1.0
 70
   688
 72
     0
 73
     0
 74
     5
  7

 75
    16
147
1.0
148
0.0
149
0.0
100
AcDbLayout
  1
Layout1
 70
     1
 71
     1
 10
0.0
 20
0.0
 11
12.0
 21
9.0
 12
0.0
 22
0.0
 32
0.0
 14
1.000000000000000E+20
 24
1.000000000000000E+20
 34
1.000000000000000E+20
 15
-1.000000000000000E+20
 25
-1.000000000000000E+20
 35
-1.000000000000000E+20
146
0.0
 13
0.0
 23
0.0
 33
0.0
 16
1.0
 26
0.0
 36
0.0
 17
0.0
 27
1.0
 37
0.0
 76
     0
330
B
  0
LAYOUT
  5
41B
102
{ACAD_REACTORS
330
41A
102
}
330
41A
100
AcDbPlotSettings
  1

  2
none_device
  4

  6

 40
0.0
 41
0.0
 42
0.0
 43
0.0
 44
0.0
 45
0.0
 46
0.0
 47
0.0
 48
0.0
 49
0.0
140
0.0
141
0.0
142
1.0
143
1.0
 70
  1712
 72
     0
 73
     0
 74
     0
  7

 75
     0
147
1.0
148
2667.54428576817
149
0.0
100
AcDbLayout
  1
Model
 70
     1
 71
     0
 10
0.0
 20
0.0
 11
0.0
 21
0.0
 12
0.0
 22
0.0
 32
0.0
 14
0.0
 24
0.0
 34
0.0
 15
210.0
 25
297.0
 35
0.0
146
0.0
 13
0.0
 23
0.0
 33
0.0
 16
1.0
 26
0.0
 36
0.0
 17
0.0
 27
1.0
 37
0.0
 76
     0
330
A
331
15
  0
MATERIAL
  5
430
102
{ACAD_REACTORS
330
42E
102
}
102
{ACAD_XDICTIONARY
360
45F
102
}
330
42E
100
AcDbMaterial
  1
ByBlock
  0
MATERIAL
  5
42F
102
{ACAD_REACTORS
330
42E
102
}
102
{ACAD_XDICTIONARY
360
45D
102
}
330
42E
100
AcDbMaterial
  1
ByLayer
  0
MATERIAL
  5
431
102
{ACAD_REACTORS
330
42E
102
}
102
{ACAD_XDICTIONARY
360
461
102
}
330
42E
100
AcDbMaterial
  1
Global
  0
MLINESTYLE
  5
1C
102
{ACAD_REACTORS
330
1B
102
}
330
1B
100
AcDbMlineStyle
  2
STANDARD
 70
     0
  3

 62
     0
 51
90.0
 52
90.0
 71
     2
 49
0.5
 62
   256
  6
BYLAYER
 49
-0.5
 62
   256
  6
BYLAYER
  0
SCALE
  5
3F9
102
{ACAD_REACTORS
330
3F8
102
}
330
3F8
100
AcDbScale
 70
     0
300
1:1
140
1.0
141
1.0
290
     1
  0
SCALE
  5
3FA
102
{ACAD_REACTORS
330
3F8
102
}
330
3F8
100
AcDbScale
 70
     0
300
1:2
140
1.0
141
2.0
290
     0
  0
SCALE
  5
3FB
102
{ACAD_REACTORS
330
3F8
102
}
330
3F8
100
AcDbScale
 70
     0
300
1:4
140
1.0
141
4.0
290
     0
  0
SCALE
  5
3FC
102
{ACAD_REACTORS
330
3F8
102
}
330
3F8
100
AcDbScale
 70
     0
300
1:5
140
1.0
141
5.0
290
     0
  0
SCALE
  5
3FD
102
{ACAD_REACTORS
330
3F8
102
}
330
3F8
100
AcDbScale
 70
     0
300
1:8
140
1.0
141
8.0
290
     0
  0
SCALE
  5
3FE
102
{ACAD_REACTORS
330
3F8
102
}
330
3F8
100
AcDbScale
 70
     0
300
1:10
140
1.0
141
10.0
290
     0
  0
SCALE
  5
3FF
102
{ACAD_REACTORS
330
3F8
102
}
330
3F8
100
AcDbScale
 70
     0
300
1:16
140
1.0
141
16.0
290
     0
  0
SCALE
  5
400
102
{ACAD_REACTORS
330
3F8
102
}
330
3F8
100
AcDbScale
 70
     0
300
1:20
140
1.0
141
20.0
290
     0
  0
SCALE
  5
401
102
{ACAD_REACTORS
330
3F8
102
}
330
3F8
100
AcDbScale
 70
     0
300
1:30
140
1.0
141
30.0
290
     0
  0
SCALE
  5
402
102
{ACAD_REACTORS
330
3F8
102
}
330
3F8
100
AcDbScale
 70
     0
300
1:40
140
1.0
141
40.0
290
     0
  0
SCALE
  5
403
102
{ACAD_REACTORS
330
3F8
102
}
330
3F8
100
AcDbScale
 70
     0
300
1:50
140
1.0
141
50.0
290
     0
  0
SCALE
  5
404
102
{ACAD_REACTORS
330
3F8
102
}
330
3F8
100
AcDbScale
 70
     0
300
1:100
140
1.0
141
100.0
290
     0
  0
SCALE
  5
405
102
{ACAD_REACTORS
330
3F8
102
}
330
3F8
100
AcDbScale
 70
     0
300
2:1
140
2.0
141
1.0
290
     0
  0
SCALE
  5
406
102
{ACAD_REACTORS
330
3F8
102
}
330
3F8
100
AcDbScale
 70
     0
300
4:1
140
4.0
141
1.0
290
     0
  0
SCALE
  5
407
102
{ACAD_REACTORS
330
3F8
102
}
330
3F8
100
AcDbScale
 70
     0
300
8:1
140
8.0
141
1.0
290
     0
  0
SCALE
  5
408
102
{ACAD_REACTORS
330
3F8
102
}
330
3F8
100
AcDbScale
 70
     0
300
10:1
140
10.0
141
1.0
290
     0
  0
SCALE
  5
409
102
{ACAD_REACTORS
330
3F8
102
}
330
3F8
100
AcDbScale
 70
     0
300
100:1
140
100.0
141
1.0
290
     0
  0
SCALE
  5
40A
102
{ACAD_REACTORS
330
3F8
102
}
330
3F8
100
AcDbScale
 70
     0
300
1/128" = 1'-0"
140
0.0078125
141
12.0
290
     0
  0
SCALE
  5
40B
102
{ACAD_REACTORS
330
3F8
102
}
330
3F8
100
AcDbScale
 70
     0
300
1/64" = 1'-0"
140
0.015625
141
12.0
290
     0
  0
SCALE
  5
40C
102
{ACAD_REACTORS
330
3F8
102
}
330
3F8
100
AcDbScale
 70
     0
300
1/32" = 1'-0"
140
0.03125
141
12.0
290
     0
  0
SCALE
  5
40D
102
{ACAD_REACTORS
330
3F8
102
}
330
3F8
100
AcDbScale
 70
     0
300
1/16" = 1'-0"
140
0.0625
141
12.0
290
     0
  0
SCALE
  5
40E
102
{ACAD_REACTORS
330
3F8
102
}
330
3F8
100
AcDbScale
 70
     0
300
3/32" = 1'-0"
140
0.09375
141
12.0
290
     0
  0
SCALE
  5
40F
102
{ACAD_REACTORS
330
3F8
102
}
330
3F8
100
AcDbScale
 70
     0
300
1/8" = 1'-0"
140
0.125
141
12.0
290
     0
  0
SCALE
  5
410
102
{ACAD_REACTORS
330
3F8
102
}
330
3F8
100
AcDbScale
 70
     0
300
3/16" = 1'-0"
140
0.1875
141
12.0
290
     0
  0
SCALE
  5
411
102
{ACAD_REACTORS
330
3F8
102
}
330
3F8
100
AcDbScale
 70
     0
300
1/4" = 1'-0"
140
0.25
141
12.0
290
     0
  0
SCALE
  5
412
102
{ACAD_REACTORS
330
3F8
102
}
330
3F8
100
AcDbScale
 70
     0
300
3/8" = 1'-0"
140
0.375
141
12.0
290
     0
  0
SCALE
  5
413
102
{ACAD_REACTORS
330
3F8
102
}
330
3F8
100
AcDbScale
 70
     0
300
1/2" = 1'-0"
140
0.5
141
12.0
290
     0
  0
SCALE
  5
414
102
{ACAD_REACTORS
330
3F8
102
}
330
3F8
100
AcDbScale
 70
     0
300
3/4" = 1'-0"
140
0.75
141
12.0
290
     0
  0
SCALE
  5
415
102
{ACAD_REACTORS
330
3F8
102
}
330
3F8
100
AcDbScale
 70
     0
300
1" = 1'-0"
140
1.0
141
12.0
290
     0
  0
SCALE
  5
416
102
{ACAD_REACTORS
330
3F8
102
}
330
3F8
100
AcDbScale
 70
     0
300
1-1/2" = 1'-0"
140
1.5
141
12.0
290
     0
  0
SCALE
  5
417
102
{ACAD_REACTORS
330
3F8
102
}
330
3F8
100
AcDbScale
 70
     0
300
3" = 1'-0"
140
3.0
141
12.0
290
     0
  0
SCALE
  5
418
102
{ACAD_REACTORS
330
3F8
102
}
330
3F8
100
AcDbScale
 70
     0
300
6" = 1'-0"
140
6.0
141
12.0
290
     0
  0
SCALE
  5
419
102
{ACAD_REACTORS
330
3F8
102
}
330
3F8
100
AcDbScale
 70
     0
300
1'-0" = 1'-0"
140
12.0
141
12.0
290
     0
  0
VISUALSTYLE
  5
422
102
{ACAD_REACTORS
330
41D
102
}
102
{ACAD_XDICTIONARY
360
445
102
}
330
41D
100
AcDbVisualStyle
  2
2dWireframe
 70
     4
 71
     0
 72
     2
 73
     0
 90
        0
 40
-0.6
 41
-30.0
 62
     5
 63
     7
 74
     1
 91
        4
 64
     7
 65
   257
 75
     1
175
     1
 42
1.0
 92
        0
 66
   257
 43
1.0
 76
     1
 77
     6
 78
     2
 67
     7
 79
     5
170
     0
171
     0
290
     0
174
     0
 93
        1
 44
0.0
173
     0
291
     0
 45
0.0
1001
ACAD
1000
AcDbSavedByObjectVersion
1070
     0
  0
VISUALSTYLE
  5
424
102
{ACAD_REACTORS
330
41D
102
}
102
{ACAD_XDICTIONARY
360
449
102
}
330
41D
100
AcDbVisualStyle
  2
3D Hidden
 70
     6
 71
     1
 72
     2
 73
     2
 90
        0
 40
-0.6
 41
-30.0
 62
     5
 63
     7
 74
     2
 91
        2
 64
     7
 65
   257
 75
     2
175
     1
 42
40.0
 92
        0
 66
   257
 43
1.0
 76
     1
 77
     6
 78
     2
 67
     7
 79
     3
170
     0
171
     0
290
     0
174
     0
 93
        1
 44
0.0
173
     0
291
     0
 45
0.0
1001
ACAD
1000
AcDbSavedByObjectVersion
1070
     0
  0
VISUALSTYLE
  5
423
102
{ACAD_REACTORS
330
41D
102
}
102
{ACAD_XDICTIONARY
360
447
102
}
330
41D
100
AcDbVisualStyle
  2
3dWireframe
 70
     5
 71
     0
 72
     2
 73
     0
 90
        0
 40
-0.6
 41
-30.0
 62
     5
 63
     7
 74
     1
 91
        4
 64
     7
 65
   257
 75
     1
175
     1
 42
1.0
 92
        0
 66
   257
 43
1.0
 76
     1
 77
     6
 78
     2
 67
     7
 79
     5
170
     0
171
     0
290
     0
174
     0
 93
        1
 44
0.0
173
     0
291
     0
 45
0.0
1001
ACAD
1000
AcDbSavedByObjectVersion
1070
     0
  0
VISUALSTYLE
  5
425
102
{ACAD_REACTORS
330
41D
102
}
102
{ACAD_XDICTIONARY
360
44B
102
}
330
41D
100
AcDbVisualStyle
  2
Basic
 70
     7
 71
     1
 72
     0
 73
     1
 90
        0
 40
-0.6
 41
-30.0
 62
     5
 63
     7
 74
     0
 91
        4
 64
     7
 65
   257
 75
     1
175
     1
 42
1.0
 92
        8
 66
     7
 43
1.0
 76
     1
 77
     6
 78
     2
 67
     7
 79
     5
170
     0
171
     0
290
     0
174
     0
 93
        1
 44
0.0
173
     0
291
     1
 45
0.0
1001
ACAD
1000
AcDbSavedByObjectVersion
1070
     0
  0
VISUALSTYLE
  5
429
102
{ACAD_REACTORS
330
41D
102
}
102
{ACAD_XDICTIONARY
360
453
102
}
330
41D
100
AcDbVisualStyle
  2
Brighten
 70
    12
 71
     2
 72
     2
 73
     0
 90
        0
 40
-0.6
 41
-30.0
 62
     5
 63
     7
 74
     1
 91
        4
 64
     7
 65
   257
 75
     1
175
     1
 42
1.0
 92
        8
 66
     7
 43
1.0
 76
     1
 77
     6
 78
     2
 67
     7
 79
     5
170
     0
171
     0
290
     0
174
     0
 93
        1
 44
50.0
173
     0
291
     1
 45
0.0
1001
ACAD
1000
AcDbSavedByObjectVersion
1070
     0
  0
VISUALSTYLE
  5
42D
102
{ACAD_REACTORS
330
41D
102
}
102
{ACAD_XDICTIONARY
360
45B
102
}
330
41D
100
AcDbVisualStyle
  2
ColorChange
 70
    16
 71
     2
 72
     2
 73
     3
 90
        0
 40
-0.6
 41
-30.0
 62
     5
 63
     8
 74
     1
 91
        4
 64
     7
 65
   257
 75
     1
175
     1
 42
1.0
 92
        8
 66
     8
 43
1.0
 76
     1
 77
     6
 78
     2
 67
     7
 79
     5
170
     0
171
     0
290
     0
174
     0
 93
        1
 44
0.0
173
     0
291
     1
 45
0.0
1001
ACAD
1000
AcDbSavedByObjectVersion
1070
     0
  0
VISUALSTYLE
  5
427
102
{ACAD_REACTORS
330
41D
102
}
102
{ACAD_XDICTIONARY
360
44F
102
}
330
41D
100
AcDbVisualStyle
  2
Conceptual
 70
     9
 71
     3
 72
     2
 73
     0
 90
        0
 40
-0.6
 41
-30.0
 62
     5
 63
     7
 74
     2
 91
        2
 64
     7
 65
   257
 75
     1
175
     1
 42
40.0
 92
        8
 66
     7
 43
1.0
 76
     1
 77
     6
 78
     2
 67
     7
 79
     3
170
     0
171
     0
290
     0
174
     0
 93
        1
 44
0.0
173
     0
291
     0
 45
0.0
1001
ACAD
1000
AcDbSavedByObjectVersion
1070
     0
  0
VISUALSTYLE
  5
428
102
{ACAD_REACTORS
330
41D
102
}
102
{ACAD_XDICTIONARY
360
451
102
}
330
41D
100
AcDbVisualStyle
  2
Dim
 70
    11
 71
     2
 72
     2
 73
     0
 90
        0
 40
-0.6
 41
-30.0
 62
     5
 63
     7
 74
     1
 91
        4
 64
     7
 65
   257
 75
     1
175
     1
 42
1.0
 92
        8
 66
     7
 43
1.0
 76
     1
 77
     6
 78
     2
 67
     7
 79
     5
170
     0
171
     0
290
     0
174
     0
 93
        1
 44
-50.0
173
     0
291
     1
 45
0.0
1001
ACAD
1000
AcDbSavedByObjectVersion
1070
     0
  0
VISUALSTYLE
  5
42C
102
{ACAD_REACTORS
330
41D
102
}
102
{ACAD_XDICTIONARY
360
459
102
}
330
41D
100
AcDbVisualStyle
  2
Facepattern
 70
    15
 71
     2
 72
     2
 73
     0
 90
        0
 40
-0.6
 41
-30.0
 62
     5
 63
     7
 74
     1
 91
        4
 64
     7
 65
   257
 75
     1
175
     1
 42
1.0
 92
        8
 66
     7
 43
1.0
 76
     1
 77
     6
 78
     2
 67
     7
 79
     5
170
     0
171
     0
290
     0
174
     0
 93
        1
 44
0.0
173
     0
291
     1
 45
0.0
1001
ACAD
1000
AcDbSavedByObjectVersion
1070
     0
  0
VISUALSTYLE
  5
41E
102
{ACAD_REACTORS
330
41D
102
}
102
{ACAD_XDICTIONARY
360
43D
102
}
330
41D
100
AcDbVisualStyle
  2
Flat
 70
     0
 71
     2
 72
     1
 73
     1
 90
        2
 40
-0.6
 41
30.0
 62
     5
 63
     7
 74
     0
 91
        4
 64
     7
 65
   257
 75
     1
175
     1
 42
1.0
 92
        8
 66
     7
 43
1.0
 76
     1
 77
     6
 78
     2
 67
     7
 79
     5
170
     0
171
     0
290
     0
174
     0
 93
       13
 44
0.0
173
     0
291
     1
 45
0.0
1001
ACAD
1000
AcDbSavedByObjectVersion
1070
     0
  0
VISUALSTYLE
  5
41F
102
{ACAD_REACTORS
330
41D
102
}
102
{ACAD_XDICTIONARY
360
43F
102
}
330
41D
100
AcDbVisualStyle
  2
FlatWithEdges
 70
     1
 71
     2
 72
     1
 73
     1
 90
        2
 40
-0.6
 41
30.0
 62
     5
 63
     7
 74
     1
 91
        4
 64
     7
 65
   257
 75
     1
175
     1
 42
1.0
 92
        0
 66
   257
 43
1.0
 76
     1
 77
     6
 78
     2
 67
     7
 79
     5
170
     0
171
     0
290
     0
174
     0
 93
       13
 44
0.0
173
     0
291
     1
 45
0.0
1001
ACAD
1000
AcDbSavedByObjectVersion
1070
     0
  0
VISUALSTYLE
  5
420
102
{ACAD_REACTORS
330
41D
102
}
102
{ACAD_XDICTIONARY
360
441
102
}
330
41D
100
AcDbVisualStyle
  2
Gouraud
 70
     2
 71
     2
 72
     2
 73
     1
 90
        2
 40
-0.6
 41
30.0
 62
     5
 63
     7
 74
     0
 91
        4
 64
     7
 65
   257
 75
     1
175
     1
 42
1.0
 92
        0
 66
     7
 43
1.0
 76
     1
 77
     6
 78
     2
 67
     7
 79
     5
170
     0
171
     0
290
     0
174
     0
 93
       13
 44
0.0
173
     0
291
     1
 45
0.0
1001
ACAD
1000
AcDbSavedByObjectVersion
1070
     0
  0
VISUALSTYLE
  5
421
102
{ACAD_REACTORS
330
41D
102
}
102
{ACAD_XDICTIONARY
360
443
102
}
330
41D
100
AcDbVisualStyle
  2
GouraudWithEdges
 70
     3
 71
     2
 72
     2
 73
     1
 90
        2
 40
-0.6
 41
30.0
 62
     5
 63
     7
 74
     1
 91
        4
 64
     7
 65
   257
 75
     1
175
     1
 42
1.0
 92
        0
 66
   257
 43
1.0
 76
     1
 77
     6
 78
     2
 67
     7
 79
     5
170
     0
171
     0
290
     0
174
     0
 93
       13
 44
0.0
173
     0
291
     1
 45
0.0
1001
ACAD
1000
AcDbSavedByObjectVersion
1070
     0
  0
VISUALSTYLE
  5
42B
102
{ACAD_REACTORS
330
41D
102
}
102
{ACAD_XDICTIONARY
360
457
102
}
330
41D
100
AcDbVisualStyle
  2
Linepattern
 70
    14
 71
     2
 72
     2
 73
     0
 90
        0
 40
-0.6
 41
-30.0
 62
     5
 63
     7
 74
     1
 91
        4
 64
     7
 65
   257
 75
     7
175
     7
 42
1.0
 92
        8
 66
     7
 43
1.0
 76
     1
 77
     6
 78
     2
 67
     7
 79
     5
170
     0
171
     0
290
     0
174
     0
 93
        1
 44
0.0
173
     0
291
     1
 45
0.0
1001
ACAD
1000
AcDbSavedByObjectVersion
1070
     0
  0
VISUALSTYLE
  5
426
102
{ACAD_REACTORS
330
41D
102
}
102
{ACAD_XDICTIONARY
360
44D
102
}
330
41D
100
AcDbVisualStyle
  2
Realistic
 70
     8
 71
     2
 72
     2
 73
     0
 90
        0
 40
-0.6
 41
-30.0
 62
     5
 63
     7
 74
     1
 91
        0
 64
     7
 65
   257
 75
     1
175
     1
 42
1.0
 92
        8
 66
     8
 43
1.0
 76
     1
 77
     6
 78
     2
 67
     7
 79
     5
170
     0
171
     0
290
     0
174
     0
 93
       13
 44
0.0
173
     0
291
     0
 45
0.0
1001
ACAD
1000
AcDbSavedByObjectVersion
1070
     0
  0
VISUALSTYLE
  5
42A
102
{ACAD_REACTORS
330
41D
102
}
102
{ACAD_XDICTIONARY
360
455
102
}
330
41D
100
AcDbVisualStyle
  2
Thicken
 70
    13
 71
     2
 72
     2
 73
     0
 90
        0
 40
-0.6
 41
-30.0
 62
     5
 63
     7
 74
     1
 91
        4
 64
     7
 65
   257
 75
     1
175
     1
 42
1.0
 92
       12
 66
     7
 43
1.0
 76
     1
 77
     6
 78
     2
 67
     7
 79
     5
170
     0
171
     0
290
     0
174
     0
 93
        1
 44
0.0
173
     0
291
     1
 45
0.0
1001
ACAD
1000
AcDbSavedByObjectVersion
1070
     0
  0
DICTIONARYVAR
  5
43C
102
{ACAD_REACTORS
330
434
102
}
330
434
100
DictionaryVariables
280
     0
  1
1:1
  0
DICTIONARYVAR
  5
438
102
{ACAD_REACTORS
330
434
102
}
330
434
100
DictionaryVariables
280
     0
  1
2
  0
DICTIONARYVAR
  5
439
102
{ACAD_REACTORS
330
434
102
}
330
434
100
DictionaryVariables
280
     0
  1
1
  0
DICTIONARYVAR
  5
437
102
{ACAD_REACTORS
330
434
102
}
330
434
100
DictionaryVariables
280
     0
  1
0
  0
DICTIONARY
  5
45F
330
430
100
AcDbDictionary
280
     1
281
     1
  3
ACAD_XREC_ROUNDTRIP
360
460
  0
DICTIONARY
  5
45D
330
42F
100
AcDbDictionary
280
     1
281
     1
  3
ACAD_XREC_ROUNDTRIP
360
45E
  0
DICTIONARY
  5
461
330
431
100
AcDbDictionary
280
     1
281
     1
  3
ACAD_XREC_ROUNDTRIP
360
462
  0
DICTIONARY
  5
445
330
422
100
AcDbDictionary
280
     1
281
     1
  3
ACAD_XREC_ROUNDTRIP
360
446
  0
DICTIONARY
  5
449
330
424
100
AcDbDictionary
280
     1
281
     1
  3
ACAD_XREC_ROUNDTRIP
360
44A
  0
DICTIONARY
  5
447
330
423
100
AcDbDictionary
280
     1
281
     1
  3
ACAD_XREC_ROUNDTRIP
360
448
  0
DICTIONARY
  5
44B
330
425
100
AcDbDictionary
280
     1
281
     1
  3
ACAD_XREC_ROUNDTRIP
360
44C
  0
DICTIONARY
  5
453
330
429
100
AcDbDictionary
280
     1
281
     1
  3
ACAD_XREC_ROUNDTRIP
360
454
  0
DICTIONARY
  5
45B
330
42D
100
AcDbDictionary
280
     1
281
     1
  3
ACAD_XREC_ROUNDTRIP
360
45C
  0
DICTIONARY
  5
44F
330
427
100
AcDbDictionary
280
     1
281
     1
  3
ACAD_XREC_ROUNDTRIP
360
450
  0
DICTIONARY
  5
451
330
428
100
AcDbDictionary
280
     1
281
     1
  3
ACAD_XREC_ROUNDTRIP
360
452
  0
DICTIONARY
  5
459
330
42C
100
AcDbDictionary
280
     1
281
     1
  3
ACAD_XREC_ROUNDTRIP
360
45A
  0
DICTIONARY
  5
43D
330
41E
100
AcDbDictionary
280
     1
281
     1
  3
ACAD_XREC_ROUNDTRIP
360
43E
  0
DICTIONARY
  5
43F
330
41F
100
AcDbDictionary
280
     1
281
     1
  3
ACAD_XREC_ROUNDTRIP
360
440
  0
DICTIONARY
  5
441
330
420
100
AcDbDictionary
280
     1
281
     1
  3
ACAD_XREC_ROUNDTRIP
360
442
  0
DICTIONARY
  5
443
330
421
100
AcDbDictionary
280
     1
281
     1
  3
ACAD_XREC_ROUNDTRIP
360
444
  0
DICTIONARY
  5
457
330
42B
100
AcDbDictionary
280
     1
281
     1
  3
ACAD_XREC_ROUNDTRIP
360
458
  0
DICTIONARY
  5
44D
330
426
100
AcDbDictionary
280
     1
281
     1
  3
ACAD_XREC_ROUNDTRIP
360
44E
  0
DICTIONARY
  5
455
330
42A
100
AcDbDictionary
280
     1
281
     1
  3
ACAD_XREC_ROUNDTRIP
360
456
  0
XRECORD
  5
460
102
{ACAD_REACTORS
330
45F
102
}
330
45F
100
AcDbXrecord
280
     1
102
MATERIAL
148
0.0
149
0.0
149
0.0
 93
        0
 94
      127
282
     0
 72
     1
 77
     1
171
     1
175
     1
179
     1
273
     0
  0
XRECORD
  5
45E
102
{ACAD_REACTORS
330
45D
102
}
330
45D
100
AcDbXrecord
280
     1
102
MATERIAL
148
0.0
149
0.0
149
0.0
 93
        0
 94
      127
282
     0
 72
     1
 77
     1
171
     1
175
     1
179
     1
273
     0
  0
XRECORD
  5
462
102
{ACAD_REACTORS
330
461
102
}
330
461
100
AcDbXrecord
280
     1
102
MATERIAL
148
0.0
149
0.0
149
0.0
 93
        0
 94
      127
282
     0
 72
     1
 77
     1
171
     1
175
     1
179
     1
273
     0
  0
XRECORD
  5
446
102
{ACAD_REACTORS
330
445
102
}
330
445
100
AcDbXrecord
280
     1
102
RTVSPropertyOp0
 70
     1
102
RTVSPropertyOp1
 70
     1
102
RTVSPropertyOp2
 70
     1
102
RTVSPropertyOp3
 70
     1
102
RTVSPropertyOp4
 70
     1
102
RTVSPropertyOp5
 70
     1
102
RTVSPropertyOp6
 70
     1
102
RTVSPropertyOp7
 70
     1
102
RTVSPropertyOp8
 70
     1
102
RTVSPropertyOp9
 70
     1
102
RTVSPropertyOp10
 70
     1
102
RTVSPropertyOp11
 70
     1
102
RTVSPropertyOp12
 70
     1
102
RTVSPropertyOp13
 70
     1
102
RTVSPropertyOp14
 70
     1
102
RTVSPropertyOp15
 70
     1
102
RTVSPropertyOp16
 70
     1
102
RTVSPropertyOp17
 70
     1
102
RTVSPropertyOp18
 70
     1
102
RTVSPropertyOp19
 70
     1
102
RTVSPropertyOp20
 70
     1
102
RTVSPropertyOp21
 70
     1
102
RTVSPropertyOp22
 70
     1
102
RTVSPropertyOp23
 70
     1
102
RTVSPropertyOp24
 70
     1
102
RTVSPropertyOp25
 70
     1
102
RTVSPropertyOp26
 70
     1
102
RTVSPropertyOp27
 70
     1
102
RTVSPropertyOp28
 70
     1
102
RTVSPropertyOp29
 70
     1
102
RTVSPropertyOp30
 70
     1
102
RTVSPropertyOp31
 70
     1
102
RTVSPropertyOp32
 70
     1
  0
XRECORD
  5
44A
102
{ACAD_REACTORS
330
449
102
}
330
449
100
AcDbXrecord
280
     1
102
RTVSPropertyOp0
 70
     1
102
RTVSPropertyOp1
 70
     1
102
RTVSPropertyOp2
 70
     1
102
RTVSPropertyOp3
 70
     1
102
RTVSPropertyOp4
 70
     1
102
RTVSPropertyOp5
 70
     1
102
RTVSPropertyOp6
 70
     1
102
RTVSPropertyOp7
 70
     1
102
RTVSPropertyOp8
 70
     1
102
RTVSPropertyOp9
 70
     1
102
RTVSPropertyOp10
 70
     1
102
RTVSPropertyOp11
 70
     1
102
RTVSPropertyOp12
 70
     1
102
RTVSPropertyOp13
 70
     1
102
RTVSPropertyOp14
 70
     1
102
RTVSPropertyOp15
 70
     1
102
RTVSPropertyOp16
 70
     1
102
RTVSPropertyOp17
 70
     1
102
RTVSPropertyOp18
 70
     1
102
RTVSPropertyOp19
 70
     1
102
RTVSPropertyOp20
 70
     1
102
RTVSPropertyOp21
 70
     1
102
RTVSPropertyOp22
 70
     1
102
RTVSPropertyOp23
 70
     1
102
RTVSPropertyOp24
 70
     1
102
RTVSPropertyOp25
 70
     1
102
RTVSPropertyOp26
 70
     1
102
RTVSPropertyOp27
 70
     1
102
RTVSPropertyOp28
 70
     1
102
RTVSPropertyOp29
 70
     1
102
RTVSPropertyOp30
 70
     1
102
RTVSPropertyOp31
 70
     1
102
RTVSPropertyOp32
 70
     1
  0
XRECORD
  5
448
102
{ACAD_REACTORS
330
447
102
}
330
447
100
AcDbXrecord
280
     1
102
RTVSPropertyOp0
 70
     1
102
RTVSPropertyOp1
 70
     1
102
RTVSPropertyOp2
 70
     1
102
RTVSPropertyOp3
 70
     1
102
RTVSPropertyOp4
 70
     1
102
RTVSPropertyOp5
 70
     1
102
RTVSPropertyOp6
 70
     1
102
RTVSPropertyOp7
 70
     1
102
RTVSPropertyOp8
 70
     1
102
RTVSPropertyOp9
 70
     1
102
RTVSPropertyOp10
 70
     1
102
RTVSPropertyOp11
 70
     1
102
RTVSPropertyOp12
 70
     1
102
RTVSPropertyOp13
 70
     1
102
RTVSPropertyOp14
 70
     1
102
RTVSPropertyOp15
 70
     1
102
RTVSPropertyOp16
 70
     1
102
RTVSPropertyOp17
 70
     1
102
RTVSPropertyOp18
 70
     1
102
RTVSPropertyOp19
 70
     1
102
RTVSPropertyOp20
 70
     1
102
RTVSPropertyOp21
 70
     1
102
RTVSPropertyOp22
 70
     1
102
RTVSPropertyOp23
 70
     1
102
RTVSPropertyOp24
 70
     1
102
RTVSPropertyOp25
 70
     1
102
RTVSPropertyOp26
 70
     1
102
RTVSPropertyOp27
 70
     1
102
RTVSPropertyOp28
 70
     1
102
RTVSPropertyOp29
 70
     1
102
RTVSPropertyOp30
 70
     1
102
RTVSPropertyOp31
 70
     1
102
RTVSPropertyOp32
 70
     1
  0
XRECORD
  5
44C
102
{ACAD_REACTORS
330
44B
102
}
330
44B
100
AcDbXrecord
280
     1
102
RTVSPropertyOp0
 70
     1
102
RTVSPropertyOp1
 70
     1
102
RTVSPropertyOp2
 70
     1
102
RTVSPropertyOp3
 70
     1
102
RTVSPropertyOp4
 70
     1
102
RTVSPropertyOp5
 70
     1
102
RTVSPropertyOp6
 70
     1
102
RTVSPropertyOp7
 70
     1
102
RTVSPropertyOp8
 70
     1
102
RTVSPropertyOp9
 70
     1
102
RTVSPropertyOp10
 70
     1
102
RTVSPropertyOp11
 70
     1
102
RTVSPropertyOp12
 70
     1
102
RTVSPropertyOp13
 70
     1
102
RTVSPropertyOp14
 70
     1
102
RTVSPropertyOp15
 70
     1
102
RTVSPropertyOp16
 70
     1
102
RTVSPropertyOp17
 70
     1
102
RTVSPropertyOp18
 70
     1
102
RTVSPropertyOp19
 70
     1
102
RTVSPropertyOp20
 70
     1
102
RTVSPropertyOp21
 70
     1
102
RTVSPropertyOp22
 70
     1
102
RTVSPropertyOp23
 70
     1
102
RTVSPropertyOp24
 70
     1
102
RTVSPropertyOp25
 70
     1
102
RTVSPropertyOp26
 70
     1
102
RTVSPropertyOp27
 70
     1
102
RTVSPropertyOp28
 70
     1
102
RTVSPropertyOp29
 70
     1
102
RTVSPropertyOp30
 70
     1
102
RTVSPropertyOp31
 70
     1
102
RTVSPropertyOp32
 70
     1
  0
XRECORD
  5
454
102
{ACAD_REACTORS
330
453
102
}
330
453
100
AcDbXrecord
280
     1
102
RTVSPropertyOp0
 70
     1
102
RTVSPropertyOp1
 70
     1
102
RTVSPropertyOp2
 70
     1
102
RTVSPropertyOp3
 70
     1
102
RTVSPropertyOp4
 70
     1
102
RTVSPropertyOp5
 70
     1
102
RTVSPropertyOp6
 70
     1
102
RTVSPropertyOp7
 70
     1
102
RTVSPropertyOp8
 70
     1
102
RTVSPropertyOp9
 70
     1
102
RTVSPropertyOp10
 70
     1
102
RTVSPropertyOp11
 70
     1
102
RTVSPropertyOp12
 70
     1
102
RTVSPropertyOp13
 70
     1
102
RTVSPropertyOp14
 70
     1
102
RTVSPropertyOp15
 70
     1
102
RTVSPropertyOp16
 70
     1
102
RTVSPropertyOp17
 70
     1
102
RTVSPropertyOp18
 70
     1
102
RTVSPropertyOp19
 70
     1
102
RTVSPropertyOp20
 70
     1
102
RTVSPropertyOp21
 70
     1
102
RTVSPropertyOp22
 70
     1
102
RTVSPropertyOp23
 70
     1
102
RTVSPropertyOp24
 70
     1
102
RTVSPropertyOp25
 70
     1
102
RTVSPropertyOp26
 70
     1
102
RTVSPropertyOp27
 70
     1
102
RTVSPropertyOp28
 70
     1
102
RTVSPropertyOp29
 70
     1
102
RTVSPropertyOp30
 70
     1
102
RTVSPropertyOp31
 70
     1
102
RTVSPropertyOp32
 70
     1
  0
XRECORD
  5
45C
102
{ACAD_REACTORS
330
45B
102
}
330
45B
100
AcDbXrecord
280
     1
102
RTVSPropertyOp0
 70
     1
102
RTVSPropertyOp1
 70
     1
102
RTVSPropertyOp2
 70
     1
102
RTVSPropertyOp3
 70
     1
102
RTVSPropertyOp4
 70
     1
102
RTVSPropertyOp5
 70
     1
102
RTVSPropertyOp6
 70
     1
102
RTVSPropertyOp7
 70
     1
102
RTVSPropertyOp8
 70
     1
102
RTVSPropertyOp9
 70
     1
102
RTVSPropertyOp10
 70
     1
102
RTVSPropertyOp11
 70
     1
102
RTVSPropertyOp12
 70
     1
102
RTVSPropertyOp13
 70
     1
102
RTVSPropertyOp14
 70
     1
102
RTVSPropertyOp15
 70
     1
102
RTVSPropertyOp16
 70
     1
102
RTVSPropertyOp17
 70
     1
102
RTVSPropertyOp18
 70
     1
102
RTVSPropertyOp19
 70
     1
102
RTVSPropertyOp20
 70
     1
102
RTVSPropertyOp21
 70
     1
102
RTVSPropertyOp22
 70
     1
102
RTVSPropertyOp23
 70
     1
102
RTVSPropertyOp24
 70
     1
102
RTVSPropertyOp25
 70
     1
102
RTVSPropertyOp26
 70
     1
102
RTVSPropertyOp27
 70
     1
102
RTVSPropertyOp28
 70
     1
102
RTVSPropertyOp29
 70
     1
102
RTVSPropertyOp30
 70
     1
102
RTVSPropertyOp31
 70
     1
102
RTVSPropertyOp32
 70
     1
  0
XRECORD
  5
450
102
{ACAD_REACTORS
330
44F
102
}
330
44F
100
AcDbXrecord
280
     1
102
RTVSPropertyOp0
 70
     1
102
RTVSPropertyOp1
 70
     1
102
RTVSPropertyOp2
 70
     1
102
RTVSPropertyOp3
 70
     1
102
RTVSPropertyOp4
 70
     1
102
RTVSPropertyOp5
 70
     1
102
RTVSPropertyOp6
 70
     1
102
RTVSPropertyOp7
 70
     1
102
RTVSPropertyOp8
 70
     1
102
RTVSPropertyOp9
 70
     1
102
RTVSPropertyOp10
 70
     1
102
RTVSPropertyOp11
 70
     1
102
RTVSPropertyOp12
 70
     1
102
RTVSPropertyOp13
 70
     1
102
RTVSPropertyOp14
 70
     1
102
RTVSPropertyOp15
 70
     1
102
RTVSPropertyOp16
 70
     1
102
RTVSPropertyOp17
 70
     1
102
RTVSPropertyOp18
 70
     1
102
RTVSPropertyOp19
 70
     1
102
RTVSPropertyOp20
 70
     1
102
RTVSPropertyOp21
 70
     1
102
RTVSPropertyOp22
 70
     1
102
RTVSPropertyOp23
 70
     1
102
RTVSPropertyOp24
 70
     1
102
RTVSPropertyOp25
 70
     1
102
RTVSPropertyOp26
 70
     1
102
RTVSPropertyOp27
 70
     1
102
RTVSPropertyOp28
 70
     1
102
RTVSPropertyOp29
 70
     1
102
RTVSPropertyOp30
 70
     1
102
RTVSPropertyOp31
 70
     1
102
RTVSPropertyOp32
 70
     1
  0
XRECORD
  5
452
102
{ACAD_REACTORS
330
451
102
}
330
451
100
AcDbXrecord
280
     1
102
RTVSPropertyOp0
 70
     1
102
RTVSPropertyOp1
 70
     1
102
RTVSPropertyOp2
 70
     1
102
RTVSPropertyOp3
 70
     1
102
RTVSPropertyOp4
 70
     1
102
RTVSPropertyOp5
 70
     1
102
RTVSPropertyOp6
 70
     1
102
RTVSPropertyOp7
 70
     1
102
RTVSPropertyOp8
 70
     1
102
RTVSPropertyOp9
 70
     1
102
RTVSPropertyOp10
 70
     1
102
RTVSPropertyOp11
 70
     1
102
RTVSPropertyOp12
 70
     1
102
RTVSPropertyOp13
 70
     1
102
RTVSPropertyOp14
 70
     1
102
RTVSPropertyOp15
 70
     1
102
RTVSPropertyOp16
 70
     1
102
RTVSPropertyOp17
 70
     1
102
RTVSPropertyOp18
 70
     1
102
RTVSPropertyOp19
 70
     1
102
RTVSPropertyOp20
 70
     1
102
RTVSPropertyOp21
 70
     1
102
RTVSPropertyOp22
 70
     1
102
RTVSPropertyOp23
 70
     1
102
RTVSPropertyOp24
 70
     1
102
RTVSPropertyOp25
 70
     1
102
RTVSPropertyOp26
 70
     1
102
RTVSPropertyOp27
 70
     1
102
RTVSPropertyOp28
 70
     1
102
RTVSPropertyOp29
 70
     1
102
RTVSPropertyOp30
 70
     1
102
RTVSPropertyOp31
 70
     1
102
RTVSPropertyOp32
 70
     1
  0
XRECORD
  5
45A
102
{ACAD_REACTORS
330
459
102
}
330
459
100
AcDbXrecord
280
     1
102
RTVSPropertyOp0
 70
     1
102
RTVSPropertyOp1
 70
     1
102
RTVSPropertyOp2
 70
     1
102
RTVSPropertyOp3
 70
     1
102
RTVSPropertyOp4
 70
     1
102
RTVSPropertyOp5
 70
     1
102
RTVSPropertyOp6
 70
     1
102
RTVSPropertyOp7
 70
     1
102
RTVSPropertyOp8
 70
     1
102
RTVSPropertyOp9
 70
     1
102
RTVSPropertyOp10
 70
     1
102
RTVSPropertyOp11
 70
     1
102
RTVSPropertyOp12
 70
     1
102
RTVSPropertyOp13
 70
     1
102
RTVSPropertyOp14
 70
     1
102
RTVSPropertyOp15
 70
     1
102
RTVSPropertyOp16
 70
     1
102
RTVSPropertyOp17
 70
     1
102
RTVSPropertyOp18
 70
     1
102
RTVSPropertyOp19
 70
     1
102
RTVSPropertyOp20
 70
     1
102
RTVSPropertyOp21
 70
     1
102
RTVSPropertyOp22
 70
     1
102
RTVSPropertyOp23
 70
     1
102
RTVSPropertyOp24
 70
     1
102
RTVSPropertyOp25
 70
     1
102
RTVSPropertyOp26
 70
     1
102
RTVSPropertyOp27
 70
     1
102
RTVSPropertyOp28
 70
     1
102
RTVSPropertyOp29
 70
     1
102
RTVSPropertyOp30
 70
     1
102
RTVSPropertyOp31
 70
     1
102
RTVSPropertyOp32
 70
     1
  0
XRECORD
  5
43E
102
{ACAD_REACTORS
330
43D
102
}
330
43D
100
AcDbXrecord
280
     1
102
RTVSPropertyOp0
 70
     1
102
RTVSPropertyOp1
 70
     1
102
RTVSPropertyOp2
 70
     1
102
RTVSPropertyOp3
 70
     1
102
RTVSPropertyOp4
 70
     1
102
RTVSPropertyOp5
 70
     1
102
RTVSPropertyOp6
 70
     1
102
RTVSPropertyOp7
 70
     1
102
RTVSPropertyOp8
 70
     1
102
RTVSPropertyOp9
 70
     1
102
RTVSPropertyOp10
 70
     1
102
RTVSPropertyOp11
 70
     1
102
RTVSPropertyOp12
 70
     1
102
RTVSPropertyOp13
 70
     1
102
RTVSPropertyOp14
 70
     1
102
RTVSPropertyOp15
 70
     1
102
RTVSPropertyOp16
 70
     1
102
RTVSPropertyOp17
 70
     1
102
RTVSPropertyOp18
 70
     1
102
RTVSPropertyOp19
 70
     1
102
RTVSPropertyOp20
 70
     1
102
RTVSPropertyOp21
 70
     1
102
RTVSPropertyOp22
 70
     1
102
RTVSPropertyOp23
 70
     1
102
RTVSPropertyOp24
 70
     1
102
RTVSPropertyOp25
 70
     1
102
RTVSPropertyOp26
 70
     1
102
RTVSPropertyOp27
 70
     1
102
RTVSPropertyOp28
 70
     1
102
RTVSPropertyOp29
 70
     1
102
RTVSPropertyOp30
 70
     1
102
RTVSPropertyOp31
 70
     1
102
RTVSPropertyOp32
 70
     1
  0
XRECORD
  5
440
102
{ACAD_REACTORS
330
43F
102
}
330
43F
100
AcDbXrecord
280
     1
102
RTVSPropertyOp0
 70
     1
102
RTVSPropertyOp1
 70
     1
102
RTVSPropertyOp2
 70
     1
102
RTVSPropertyOp3
 70
     1
102
RTVSPropertyOp4
 70
     1
102
RTVSPropertyOp5
 70
     1
102
RTVSPropertyOp6
 70
     1
102
RTVSPropertyOp7
 70
     1
102
RTVSPropertyOp8
 70
     1
102
RTVSPropertyOp9
 70
     1
102
RTVSPropertyOp10
 70
     1
102
RTVSPropertyOp11
 70
     1
102
RTVSPropertyOp12
 70
     1
102
RTVSPropertyOp13
 70
     1
102
RTVSPropertyOp14
 70
     1
102
RTVSPropertyOp15
 70
     1
102
RTVSPropertyOp16
 70
     1
102
RTVSPropertyOp17
 70
     1
102
RTVSPropertyOp18
 70
     1
102
RTVSPropertyOp19
 70
     1
102
RTVSPropertyOp20
 70
     1
102
RTVSPropertyOp21
 70
     1
102
RTVSPropertyOp22
 70
     1
102
RTVSPropertyOp23
 70
     1
102
RTVSPropertyOp24
 70
     1
102
RTVSPropertyOp25
 70
     1
102
RTVSPropertyOp26
 70
     1
102
RTVSPropertyOp27
 70
     1
102
RTVSPropertyOp28
 70
     1
102
RTVSPropertyOp29
 70
     1
102
RTVSPropertyOp30
 70
     1
102
RTVSPropertyOp31
 70
     1
102
RTVSPropertyOp32
 70
     1
  0
XRECORD
  5
442
102
{ACAD_REACTORS
330
441
102
}
330
441
100
AcDbXrecord
280
     1
102
RTVSPropertyOp0
 70
     1
102
RTVSPropertyOp1
 70
     1
102
RTVSPropertyOp2
 70
     1
102
RTVSPropertyOp3
 70
     1
102
RTVSPropertyOp4
 70
     1
102
RTVSPropertyOp5
 70
     1
102
RTVSPropertyOp6
 70
     1
102
RTVSPropertyOp7
 70
     1
102
RTVSPropertyOp8
 70
     1
102
RTVSPropertyOp9
 70
     1
102
RTVSPropertyOp10
 70
     1
102
RTVSPropertyOp11
 70
     1
102
RTVSPropertyOp12
 70
     1
102
RTVSPropertyOp13
 70
     1
102
RTVSPropertyOp14
 70
     1
102
RTVSPropertyOp15
 70
     1
102
RTVSPropertyOp16
 70
     1
102
RTVSPropertyOp17
 70
     1
102
RTVSPropertyOp18
 70
     1
102
RTVSPropertyOp19
 70
     1
102
RTVSPropertyOp20
 70
     1
102
RTVSPropertyOp21
 70
     1
102
RTVSPropertyOp22
 70
     1
102
RTVSPropertyOp23
 70
     1
102
RTVSPropertyOp24
 70
     1
102
RTVSPropertyOp25
 70
     1
102
RTVSPropertyOp26
 70
     1
102
RTVSPropertyOp27
 70
     1
102
RTVSPropertyOp28
 70
     1
102
RTVSPropertyOp29
 70
     1
102
RTVSPropertyOp30
 70
     1
102
RTVSPropertyOp31
 70
     1
102
RTVSPropertyOp32
 70
     1
  0
XRECORD
  5
444
102
{ACAD_REACTORS
330
443
102
}
330
443
100
AcDbXrecord
280
     1
102
RTVSPropertyOp0
 70
     1
102
RTVSPropertyOp1
 70
     1
102
RTVSPropertyOp2
 70
     1
102
RTVSPropertyOp3
 70
     1
102
RTVSPropertyOp4
 70
     1
102
RTVSPropertyOp5
 70
     1
102
RTVSPropertyOp6
 70
     1
102
RTVSPropertyOp7
 70
     1
102
RTVSPropertyOp8
 70
     1
102
RTVSPropertyOp9
 70
     1
102
RTVSPropertyOp10
 70
     1
102
RTVSPropertyOp11
 70
     1
102
RTVSPropertyOp12
 70
     1
102
RTVSPropertyOp13
 70
     1
102
RTVSPropertyOp14
 70
     1
102
RTVSPropertyOp15
 70
     1
102
RTVSPropertyOp16
 70
     1
102
RTVSPropertyOp17
 70
     1
102
RTVSPropertyOp18
 70
     1
102
RTVSPropertyOp19
 70
     1
102
RTVSPropertyOp20
 70
     1
102
RTVSPropertyOp21
 70
     1
102
RTVSPropertyOp22
 70
     1
102
RTVSPropertyOp23
 70
     1
102
RTVSPropertyOp24
 70
     1
102
RTVSPropertyOp25
 70
     1
102
RTVSPropertyOp26
 70
     1
102
RTVSPropertyOp27
 70
     1
102
RTVSPropertyOp28
 70
     1
102
RTVSPropertyOp29
 70
     1
102
RTVSPropertyOp30
 70
     1
102
RTVSPropertyOp31
 70
     1
102
RTVSPropertyOp32
 70
     1
  0
XRECORD
  5
458
102
{ACAD_REACTORS
330
457
102
}
330
457
100
AcDbXrecord
280
     1
102
RTVSPropertyOp0
 70
     1
102
RTVSPropertyOp1
 70
     1
102
RTVSPropertyOp2
 70
     1
102
RTVSPropertyOp3
 70
     1
102
RTVSPropertyOp4
 70
     1
102
RTVSPropertyOp5
 70
     1
102
RTVSPropertyOp6
 70
     1
102
RTVSPropertyOp7
 70
     1
102
RTVSPropertyOp8
 70
     1
102
RTVSPropertyOp9
 70
     1
102
RTVSPropertyOp10
 70
     1
102
RTVSPropertyOp11
 70
     1
102
RTVSPropertyOp12
 70
     1
102
RTVSPropertyOp13
 70
     1
102
RTVSPropertyOp14
 70
     1
102
RTVSPropertyOp15
 70
     1
102
RTVSPropertyOp16
 70
     1
102
RTVSPropertyOp17
 70
     1
102
RTVSPropertyOp18
 70
     1
102
RTVSPropertyOp19
 70
     1
102
RTVSPropertyOp20
 70
     1
102
RTVSPropertyOp21
 70
     1
102
RTVSPropertyOp22
 70
     1
102
RTVSPropertyOp23
 70
     1
102
RTVSPropertyOp24
 70
     1
102
RTVSPropertyOp25
 70
     1
102
RTVSPropertyOp26
 70
     1
102
RTVSPropertyOp27
 70
     1
102
RTVSPropertyOp28
 70
     1
102
RTVSPropertyOp29
 70
     1
102
RTVSPropertyOp30
 70
     1
102
RTVSPropertyOp31
 70
     1
102
RTVSPropertyOp32
 70
     1
  0
XRECORD
  5
44E
102
{ACAD_REACTORS
330
44D
102
}
330
44D
100
AcDbXrecord
280
     1
102
RTVSPropertyOp0
 70
     1
102
RTVSPropertyOp1
 70
     1
102
RTVSPropertyOp2
 70
     1
102
RTVSPropertyOp3
 70
     1
102
RTVSPropertyOp4
 70
     1
102
RTVSPropertyOp5
 70
     1
102
RTVSPropertyOp6
 70
     1
102
RTVSPropertyOp7
 70
     1
102
RTVSPropertyOp8
 70
     1
102
RTVSPropertyOp9
 70
     1
102
RTVSPropertyOp10
 70
     1
102
RTVSPropertyOp11
 70
     1
102
RTVSPropertyOp12
 70
     1
102
RTVSPropertyOp13
 70
     1
102
RTVSPropertyOp14
 70
     1
102
RTVSPropertyOp15
 70
     1
102
RTVSPropertyOp16
 70
     1
102
RTVSPropertyOp17
 70
     1
102
RTVSPropertyOp18
 70
     1
102
RTVSPropertyOp19
 70
     1
102
RTVSPropertyOp20
 70
     1
102
RTVSPropertyOp21
 70
     1
102
RTVSPropertyOp22
 70
     1
102
RTVSPropertyOp23
 70
     1
102
RTVSPropertyOp24
 70
     1
102
RTVSPropertyOp25
 70
     1
102
RTVSPropertyOp26
 70
     1
102
RTVSPropertyOp27
 70
     1
102
RTVSPropertyOp28
 70
     1
102
RTVSPropertyOp29
 70
     1
102
RTVSPropertyOp30
 70
     1
102
RTVSPropertyOp31
 70
     1
102
RTVSPropertyOp32
 70
     1
  0
XRECORD
  5
456
102
{ACAD_REACTORS
330
455
102
}
330
455
100
AcDbXrecord
280
     1
102
RTVSPropertyOp0
 70
     1
102
RTVSPropertyOp1
 70
     1
102
RTVSPropertyOp2
 70
     1
102
RTVSPropertyOp3
 70
     1
102
RTVSPropertyOp4
 70
     1
102
RTVSPropertyOp5
 70
     1
102
RTVSPropertyOp6
 70
     1
102
RTVSPropertyOp7
 70
     1
102
RTVSPropertyOp8
 70
     1
102
RTVSPropertyOp9
 70
     1
102
RTVSPropertyOp10
 70
     1
102
RTVSPropertyOp11
 70
     1
102
RTVSPropertyOp12
 70
     1
102
RTVSPropertyOp13
 70
     1
102
RTVSPropertyOp14
 70
     1
102
RTVSPropertyOp15
 70
     1
102
RTVSPropertyOp16
 70
     1
102
RTVSPropertyOp17
 70
     1
102
RTVSPropertyOp18
 70
     1
102
RTVSPropertyOp19
 70
     1
102
RTVSPropertyOp20
 70
     1
102
RTVSPropertyOp21
 70
     1
102
RTVSPropertyOp22
 70
     1
102
RTVSPropertyOp23
 70
     1
102
RTVSPropertyOp24
 70
     1
102
RTVSPropertyOp25
 70
     1
102
RTVSPropertyOp26
 70
     1
102
RTVSPropertyOp27
 70
     1
102
RTVSPropertyOp28
 70
     1
102
RTVSPropertyOp29
 70
     1
102
RTVSPropertyOp30
 70
     1
102
RTVSPropertyOp31
 70
     1
102
RTVSPropertyOp32
 70
     1
  0
ENDSEC
  0
EOF
