  0
SECTION
  2
HEADER
  9
$ACADVER
  1
AC1015
  9
$ACADMAINTVER
 70
     6
  9
$DWGCODEPAGE
  3
ANSI_1252
  9
$INSBASE
 10
0.0
 20
0.0
 30
0.0
  9
$EXTMIN
 10
0.0
 20
0.0
 30
0.0
  9
$EXTMAX
 10
210.0
 20
297.0
 30
0.0
  9
$LIMMIN
 10
0.0
 20
0.0
  9
$LIMMAX
 10
0.0
 20
0.0
  9
$ORTHOMODE
 70
     0
  9
$REGENMODE
 70
     1
  9
$FILLMODE
 70
     1
  9
$QTEXTMODE
 70
     0
  9
$MIRRTEXT
 70
     1
  9
$LTSCALE
 40
1.0
  9
$ATTMODE
 70
     1
  9
$TEXTSIZE
 40
0.0
  9
$TRACEWID
 40
0.05
  9
$TEXTSTYLE
  7
STANDARD
  9
$CLAYER
  8
0
  9
$CELTYPE
  6
CONTINUOUS
  9
$CECOLOR
 62
   256
  9
$CELTSCALE
 40
1.0
  9
$DISPSILH
 70
     0
  9
$DIMSCALE
 40
1.0
  9
$DIMASZ
 40
0.0
  9
$DIMEXO
 40
0.0
  9
$DIMDLI
 40
0.38
  9
$DIMRND
 40
0.0
  9
$DIMDLE
 40
1000.0
  9
$DIMEXE
 40
0.18
  9
$DIMTP
 40
0.0
  9
$DIMTM
 40
0.0
  9
$DIMTXT
 40
3.5
  9
$DIMCEN
 40
0.09
  9
$DIMTSZ
 40
0.0
  9
$DIMTOL
 70
     0
  9
$DIMLIM
 70
     0
  9
$DIMTIH
 70
     1
  9
$DIMTOH
 70
     1
  9
$DIMSE1
 70
     0
  9
$DIMSE2
 70
     0
  9
$DIMTAD
 70
     1
  9
$DIMZIN
 70
     0
  9
$DIMBLK
  1

  9
$DIMASO
 70
     1
  9
$DIMSHO
 70
     1
  9
$DIMPOST
  1

  9
$DIMAPOST
  1

  9
$DIMALT
 70
     0
  9
$DIMALTD
 70
     2
  9
$DIMALTF
 40
0.0394
  9
$DIMLFAC
 40
1.0
  9
$DIMTOFL
 70
     0
  9
$DIMTVP
 40
0.0
  9
$DIMTIX
 70
     0
  9
$DIMSOXD
 70
     0
  9
$DIMSAH
 70
     0
  9
$DIMBLK1
  1

  9
$DIMBLK2
  1

  9
$DIMSTYLE
  2
STANDARD
  9
$DIMCLRD
 70
     0
  9
$DIMCLRE
 70
     0
  9
$DIMCLRT
 70
     0
  9
$DIMTFAC
 40
1.0
  9
$DIMGAP
 40
0.0
  9
$DIMJUST
 70
     0
  9
$DIMSD1
 70
     0
  9
$DIMSD2
 70
     0
  9
$DIMTOLJ
 70
     1
  9
$DIMTZIN
 70
     0
  9
$DIMALTZ
 70
     0
  9
$DIMALTTZ
 70
     0
  9
$DIMUPT
 70
     0
  9
$DIMDEC
 70
     4
  9
$DIMTDEC
 70
     4
  9
$DIMALTU
 70
     2
  9
$DIMALTTD
 70
     2
  9
$DIMTXSTY
  7
STANDARD
  9
$DIMAUNIT
 70
     0
  9
$DIMADEC
 70
     0
  9
$DIMALTRND
 40
0.0
  9
$DIMAZIN
 70
     0
  9
$DIMDSEP
 70
    46
  9
$DIMATFIT
 70
     3
  9
$DIMFRAC
 70
     0
  9
$DIMLDRBLK
  1

  9
$DIMLUNIT
 70
     2
  9
$DIMLWD
 70
    -2
  9
$DIMLWE
 70
    -2
  9
$DIMTMOVE
 70
     2
  9
$LUNITS
 70
     2
  9
$LUPREC
 70
     2
  9
$SKETCHINC
 40
0.1
  9
$FILLETRAD
 40
0.0
  9
$AUNITS
 70
     0
  9
$AUPREC
 70
     2
  9
$MENU
  1
acad
  9
$ELEVATION
 40
0.0
  9
$PELEVATION
 40
0.0
  9
$THICKNESS
 40
0.0
  9
$LIMCHECK
 70
     0
  9
$CHAMFERA
 40
0.0
  9
$CHAMFERB
 40
0.0
  9
$CHAMFERC
 40
0.0
  9
$CHAMFERD
 40
0.0
  9
$SKPOLY
 70
     0
  9
$TDCREATE
 40
2447893.0
  9
$TDUCREATE
 40
2447892.916666667
  9
$TDUPDATE
 40
2458327.548779734
  9
$TDUUPDATE
 40
2458327.4654464
  9
$TDINDWG
 40
0.0
  9
$TDUSRTIMER
 40
0.0
  9
$USRTIMER
 70
     1
  9
$ANGBASE
 50
0.0
  9
$ANGDIR
 70
     0
  9
$PDMODE
 70
     0
  9
$PDSIZE
 40
-1.0
  9
$PLINEWID
 40
0.0
  9
$SPLFRAME
 70
     0
  9
$SPLINETYPE
 70
     6
  9
$SPLINESEGS
 70
     8
  9
$HANDSEED
  5
49F
  9
$SURFTAB1
 70
     6
  9
$SURFTAB2
 70
     6
  9
$SURFTYPE
 70
     6
  9
$SURFU
 70
     6
  9
$SURFV
 70
     6
  9
$UCSBASE
  2

  9
$UCSNAME
  2

  9
$UCSORG
 10
0.0
 20
0.0
 30
0.0
  9
$UCSXDIR
 10
1.0
 20
0.0
 30
0.0
  9
$UCSYDIR
 10
0.0
 20
1.0
 30
0.0
  9
$UCSORTHOREF
  2

  9
$UCSORTHOVIEW
 70
     0
  9
$UCSORGTOP
 10
0.0
 20
0.0
 30
0.0
  9
$UCSORGBOTTOM
 10
0.0
 20
0.0
 30
0.0
  9
$UCSORGLEFT
 10
0.0
 20
0.0
 30
0.0
  9
$UCSORGRIGHT
 10
0.0
 20
0.0
 30
0.0
  9
$UCSORGFRONT
 10
0.0
 20
0.0
 30
0.0
  9
$UCSORGBACK
 10
0.0
 20
0.0
 30
0.0
  9
$PUCSBASE
  2

  9
$PUCSNAME
  2

  9
$PUCSORG
 10
0.0
 20
0.0
 30
0.0
  9
$PUCSXDIR
 10
1.0
 20
0.0
 30
0.0
  9
$PUCSYDIR
 10
0.0
 20
1.0
 30
0.0
  9
$PUCSORTHOREF
  2

  9
$PUCSORTHOVIEW
 70
     0
  9
$PUCSORGTOP
 10
0.0
 20
0.0
 30
0.0
  9
$PUCSORGBOTTOM
 10
0.0
 20
0.0
 30
0.0
  9
$PUCSORGLEFT
 10
0.0
 20
0.0
 30
0.0
  9
$PUCSORGRIGHT
 10
0.0
 20
0.0
 30
0.0
  9
$PUCSORGFRONT
 10
0.0
 20
0.0
 30
0.0
  9
$PUCSORGBACK
 10
0.0
 20
0.0
 30
0.0
  9
$USERI1
 70
     0
  9
$USERI2
 70
     0
  9
$USERI3
 70
     0
  9
$USERI4
 70
     0
  9
$USERI5
 70
     0
  9
$USERR1
 40
0.0
  9
$USERR2
 40
0.0
  9
$USERR3
 40
0.0
  9
$USERR4
 40
0.0
  9
$USERR5
 40
0.0
  9
$WORLDVIEW
 70
     1
  9
$SHADEDGE
 70
     3
  9
$SHADEDIF
 70
    70
  9
$TILEMODE
 70
     1
  9
$MAXACTVP
 70
    16
  9
$PINSBASE
 10
0.0
 20
0.0
 30
0.0
  9
$PLIMCHECK
 70
     0
  9
$PEXTMIN
 10
1.000000000000000E+20
 20
1.000000000000000E+20
 30
1.000000000000000E+20
  9
$PEXTMAX
 10
-1.000000000000000E+20
 20
-1.000000000000000E+20
 30
-1.000000000000000E+20
  9
$PLIMMIN
 10
0.0
 20
0.0
  9
$PLIMMAX
 10
12.0
 20
9.0
  9
$UNITMODE
 70
     0
  9
$VISRETAIN
 70
     0
  9
$PLINEGEN
 70
     1
  9
$PSLTSCALE
 70
     1
  9
$TREEDEPTH
 70
  3020
  9
$CMLSTYLE
  2
STANDARD
  9
$CMLJUST
 70
     0
  9
$CMLSCALE
 40
1.0
  9
$PROXYGRAPHICS
 70
     1
  9
$MEASUREMENT
 70
     0
  9
$CELWEIGHT
370
    -1
  9
$ENDCAPS
280
     0
  9
$JOINSTYLE
280
     0
  9
$LWDISPLAY
290
     0
  9
$INSUNITS
 70
     0
  9
$HYPERLINKBASE
  1

  9
$STYLESHEET
  1

  9
$XEDIT
290
     1
  9
$CEPSNTYPE
380
     0
  9
$PSTYLEMODE
290
     1
  9
$FINGERPRINTGUID
  2
{997AEC11-80AB-470F-AE36-3EE2088C639D}
  9
$VERSIONGUID
  2
{FAEB1C32-E019-11D5-929B-00C0DF256EC4}
  9
$EXTNAMES
290
     1
  9
$PSVPSCALE
 40
0.0
  9
$OLESTARTUP
290
     0
  0
ENDSEC
  0
SECTION
  2
CLASSES
  0
CLASS
  1
LWPOLYLINE
  2
AcDbPolyline
  3
ObjectDBX Classes
 90
        0
280
     0
281
     1
  0
CLASS
  1
IMAGE
  2
AcDbRasterImage
  3
ISM
 90
      127
280
     0
281
     1
  0
CLASS
  1
OLE2FRAME
  2
AcDbOle2Frame
  3
ObjectDBX Classes
 90
        0
280
     0
281
     1
  0
CLASS
  1
HATCH
  2
AcDbHatch
  3
ObjectDBX Classes
 90
        0
280
     0
281
     1
  0
CLASS
  1
DICTIONARYVAR
  2
AcDbDictionaryVar
  3
ObjectDBX Classes
 90
        0
280
     0
281
     0
  0
CLASS
  1
RASTERVARIABLES
  2
AcDbRasterVariables
  3
ISM
 90
        0
280
     0
281
     0
  0
CLASS
  1
IMAGEDEF
  2
AcDbRasterImageDef
  3
ISM
 90
        0
280
     0
281
     0
  0
CLASS
  1
IMAGEDEF_REACTOR
  2
AcDbRasterImageDefReactor
  3
ISM
 90
        1
280
     0
281
     0
  0
CLASS
  1
IDBUFFER
  2
AcDbIdBuffer
  3
ObjectDBX Classes
 90
        0
280
     0
281
     0
  0
CLASS
  1
SPATIAL_FILTER
  2
AcDbSpatialFilter
  3
ObjectDBX Classes
 90
        0
280
     0
281
     0
  0
CLASS
  1
XRECORD
  2
AcDbXrecord
  3
ObjectDBX Classes
 90
        0
280
     0
281
     0
  0
CLASS
  1
SORTENTSTABLE
  2
AcDbSortentsTable
  3
ObjectDBX Classes
 90
        0
280
     0
281
     0
  0
CLASS
  1
LAYER_INDEX
  2
AcDbLayerIndex
  3
ObjectDBX Classes
 90
        0
280
     0
281
     0
  0
CLASS
  1
SPATIAL_INDEX
  2
AcDbSpatialIndex
  3
AutoCAD 2000
 90
        0
280
     0
281
     0
  0
CLASS
  1
OBJECT_PTR
  2
CAseDLPNTableRecord
  3
ASE-LPNTableRecord
 90
        1
280
     0
281
     0
  0
CLASS
  1
LAYOUT
  2
AcDbLayout
  3
ObjectDBX Classes
 90
        0
280
     0
281
     0
  0
CLASS
  1
PLOTSETTINGS
  2
AcDbPlotSettings
  3
ObjectDBX Classes
 90
        0
280
     0
281
     0
  0
CLASS
  1
ACDBDICTIONARYWDFLT
  2
AcDbDictionaryWithDefault
  3
ObjectDBX Classes
 90
        0
280
     0
281
     0
  0
CLASS
  1
ACDBPLACEHOLDER
  2
AcDbPlaceHolder
  3
ObjectDBX Classes
 90
        0
280
     0
281
     0
  0
CLASS
  1
VBA_PROJECT
  2
AcDbVbaProject
  3
ObjectDBX Classes
 90
        0
280
     0
281
     0
  0
CLASS
  1
WIPEOUT
  2
AcDbWipeout
  3
WipeOut|AutoCAD Express Tool|expresstools@autodesk.com
 90
      127
280
     0
281
     1
  0
CLASS
  1
WIPEOUTVARIABLES
  2
AcDbWipeoutVariables
  3
WipeOut|AutoCAD Express Tool|expresstools@autodesk.com
 90
        0
280
     0
281
     0
  0
CLASS
  1
RTEXT
  2
RText
  3
RText|AutoCAD Express Tool|expresstools@autodesk.com
 90
        0
280
     0
281
     1
  0
CLASS
  1
ARCALIGNEDTEXT
  2
AcDbArcAlignedText
  3
ATEXT|AutoCAD Express Tool|expresstools@autodesk.com
 90
        0
280
     0
281
     1
  0
CLASS
  1
SCALE
  2
AcDbScale
  3
ObjectDBX Classes
 90
     1153
280
     0
281
     0
  0
CLASS
  1
VISUALSTYLE
  2
AcDbVisualStyle
  3
ObjectDBX Classes
 90
     4095
280
     0
281
     0
  0
CLASS
  1
MATERIAL
  2
AcDbMaterial
  3
ObjectDBX Classes
 90
     1153
280
     0
281
     0
  0
ENDSEC
  0
SECTION
  2
TABLES
  0
TABLE
  2
VPORT
  5
7
102
{ACAD_XDICTIONARY
360
464
102
}
330
0
100
AcDbSymbolTable
 70
     1
  0
VPORT
  5
15
330
7
100
AcDbSymbolTableRecord
100
AcDbViewportTableRecord
  2
*ACTIVE
 70
     0
 10
0.0
 20
0.0
 11
1.0
 21
1.0
 12
105.0
 22
148.5
 13
0.0
 23
0.0
 14
1.0
 24
1.0
 15
0.0
 25
0.0
 16
0.0
 26
0.0
 36
1.0
 17
0.0
 27
0.0
 37
0.0
 40
297.0
 41
1.4142857143
 42
50.0
 43
0.0
 44
0.0
 50
0.0
 51
0.0
 71
     0
 72
  2000
 73
     1
 74
     1
 75
     0
 76
     0
 77
     0
 78
     0
281
     0
 65
     1
110
0.0
120
0.0
130
0.0
111
1.0
121
0.0
131
0.0
112
0.0
122
1.0
132
0.0
 79
     0
146
0.0
  0
ENDTAB
  0
TABLE
  2
LTYPE
  5
4
330
0
100
AcDbSymbolTable
 70
     6
  0
LTYPE
  5
11
330
4
100
AcDbSymbolTableRecord
100
AcDbLinetypeTableRecord
  2
BYBLOCK
 70
     0
  3

 72
    65
 73
     0
 40
0.0
  0
LTYPE
  5
12
330
4
100
AcDbSymbolTableRecord
100
AcDbLinetypeTableRecord
  2
BYLAYER
 70
     0
  3

 72
    65
 73
     0
 40
0.0
  0
LTYPE
  5
13
330
4
100
AcDbSymbolTableRecord
100
AcDbLinetypeTableRecord
  2
CONTINUOUS
 70
     0
  3
Solid line
 72
    65
 73
     0
 40
0.0
  0
LTYPE
  5
1D
330
4
100
AcDbSymbolTableRecord
100
AcDbLinetypeTableRecord
  2
HIDDEN
 70
     0
  3
Hidden __ __ __ __ __ __ __ __ __ __ __ __ __ __
 72
    65
 73
     2
 40
1.905
 49
1.27
 74
     0
 49
-0.635
 74
     0
  0
LTYPE
  5
1E
330
4
100
AcDbSymbolTableRecord
100
AcDbLinetypeTableRecord
  2
PHANTOM
 70
     0
  3
Phantom ______  __  __  ______  __  __  ______
 72
    65
 73
     6
 40
12.7
 49
6.35
 74
     0
 49
-1.27
 74
     0
 49
1.27
 74
     0
 49
-1.27
 74
     0
 49
1.27
 74
     0
 49
-1.27
 74
     0
  0
LTYPE
  5
1F
330
4
100
AcDbSymbolTableRecord
100
AcDbLinetypeTableRecord
  2
CENTER
 70
     0
  3
Center ____ _ ____ _ ____ _ ____ _ ____ _ ____
 72
    65
 73
     4
 40
10.16
 49
6.35
 74
     0
 49
-1.27
 74
     0
 49
1.27
 74
     0
 49
-1.27
 74
     0
  0
LTYPE
  5
20
330
4
100
AcDbSymbolTableRecord
100
AcDbLinetypeTableRecord
  2
CENTERX2
 70
     0
  3
Center (2x) ________  __  ________  __  _____
 72
    65
 73
     4
 40
20.32
 49
12.7
 74
     0
 49
-2.54
 74
     0
 49
2.54
 74
     0
 49
-2.54
 74
     0
  0
LTYPE
  5
21
330
4
100
AcDbSymbolTableRecord
100
AcDbLinetypeTableRecord
  2
DOT2
 70
     0
  3
Dot (.5x) ........................................
 72
    65
 73
     2
 40
0.635
 49
0.0
 74
     0
 49
-0.635
 74
     0
  0
LTYPE
  5
48E
330
5
100
AcDbSymbolTableRecord
100
AcDbLinetypeTableRecord
  2
DASH
 70
     0
  3
DASH _ _ _ _ _
 72
    65
 73
     2
 40
0.75
 49
0.40
 74
     0
 49
-0.35
 74
     0
  0
LTYPE
  5
48F
330
5
100
AcDbSymbolTableRecord
100
AcDbLinetypeTableRecord
  2
LONGDASH_DASH
 70
     0
  3
LONGDASH_DASH __ . __ . __
 72
    65
 73
     4
 40
0.85
 49
0.40
 74
     0
 49
-0.20
 74
     0
 49
0.05
 74
     0
 49
-0.20
 74
     0
  0
LTYPE
  5
490
330
5
100
AcDbSymbolTableRecord
100
AcDbLinetypeTableRecord
  2
LONGDASH_DASH_DASH
 70
     0
  3
LONGDASH_DASH_DASH __ . . __ . . __
 72
    65
 73
     6
 40
1.10
 49
0.40
 74
     0
 49
-0.20
 74
     0
 49
0.05
 74
     0
 49
-0.20
 74
     0
 49
0.05
 74
     0
 49
-0.20
 74
     0
  0
ENDTAB
  0
TABLE
  2
LAYER
  5
2
330
0
100
AcDbSymbolTable
 70
     8
  0
LAYER
  5
23
330
2
100
AcDbSymbolTableRecord
100
AcDbLayerTableRecord
  2
DEFPOINTS
 70
     0
 62
     7
  6
CONTINUOUS
290
     0
370
    -3
390
0
  0
LAYER
  5
491
330
2
100
AcDbSymbolTableRecord
100
AcDbLayerTableRecord
  2
0
 70
     0
 62
     -1
  6
CONTINUOUS
370
    -3
390
F
  0
LAYER
  5
492
330
2
100
AcDbSymbolTableRecord
100
AcDbLayerTableRecord
  2
1
 70
     0
 62
     4
  6
CONTINUOUS
370
    50
390
F
  0
LAYER
  5
493
330
2
100
AcDbSymbolTableRecord
100
AcDbLayerTableRecord
  2
2
 70
     0
 62
     7
  6
CONTINUOUS
370
    25
390
F
  0
LAYER
  5
494
330
2
100
AcDbSymbolTableRecord
100
AcDbLayerTableRecord
  2
3
 70
     0
 62
     1
  6
DASH
370
    35
390
F
  0
LAYER
  5
495
330
2
100
AcDbSymbolTableRecord
100
AcDbLayerTableRecord
  2
4
 70
     0
 62
     2
  6
LONGDASH_DASH
370
    25
390
F
  0
LAYER
  5
496
330
2
100
AcDbSymbolTableRecord
100
AcDbLayerTableRecord
  2
6
 70
     0
 62
     5
  6
CONTINUOUS
370
    -3
390
F
  0
LAYER
  5
497
330
2
100
AcDbSymbolTableRecord
100
AcDbLayerTableRecord
  2
CUT
 70
     0
 62
     1
  6
CONTINUOUS
370
    25
390
F
  0
LAYER
  5
498
330
2
100
AcDbSymbolTableRecord
100
AcDbLayerTableRecord
  2
NOCUT
 70
     0
 62
     7
  6
CONTINUOUS
370
    25
390
F
  0
LAYER
  5
499
330
2
100
AcDbSymbolTableRecord
100
AcDbLayerTableRecord
  2
SK1
 70
     0
 62
     4
  6
CONTINUOUS
370
    50
390
F
  0
LAYER
  5
49A
330
2
100
AcDbSymbolTableRecord
100
AcDbLayerTableRecord
  2
SK2
 70
     0
 62
     7
  6
CONTINUOUS
370
    25
390
F
  0
LAYER
  5
49B
330
2
100
AcDbSymbolTableRecord
100
AcDbLayerTableRecord
  2
SK3
 70
     0
 62
     1
  6
DASH
370
    35
390
F
  0
LAYER
  5
49C
330
2
100
AcDbSymbolTableRecord
100
AcDbLayerTableRecord
  2
SK4
 70
     0
 62
     2
  6
LONGDASH_DASH
370
    25
390
F
  0
LAYER
  5
49D
330
2
100
AcDbSymbolTableRecord
100
AcDbLayerTableRecord
  2
SK6
 70
     0
 62
     5
  6
CONTINUOUS
370
    -3
390
F
  0
LAYER
  5
49E
330
2
100
AcDbSymbolTableRecord
100
AcDbLayerTableRecord
  2
INFTOTAL
 70
     0
 62
     9
  6
CONTINUOUS
370
    18
390
F
  0
ENDTAB
  0
TABLE
  2
STYLE
  5
3
330
0
100
AcDbSymbolTable
 70
     2
  0
STYLE
  5
17
330
3
100
AcDbSymbolTableRecord
100
AcDbTextStyleTableRecord
  2
STANDARD
 70
     0
 40
0.0
 41
1.0
 50
0.0
 71
     0
 42
0.2
  3
txt
  4

  0
STYLE
  5
45C
330
3
100
AcDbSymbolTableRecord
100
AcDbTextStyleTableRecord
  2
BMG_Text
 70
     0
 40
3.5
 41
1.0
 50
0.0
 71
     0
 42
0.0
  3
monos.ttf
  4

1001
ACAD
1000
Monospac821 BT
1071
       49
  0
ENDTAB
  0
TABLE
  2
VIEW
  5
5
330
0
100
AcDbSymbolTable
 70
     0
  0
ENDTAB
  0
TABLE
  2
UCS
  5
6
330
0
100
AcDbSymbolTable
 70
     0
  0
ENDTAB
  0
TABLE
  2
APPID
  5
8
330
0
100
AcDbSymbolTable
 70
     1
  0
APPID
  5
16
330
8
100
AcDbSymbolTableRecord
100
AcDbRegAppTableRecord
  2
ACAD
 70
     0
  0
ENDTAB
  0
TABLE
  2
DIMSTYLE
  5
9
330
0
100
AcDbSymbolTable
 70
     1
100
AcDbDimStyleTable
  0
DIMSTYLE
105
18
330
9
100
AcDbSymbolTableRecord
100
AcDbDimStyleTableRecord
  2
STANDARD
 70
     0
178
     0
340
17
  0
ENDTAB
  0
TABLE
  2
BLOCK_RECORD
  5
1
330
0
100
AcDbSymbolTable
 70
     0
  0
BLOCK_RECORD
  5
A
330
1
100
AcDbSymbolTableRecord
100
AcDbBlockTableRecord
  2
*MODEL_SPACE
340
445
  0
BLOCK_RECORD
  5
B
330
1
100
AcDbSymbolTableRecord
100
AcDbBlockTableRecord
  2
*PAPER_SPACE
340
446
  0
ENDTAB
  0
ENDSEC
  0
SECTION
  2
BLOCKS
  0
BLOCK
  5
D
330
A
100
AcDbEntity
  8
0
100
AcDbBlockBegin
  2
*MODEL_SPACE
 70
     0
 10
0.0
 20
0.0
 30
0.0
  3
*MODEL_SPACE
  1

  0
ENDBLK
  5
E
330
A
100
AcDbEntity
  8
0
100
AcDbBlockEnd
  0
BLOCK
  5
F
330
B
100
AcDbEntity
 67
     1
  8
0
100
AcDbBlockBegin
  2
*PAPER_SPACE
 70
     0
 10
0.0
 20
0.0
 30
0.0
  3
*PAPER_SPACE
  1

  0
ENDBLK
  5
10
330
B
100
AcDbEntity
 67
     1
  8
0
100
AcDbBlockEnd
  0
ENDSEC
  0
SECTION
  2
ENTITIES
  0
ARC
  5
29
330
A
100
AcDbEntity
  8
1
  6
CONTINUOUS
370
    50
100
AcDbCircle
 10
122.9244648571
 20
154.9765001496
 30
0.0
 40
5.0
100
AcDbArc
 50
79.5919151083
 51
140.9629620286
  0
ARC
  5
2A
330
A
100
AcDbEntity
  8
1
  6
CONTINUOUS
370
    50
100
AcDbCircle
 10
122.9244648571
 20
206.4765001496
 30
0.0
 40
5.0
100
AcDbArc
 50
190.9457348333
 51
280.4080848917
  0
ARC
  5
2B
330
A
100
AcDbEntity
  8
1
  6
CONTINUOUS
370
    50
100
AcDbCircle
 10
99.6744648571
 20
158.3015001496
 30
0.0
 40
0.5
100
AcDbArc
 50
66.4218215218
 51
90.0
  0
ARC
  5
2C
330
A
100
AcDbEntity
  8
1
  6
CONTINUOUS
370
    50
100
AcDbCircle
 10
99.6744648571
 20
203.1515001496
 30
0.0
 40
0.5
100
AcDbArc
 50
270.0
 51
293.5781784782001
  0
LINE
  5
2D
330
A
100
AcDbEntity
  8
1
  6
CONTINUOUS
370
    50
100
AcDbLine
 10
98.8744648571
 20
202.9515001496
 30
0.0
 11
31.4069862156
 21
193.1124928475
 31
0.0
  0
LINE
  5
2E
330
A
100
AcDbEntity
  8
1
  6
CONTINUOUS
370
    50
100
AcDbLine
 10
31.4069862156
 20
168.3405074517
 30
0.0
 11
98.8744648571
 21
158.5015001496
 31
0.0
  0
LINE
  5
2F
330
A
100
AcDbEntity
  8
1
  6
CONTINUOUS
370
    50
100
AcDbLine
 10
98.8744648571
 20
158.5015001496
 30
0.0
 11
99.4173551337
 21
158.7546540431
 31
0.0
  0
LINE
  5
30
330
A
100
AcDbEntity
  8
1
  6
CONTINUOUS
370
    50
100
AcDbLine
 10
99.4173551337
 20
202.6983462561
 30
0.0
 11
98.8744648571
 21
202.9515001496
 31
0.0
  0
ARC
  5
31
330
A
100
AcDbEntity
  8
1
  6
CONTINUOUS
370
    50
100
AcDbCircle
 10
99.6286642646
 20
158.3015001496
 30
0.0
 40
0.5
100
AcDbArc
 50
90.0
 51
115.0
  0
ARC
  5
32
330
A
100
AcDbEntity
  8
1
  6
CONTINUOUS
370
    50
100
AcDbCircle
 10
99.6286642646
 20
203.1515001496
 30
0.0
 40
0.5
100
AcDbArc
 50
245.0
 51
270.0
  0
LINE
  5
33
330
A
100
AcDbEntity
  8
1
  6
CONTINUOUS
370
    50
100
AcDbLine
 10
123.8277545233
 20
159.8942300912
 30
0.0
 11
177.8413367531
 21
164.1451912044
 31
0.0
  0
LINE
  5
34
330
A
100
AcDbEntity
  8
1
  6
CONTINUOUS
370
    50
100
AcDbLine
 10
177.8413367531
 20
197.3078090947
 30
0.0
 11
123.8277545233
 21
201.5587702079
 31
0.0
  0
ARC
  5
35
330
A
100
AcDbEntity
  8
1
  6
CONTINUOUS
370
    50
100
AcDbCircle
 10
176.8744648571
 20
165.8959506787
 30
0.0
 40
2.0
100
AcDbArc
 50
298.9100507074999
 51
0.0
  0
ARC
  5
36
330
A
100
AcDbEntity
  8
1
  6
CONTINUOUS
370
    50
100
AcDbCircle
 10
176.8744648571
 20
195.5570496205
 30
0.0
 40
2.0
100
AcDbArc
 50
0.0
 51
61.08994929250002
  0
ARC
  5
37
330
A
100
AcDbEntity
  8
1
  6
CONTINUOUS
370
    50
100
AcDbCircle
 10
31.5744648571
 20
169.2761323326
 30
0.0
 40
0.95
100
AcDbArc
 50
180.0
 51
258.0
  0
ARC
  5
38
330
A
100
AcDbEntity
  8
1
  6
CONTINUOUS
370
    50
100
AcDbCircle
 10
31.5744648571
 20
192.1768679666
 30
0.0
 40
0.95
100
AcDbArc
 50
102.0
 51
180.0
  0
LINE
  5
39
330
A
100
AcDbEntity
  8
1
  6
CONTINUOUS
370
    50
100
AcDbLine
 10
117.9244648571
 20
199.0765001496
 30
0.0
 11
117.9244648571
 21
150.6535449954
 31
0.0
  0
LINE
  5
3A
330
A
100
AcDbEntity
  8
1
  6
CONTINUOUS
370
    50
100
AcDbLine
 10
117.9244648571
 20
150.6535449954
 30
0.0
 11
117.4244648571
 21
150.2494185971
 31
0.0
  0
LINE
  5
3B
330
A
100
AcDbEntity
  8
1
  6
CONTINUOUS
370
    50
100
AcDbLine
 10
117.4244648571
 20
150.2494185971
 30
0.0
 11
117.4244648571
 21
199.0765001496
 31
0.0
  0
LINE
  5
3C
330
A
100
AcDbEntity
  8
1
  6
CONTINUOUS
370
    50
100
AcDbLine
 10
117.4244648571
 20
199.0765001496
 30
0.0
 11
117.9244648571
 21
199.0765001496
 31
0.0
  0
LINE
  5
3D
330
A
100
AcDbEntity
  8
1
  6
CONTINUOUS
370
    50
100
AcDbLine
 10
100.3744648571
 20
199.0765001496
 30
0.0
 11
100.3744648571
 21
150.6765417469
 31
0.0
  0
LINE
  5
3E
330
A
100
AcDbEntity
  8
1
  6
CONTINUOUS
370
    50
100
AcDbLine
 10
100.3744648571
 20
150.6765417469
 30
0.0
 11
99.8744648571
 21
151.3836986473
 31
0.0
  0
LINE
  5
3F
330
A
100
AcDbEntity
  8
1
  6
CONTINUOUS
370
    50
100
AcDbLine
 10
99.8744648571
 20
151.3836986473
 30
0.0
 11
99.8744648571
 21
199.0765001496
 31
0.0
  0
LINE
  5
40
330
A
100
AcDbEntity
  8
1
  6
CONTINUOUS
370
    50
100
AcDbLine
 10
99.8744648571
 20
199.0765001496
 30
0.0
 11
100.3744648571
 21
199.0765001496
 31
0.0
  0
LINE
  5
41
330
A
100
AcDbEntity
  8
1
  6
CONTINUOUS
370
    50
100
AcDbLine
 10
106.452628215
 20
150.2494185971
 30
0.0
 11
106.452628215
 21
199.0765001496
 31
0.0
  0
LINE
  5
42
330
A
100
AcDbEntity
  8
1
  6
CONTINUOUS
370
    50
100
AcDbLine
 10
106.452628215
 20
150.2494185971
 30
0.0
 11
101.7244648546
 21
150.2494185971
 31
0.0
  0
LWPOLYLINE
  5
43
330
A
100
AcDbEntity
  8
1
  6
CONTINUOUS
370
    50
100
AcDbPolyline
 90
        3
 70
   128
 43
0.0
 10
100.3744648571
 20
150.6765417469
 10
101.0470835046
 20
150.4554534807
 10
101.7244648546
 20
150.2494185971
  0
LINE
  5
48
330
A
100
AcDbEntity
  8
1
  6
CONTINUOUS
370
    50
100
AcDbLine
 10
106.452628215
 20
199.0765001496
 30
0.0
 11
100.3744648571
 21
199.0765001496
 31
0.0
  0
LINE
  5
49
330
A
100
AcDbEntity
  8
1
  6
CONTINUOUS
370
    50
100
AcDbLine
 10
113.4963014991
 20
150.2494185971
 30
0.0
 11
113.4963014991
 21
199.0765001496
 31
0.0
  0
LINE
  5
4A
330
A
100
AcDbEntity
  8
1
  6
CONTINUOUS
370
    50
100
AcDbLine
 10
117.4244648571
 20
199.0765001496
 30
0.0
 11
113.4963014991
 21
199.0765001496
 31
0.0
  0
LINE
  5
4B
330
A
100
AcDbEntity
  8
1
  6
CONTINUOUS
370
    50
100
AcDbLine
 10
117.4244648571
 20
150.2494185971
 30
0.0
 11
113.4963014991
 21
150.2494185971
 31
0.0
  0
LINE
  5
4C
330
A
100
AcDbEntity
  8
1
  6
CONTINUOUS
370
    50
100
AcDbLine
 10
113.4963014991
 20
150.2494185971
 30
0.0
 11
112.8908026738
 21
151.0994185996
 31
0.0
  0
LWPOLYLINE
  5
4D
330
A
100
AcDbEntity
  8
1
  6
CONTINUOUS
370
    50
100
AcDbPolyline
 90
        3
 70
   128
 43
0.0
 10
111.8994648571
 20
152.8826278906
 10
112.4786302489
 20
151.839856842
 10
112.8908026738
 20
151.0994185996
  0
LINE
  5
52
330
A
100
AcDbEntity
  8
1
  6
CONTINUOUS
370
    50
100
AcDbLine
 10
111.8994648571
 20
199.0765001496
 30
0.0
 11
111.8994648571
 21
152.8826278906
 31
0.0
  0
LINE
  5
53
330
A
100
AcDbEntity
  8
1
  6
CONTINUOUS
370
    50
100
AcDbLine
 10
113.4963014991
 20
199.0765001496
 30
0.0
 11
111.8994648571
 21
199.0765001496
 31
0.0
  0
LINE
  5
54
330
A
100
AcDbEntity
  8
1
  6
CONTINUOUS
370
    50
100
AcDbLine
 10
107.0581270403
 20
151.0994185996
 30
0.0
 11
106.452628215
 21
150.2494185971
 31
0.0
  0
LINE
  5
55
330
A
100
AcDbEntity
  8
1
  6
CONTINUOUS
370
    50
100
AcDbLine
 10
108.0494648571
 20
199.0765001496
 30
0.0
 11
106.452628215
 21
199.0765001496
 31
0.0
  0
LINE
  5
56
330
A
100
AcDbEntity
  8
1
  6
CONTINUOUS
370
    50
100
AcDbLine
 10
108.0494648571
 20
152.8826278906
 30
0.0
 11
108.0494648571
 21
199.0765001496
 31
0.0
  0
LWPOLYLINE
  5
57
330
A
100
AcDbEntity
  8
1
  6
CONTINUOUS
370
    50
100
AcDbPolyline
 90
        3
 70
   128
 43
0.0
 10
107.0581270403
 20
151.0994185996
 10
107.4702994653
 20
151.839856842
 10
108.0494648571
 20
152.8826278906
  0
ARC
  5
5C
330
A
100
AcDbEntity
  8
1
  6
CONTINUOUS
370
    50
100
AcDbCircle
 10
108.5608607958
 20
153.3972704785
 30
0.0
 40
0.5114987785
100
AcDbArc
 50
91.2766271414
 51
181.1489553381
  0
LINE
  5
5D
330
A
100
AcDbEntity
  8
1
  6
CONTINUOUS
370
    50
100
AcDbLine
 10
108.0494648571
 20
199.0765001496
 30
0.0
 11
108.5494648571
 21
199.0765001496
 31
0.0
  0
LINE
  5
5E
330
A
100
AcDbEntity
  8
1
  6
CONTINUOUS
370
    50
100
AcDbLine
 10
108.5494648571
 20
199.0765001496
 30
0.0
 11
108.5494648571
 21
153.9086422933
 31
0.0
  0
ARC
  5
5F
330
A
100
AcDbEntity
  8
1
  6
CONTINUOUS
370
    50
100
AcDbCircle
 10
111.3897623666
 20
153.3988937114
 30
0.0
 40
0.5098409115
100
AcDbArc
 50
358.6648465174
 51
88.9095710031
  0
LINE
  5
60
330
A
100
AcDbEntity
  8
1
  6
CONTINUOUS
370
    50
100
AcDbLine
 10
111.3994648571
 20
199.0765001496
 30
0.0
 11
111.3994648571
 21
153.9086422933
 31
0.0
  0
LINE
  5
61
330
A
100
AcDbEntity
  8
1
  6
CONTINUOUS
370
    50
100
AcDbLine
 10
111.3994648571
 20
199.0765001496
 30
0.0
 11
111.8994648571
 21
199.0765001496
 31
0.0
  0
ARC
  5
62
330
A
100
AcDbEntity
  8
1
  6
CONTINUOUS
370
    50
100
AcDbCircle
 10
110.847456323
 20
171.94204872
 30
0.0
 40
7.2856565303
100
AcDbArc
 50
346.2547599658
 51
13.7452400342
  0
LINE
  5
63
330
A
100
AcDbEntity
  8
1
  6
CONTINUOUS
370
    50
100
AcDbLine
 10
111.3994648571
 20
153.9086422933
 30
0.0
 11
108.5494648571
 21
153.9086422933
 31
0.0
  0
LINE
  5
64
330
A
100
AcDbEntity
  8
1
  6
CONTINUOUS
370
    50
100
AcDbLine
 10
108.5494648571
 20
199.0765001496
 30
0.0
 11
111.3994648571
 21
199.0765001496
 31
0.0
  0
LINE
  5
65
330
A
100
AcDbEntity
  8
1
  6
CONTINUOUS
370
    50
100
AcDbLine
 10
123.8277545233
 20
159.8942300912
 30
0.0
 11
123.8277545233
 21
201.5587702079
 31
0.0
  0
LINE
  5
66
330
A
100
AcDbEntity
  8
1
  6
CONTINUOUS
370
    50
100
AcDbLine
 10
117.9244648571
 20
205.5265001496
 30
0.0
 11
118.0154275597
 21
205.527104124
 31
0.0
  0
LINE
  5
67
330
A
100
AcDbEntity
  8
1
  6
CONTINUOUS
370
    50
100
AcDbLine
 10
119.041489194
 20
158.1265001496
 30
0.0
 11
118.3420040233
 21
158.1265001496
 31
0.0
  0
LINE
  5
68
330
A
100
AcDbEntity
  8
1
  6
CONTINUOUS
370
    50
100
AcDbLine
 10
118.3420040233
 20
158.1265001496
 30
0.0
 11
118.0362407381
 21
157.3765001496
 31
0.0
  0
LINE
  5
69
330
A
100
AcDbEntity
  8
1
  6
CONTINUOUS
370
    50
100
AcDbLine
 10
31.4069862156
 20
193.1124928475
 30
0.0
 11
31.4069862156
 21
168.3405074517
 31
0.0
  0
LINE
  5
6A
330
A
100
AcDbEntity
  8
1
  6
CONTINUOUS
370
    50
100
AcDbLine
 10
98.8744648571
 20
158.5015001496
 30
0.0
 11
98.8744648571
 21
202.9515001496
 31
0.0
  0
LINE
  5
6B
330
A
100
AcDbEntity
  8
1
  6
CONTINUOUS
370
    50
100
AcDbLine
 10
177.8413367531
 20
197.3078090947
 30
0.0
 11
177.8413367531
 21
164.1451912044
 31
0.0
  0
LINE
  5
6C
330
A
100
AcDbEntity
  8
1
  6
CONTINUOUS
370
    50
100
AcDbLine
 10
117.9244648571
 20
201.2088706179
 30
0.0
 11
116.9244648571
 21
201.2088706179
 31
0.0
  0
LINE
  5
6D
330
A
100
AcDbEntity
  8
1
  6
CONTINUOUS
370
    50
100
AcDbLine
 10
116.9244648571
 20
199.0765001496
 30
0.0
 11
116.9244648571
 21
201.2088706179
 31
0.0
  0
LINE
  5
6E
330
A
100
AcDbEntity
  8
1
  6
CONTINUOUS
370
    50
100
AcDbLine
 10
117.9244648571
 20
201.2088706179
 30
0.0
 11
117.9244648571
 21
199.0765001496
 31
0.0
  0
LINE
  5
6F
330
A
100
AcDbEntity
  8
1
  6
CONTINUOUS
370
    50
100
AcDbLine
 10
100.3744648571
 20
206.6367297896
 30
0.0
 11
99.8744648571
 21
206.0215589556
 31
0.0
  0
LINE
  5
70
330
A
100
AcDbEntity
  8
1
  6
CONTINUOUS
370
    50
100
AcDbLine
 10
100.3744648571
 20
206.6367297896
 30
0.0
 11
106.452628215
 21
206.6367297896
 31
0.0
  0
LINE
  5
71
330
A
100
AcDbEntity
  8
1
  6
CONTINUOUS
370
    50
100
AcDbLine
 10
106.452628215
 20
206.6367297896
 30
0.0
 11
108.0494648571
 21
203.1622132511
 31
0.0
  0
LINE
  5
72
330
A
100
AcDbEntity
  8
1
  6
CONTINUOUS
370
    50
100
AcDbLine
 10
108.0494648571
 20
202.5330931893
 30
0.0
 11
108.0494648571
 21
203.1622132511
 31
0.0
  0
ARC
  5
73
330
A
100
AcDbEntity
  8
1
  6
CONTINUOUS
370
    50
100
AcDbCircle
 10
108.6231851679
 20
202.4503811528
 30
0.0
 40
0.5796518576
100
AcDbArc
 50
171.7963139132
 51
262.6933157898
  0
LINE
  5
74
330
A
100
AcDbEntity
  8
1
  6
CONTINUOUS
370
    50
100
AcDbLine
 10
111.3994648571
 20
201.875436293
 30
0.0
 11
108.5494648571
 21
201.875436293
 31
0.0
  0
LWPOLYLINE
  5
75
330
A
100
AcDbEntity
  8
1
  6
CONTINUOUS
370
    50
100
AcDbPolyline
 90
        7
 70
   128
 43
0.0
 10
111.8994648571
 20
202.5330931893
 10
111.8549563288
 20
202.2628733981
 10
111.7500715733
 20
202.0650910019
 10
111.6281639542
 20
201.9486873584
 10
111.557160441
 20
201.9092105982
 10
111.4306821821
 20
201.8767277473
 10
111.3994648571
 20
201.875436293
  0
LINE
  5
7E
330
A
100
AcDbEntity
  8
1
  6
CONTINUOUS
370
    50
100
AcDbLine
 10
111.8994648571
 20
203.1622132511
 30
0.0
 11
111.8994648571
 21
202.5330931893
 31
0.0
  0
LINE
  5
7F
330
A
100
AcDbEntity
  8
1
  6
CONTINUOUS
370
    50
100
AcDbLine
 10
111.8994648571
 20
203.1622132511
 30
0.0
 11
113.4963014991
 21
206.6367297896
 31
0.0
  0
LINE
  5
80
330
A
100
AcDbEntity
  8
1
  6
CONTINUOUS
370
    50
100
AcDbLine
 10
113.4963014991
 20
206.6367297896
 30
0.0
 11
117.4244648571
 21
206.6367297896
 31
0.0
  0
LINE
  5
81
330
A
100
AcDbEntity
  8
1
  6
CONTINUOUS
370
    50
100
AcDbLine
 10
117.9244648571
 20
206.0215589556
 30
0.0
 11
117.4244648571
 21
206.6367297896
 31
0.0
  0
LINE
  5
82
330
A
100
AcDbEntity
  8
1
  6
CONTINUOUS
370
    50
100
AcDbLine
 10
99.8744648571
 20
206.0215589556
 30
0.0
 11
99.8744648571
 21
199.0765001496
 31
0.0
  0
LINE
  5
83
330
A
100
AcDbEntity
  8
1
  6
CONTINUOUS
370
    50
100
AcDbLine
 10
117.9244648571
 20
206.0215589556
 30
0.0
 11
117.9244648571
 21
201.2088706179
 31
0.0
  0
LINE
  5
84
330
A
100
AcDbEntity
  8
1
  6
CONTINUOUS
370
    50
100
AcDbLine
 10
108.5494648571
 20
207.5443580059
 30
0.0
 11
108.5494648571
 21
201.875436293
 31
0.0
  0
ARC
  5
85
330
A
100
AcDbEntity
  8
1
  6
CONTINUOUS
370
    50
100
AcDbCircle
 10
108.5617585107
 20
208.0565903137
 30
0.0
 40
0.5123798114
100
AcDbArc
 50
178.9492610518
 51
268.6251564686
  0
LINE
  5
86
330
A
100
AcDbEntity
  8
1
  6
CONTINUOUS
370
    50
100
AcDbLine
 10
111.3994648571
 20
207.5443580059
 30
0.0
 11
111.3994648571
 21
201.875436293
 31
0.0
  0
LINE
  5
87
330
A
100
AcDbEntity
  8
1
  6
CONTINUOUS
370
    50
100
AcDbLine
 10
111.3994648571
 20
207.5443580059
 30
0.0
 11
108.5494648571
 21
207.5443580059
 31
0.0
  0
ARC
  5
88
330
A
100
AcDbEntity
  8
1
  6
CONTINUOUS
370
    50
100
AcDbCircle
 10
111.3888314488
 20
208.054998907
 30
0.0
 40
0.5107516023
100
AcDbArc
 50
271.1929349483
 51
1.2326475314
  0
LINE
  5
89
330
A
100
AcDbEntity
  8
1
  6
CONTINUOUS
370
    50
100
AcDbLine
 10
106.452628215
 20
211.2035817021
 30
0.0
 11
107.0581270403
 21
210.3535816996
 31
0.0
  0
LINE
  5
8A
330
A
100
AcDbEntity
  8
1
  6
CONTINUOUS
370
    50
100
AcDbLine
 10
107.0581270403
 20
210.3535816996
 30
0.0
 11
108.0494648571
 21
208.5703724086
 31
0.0
  0
LINE
  5
8B
330
A
100
AcDbEntity
  8
1
  6
CONTINUOUS
370
    50
100
AcDbLine
 10
106.452628215
 20
206.6367297896
 30
0.0
 11
106.452628215
 21
211.2035817021
 31
0.0
  0
LINE
  5
8C
330
A
100
AcDbEntity
  8
1
  6
CONTINUOUS
370
    50
100
AcDbLine
 10
108.0494648571
 20
203.1622132511
 30
0.0
 11
108.0494648571
 21
208.5703724086
 31
0.0
  0
LINE
  5
8D
330
A
100
AcDbEntity
  8
1
  6
CONTINUOUS
370
    50
100
AcDbLine
 10
112.8908026738
 20
210.3535816996
 30
0.0
 11
113.4963014991
 21
211.2035817021
 31
0.0
  0
LINE
  5
8E
330
A
100
AcDbEntity
  8
1
  6
CONTINUOUS
370
    50
100
AcDbLine
 10
113.4963014991
 20
206.6367297896
 30
0.0
 11
113.4963014991
 21
211.2035817021
 31
0.0
  0
LINE
  5
8F
330
A
100
AcDbEntity
  8
1
  6
CONTINUOUS
370
    50
100
AcDbLine
 10
111.8994648571
 20
208.5703724086
 30
0.0
 11
112.8908026738
 21
210.3535816996
 31
0.0
  0
LINE
  5
90
330
A
100
AcDbEntity
  8
1
  6
CONTINUOUS
370
    50
100
AcDbLine
 10
111.8994648571
 20
208.5703724086
 30
0.0
 11
111.8994648571
 21
203.1622132511
 31
0.0
  0
LINE
  5
91
330
A
100
AcDbEntity
  8
1
  6
CONTINUOUS
370
    50
100
AcDbLine
 10
117.4244648571
 20
206.6367297896
 30
0.0
 11
117.4244648571
 21
211.2035817021
 31
0.0
  0
LINE
  5
92
330
A
100
AcDbEntity
  8
1
  6
CONTINUOUS
370
    50
100
AcDbLine
 10
117.4244648571
 20
211.2035817021
 30
0.0
 11
117.9244648571
 21
210.7994553037
 31
0.0
  0
LINE
  5
93
330
A
100
AcDbEntity
  8
1
  6
CONTINUOUS
370
    50
100
AcDbLine
 10
117.9244648571
 20
210.7994553037
 30
0.0
 11
117.9244648571
 21
206.0215589556
 31
0.0
  0
LINE
  5
94
330
A
100
AcDbEntity
  8
1
  6
CONTINUOUS
370
    50
100
AcDbLine
 10
101.7244648546
 20
211.2035817021
 30
0.0
 11
106.452628215
 21
211.2035817021
 31
0.0
  0
LINE
  5
95
330
A
100
AcDbEntity
  8
1
  6
CONTINUOUS
370
    50
100
AcDbLine
 10
100.3744648571
 20
210.7764585522
 30
0.0
 11
100.3744648571
 21
206.6367297896
 31
0.0
  0
LWPOLYLINE
  5
96
330
A
100
AcDbEntity
  8
1
  6
CONTINUOUS
370
    50
100
AcDbPolyline
 90
        3
 70
   128
 43
0.0
 10
100.3744648571
 20
210.7764585522
 10
101.0470835046
 20
210.9975468185
 10
101.7244648546
 20
211.2035817021
  0
LINE
  5
9B
330
A
100
AcDbEntity
  8
1
  6
CONTINUOUS
370
    50
100
AcDbLine
 10
99.8744648571
 20
210.0693016518
 30
0.0
 11
100.3744648571
 21
210.7764585522
 31
0.0
  0
LINE
  5
9C
330
A
100
AcDbEntity
  8
1
  6
CONTINUOUS
370
    50
100
AcDbLine
 10
99.8744648571
 20
206.0215589556
 30
0.0
 11
99.8744648571
 21
210.0693016518
 31
0.0
  0
LINE
  5
9D
330
A
100
AcDbEntity
  8
1
  6
CONTINUOUS
370
    50
100
AcDbLine
 10
113.4963014991
 20
211.2035817021
 30
0.0
 11
117.4244648571
 21
211.2035817021
 31
0.0
  0
LINE
  5
9E
330
A
100
AcDbEntity
  8
1
  6
CONTINUOUS
370
    50
100
AcDbLine
 10
178.8744648571
 20
165.8959506847
 30
0.0
 11
178.8744648571
 21
195.5570496205
 31
0.0
  0
LINE
  5
9F
330
A
100
AcDbEntity
  8
1
  6
CONTINUOUS
370
    50
100
AcDbLine
 10
30.6244648571
 20
169.2761323327
 30
0.0
 11
30.6244648571
 21
192.1768679666
 31
0.0
  0
LINE
  5
A0
330
A
100
AcDbEntity
  8
1
  6
CONTINUOUS
370
    50
100
AcDbLine
 10
99.6744648571
 20
158.8015001496
 30
0.0
 11
99.6744648571
 21
202.6515001496
 31
0.0
  0
LINE
  5
A1
330
A
100
AcDbEntity
  8
1
  6
CONTINUOUS
370
    50
100
AcDbLine
 10
99.4173551337
 20
158.7546540431
 30
0.0
 11
99.4173551337
 21
202.6983462561
 31
0.0
  0
LINE
  5
A2
330
A
100
AcDbEntity
  8
1
  6
CONTINUOUS
370
    50
100
AcDbLine
 10
99.6286642646
 20
158.8015001496
 30
0.0
 11
99.6286642646
 21
202.6515001496
 31
0.0
  0
LINE
  5
A3
330
A
100
AcDbEntity
  8
1
  6
CONTINUOUS
370
    50
100
AcDbLine
 10
31.3769487508
 20
168.3468921119
 30
0.0
 11
31.3769487508
 21
193.1061081873
 31
0.0
  0
LWPOLYLINE
  5
A4
330
A
100
AcDbEntity
  8
1
  6
CONTINUOUS
370
    50
100
AcDbPolyline
 90
       22
 70
   128
 43
0.0
 10
116.9244648571
 20
173.6881582593
 10
116.7064501014
 20
173.9485876315
 10
116.4378548021
 20
174.1025530558
 10
116.1341006542
 20
174.1412144378
 10
115.8126280368
 20
174.0623519916
 10
115.4918946544
 20
173.8704936915
 10
115.1903157674
 20
173.5766552932
 10
114.9252068599
 20
173.1977078519
 10
114.7117894519
 20
172.7554090525
 10
114.562317139
 20
172.2751539679
 10
114.4853720387
 20
171.7845169728
 10
114.4853720387
 20
171.3116685309
 10
114.562317139
 20
170.8837577563
 10
114.7117894519
 20
170.5253536176
 10
114.9252068599
 20
170.2570342833
 10
115.1903157674
 20
170.0942056035
 10
115.4918946544
 20
170.0462165663
 10
115.8126280368
 20
170.1158225151
 10
116.1341006542
 20
170.2990269478
 10
116.4378548021
 20
170.5853109799
 10
116.7064501014
 20
170.9582372983
 10
116.9244648571
 20
171.3963939277
  0
LWPOLYLINE
  5
BC
330
A
100
AcDbEntity
  8
1
  6
CONTINUOUS
370
    50
100
AcDbPolyline
 90
        9
 70
   128
 43
0.0
 10
116.9244648571
 20
173.6903405045
 10
117.0329116649
 20
173.4723950464
 10
117.11229639
 20
173.2212243396
 10
117.1607056975
 20
172.9428821139
 10
117.1769728237
 20
172.6440769883
 10
117.1607056975
 20
172.33201078
 10
117.11229639
 20
172.0142049252
 10
117.0329116649
 20
171.6983191975
 10
116.9244648571
 20
171.3919670917
  0
LWPOLYLINE
  5
C7
330
A
100
AcDbEntity
  8
1
  6
CONTINUOUS
370
    50
100
AcDbPolyline
 90
       18
 70
   128
 43
0.0
 10
109.7137929938
 20
172.2978357668
 10
109.6971234751
 20
172.1936543595
 10
109.6810216169
 20
172.1458208985
 10
109.6660357487
 20
172.1559642951
 10
109.6526761961
 20
172.2237391281
 10
109.6413979028
 20
172.3468374067
 10
109.6325849375
 20
172.5210671668
 10
109.6265374151
 20
172.7404952228
 10
109.6234612769
 20
172.9976492154
 10
109.6234612769
 20
173.2837720739
 10
109.6265374151
 20
173.5891202275
 10
109.6325849375
 20
173.903295411
 10
109.6413979028
 20
174.2155987655
 10
109.6526761961
 20
174.5153951746
 10
109.6660357487
 20
174.7924754312
 10
109.6810216169
 20
175.0374038996
 10
109.6971234751
 20
175.2418398345
 10
109.7137929938
 20
175.3988214154
  0
LWPOLYLINE
  5
DB
330
A
100
AcDbEntity
  8
1
  6
CONTINUOUS
370
    50
100
AcDbPolyline
 90
       18
 70
   128
 43
0.0
 10
109.7137929938
 20
175.3988214154
 10
109.2162283923
 20
175.379851422
 10
108.7356077565
 20
175.3087272554
 10
108.2882980458
 20
175.1878709639
 10
107.8895318558
 20
175.0213981635
 10
107.552888691
 20
174.8149778858
 10
107.2898325304
 20
174.5756395257
 10
107.1093214362
 20
174.311533464
 10
107.0175024972
 20
174.0316535159
 10
107.0175024972
 20
173.7455306574
 10
107.1093214362
 20
173.4629084592
 10
107.2898325304
 20
173.1934112814
 10
107.552888691
 20
172.946216527
 10
107.8895318558
 20
172.729742117
 10
108.2882980458
 20
172.5513598279
 10
108.7356077565
 20
172.4171442544
 10
109.2162283923
 20
172.3316659469
 10
109.7137929938
 20
172.2978357668
  0
ARC
  5
EF
330
A
100
AcDbEntity
  8
1
  6
CONTINUOUS
370
    50
100
AcDbCircle
 10
110.847456323
 20
189.5109515792
 30
0.0
 40
7.2856565304
100
AcDbArc
 50
346.2547599659001
 51
13.7452400341
  0
LWPOLYLINE
  5
F0
330
A
100
AcDbEntity
  8
1
  6
CONTINUOUS
370
    50
100
AcDbPolyline
 90
       12
 70
   128
 43
0.0
 10
117.9244648571
 20
186.7393869068
 10
117.9309549165
 20
186.6330315068
 10
118.0644333564
 20
186.0735034537
 10
118.3239795671
 20
185.290639457
 10
118.6307803186
 20
184.2000527586
 10
118.7476930453
 20
183.2238290969
 10
118.6656740364
 20
182.263521975
 10
118.4408698633
 20
181.4350505015
 10
118.1328479536
 20
180.6477606018
 10
118.0068168619
 20
180.3397438496
 10
117.9335089806
 20
180.1176061661
 10
117.9244648571
 20
180.0507282538
  0
LWPOLYLINE
  5
FE
330
A
100
AcDbEntity
  8
1
  6
CONTINUOUS
370
    50
100
AcDbPolyline
 90
       11
 70
   128
 43
0.0
 10
117.9244648571
 20
179.1562131256
 10
118.0195128347
 20
178.9199399802
 10
118.2659296726
 20
178.3980736211
 10
118.5761892156
 20
177.5562408041
 10
118.738368616
 20
176.6378693386
 10
118.6941111536
 20
175.6229658021
 10
118.4915748874
 20
174.7021556313
 10
118.1904154678
 20
173.7249234586
 10
118.0482928914
 20
173.2515427404
 10
117.9514064908
 20
172.8320153395
 10
117.9244648571
 20
172.554277879
  0
LWPOLYLINE
  5
10B
330
A
100
AcDbEntity
  8
1
  6
CONTINUOUS
370
    50
100
AcDbPolyline
 90
       22
 70
   128
 43
0.0
 10
116.9244648571
 20
171.4193850461
 10
116.7087204973
 20
170.9790856821
 10
116.4416565607
 20
170.6033869344
 10
116.1387285009
 20
170.3140311417
 10
115.8174672908
 20
170.1277638262
 10
115.4964648744
 20
170.055364601
 10
115.1942982188
 20
170.1010233348
 10
114.9284542332
 20
170.2620976775
 10
114.7143177705
 20
170.5292659771
 10
114.5642812796
 20
170.8870667404
 10
114.4870276329
 20
171.3147934158
 10
114.4870276329
 20
171.787692718
 10
114.5642812796
 20
172.2783971432
 10
114.7143177705
 20
172.7585087744
 10
114.9284542332
 20
173.2002427179
 10
115.1942982188
 20
173.5780350632
 10
115.4964648744
 20
173.8700223116
 10
115.8174672908
 20
174.0593066538
 10
116.1387285009
 20
174.1349338764
 10
116.4416565607
 20
174.0925273006
 10
116.7087204973
 20
173.9345410687
 10
116.9244648571
 20
173.6701181182
  0
LINE
  5
123
330
A
100
AcDbEntity
  8
1
  6
CONTINUOUS
370
    50
100
AcDbLine
 10
116.9244648571
 20
171.4193850461
 30
0.0
 11
116.9244648571
 21
171.3919670917
 31
0.0
  0
LINE
  5
124
330
A
100
AcDbEntity
  8
1
  6
CONTINUOUS
370
    50
100
AcDbLine
 10
116.9244648571
 20
173.6903405045
 30
0.0
 11
116.9244648571
 21
173.6701181182
 31
0.0
  0
LWPOLYLINE
  5
125
330
A
100
AcDbEntity
  8
1
  6
CONTINUOUS
370
    50
100
AcDbPolyline
 90
       24
 70
   128
 43
0.0
 10
116.55949672
 20
172.1768842959
 10
116.4447605265
 20
171.7426107909
 10
116.2627639975
 20
171.340545365
 10
116.0270049829
 20
171.0005073717
 10
115.7549686504
 20
170.7477158733
 10
115.4668306903
 20
170.6009192587
 10
115.1839609768
 20
170.5710047614
 10
114.9273386627
 20
170.6601910028
 10
114.7159962509
 20
170.8618634473
 10
114.5656080414
 20
171.1610649724
 10
114.4873276396
 20
171.5356051696
 10
114.4869607449
 20
171.9577061059
 10
114.5645345681
 20
172.3960624859
 10
114.7142958136
 20
172.8181634223
 10
114.9251373751
 20
173.1927036195
 10
115.1814220984
 20
173.4919051445
 10
115.4641425179
 20
173.693577589
 10
115.7523305536
 20
173.7827638304
 10
116.0246126173
 20
173.7528493331
 10
116.2607947938
 20
173.6060527186
 10
116.4433605316
 20
173.3532612201
 10
116.558769765
 20
173.0132232268
 10
116.5984631194
 20
172.611157801
 10
116.55949672
 20
172.1768842959
  0
ARC
  5
13F
330
A
100
AcDbEntity
  8
1
  6
CONTINUOUS
370
    50
100
AcDbCircle
 10
111.2858117506
 20
175.2038008604
 30
0.0
 40
1.5840694394
100
AcDbArc
 50
169.5837820617
 51
172.9281660993
  0
ARC
  5
140
330
A
100
AcDbEntity
  8
1
  6
CONTINUOUS
370
    50
100
AcDbCircle
 10
105.4877756391
 20
165.4437834852
 30
0.0
 40
10.9045231998
100
AcDbArc
 50
65.7827110027
 51
67.117906288
  0
ARC
  5
141
330
A
100
AcDbEntity
  8
1
  6
CONTINUOUS
370
    50
100
AcDbCircle
 10
109.6434035854
 20
170.6765260989
 30
0.0
 40
4.7228198912
100
AcDbArc
 50
86.1466391333
 51
89.1460260102
  0
ARC
  5
142
330
A
100
AcDbEntity
  8
1
  6
CONTINUOUS
370
    50
100
AcDbCircle
 10
109.7843205509
 20
177.0134850558
 30
0.0
 40
4.7161766669
100
AcDbArc
 50
269.1431444842
 51
272.1444122423
  0
ARC
  5
143
330
A
100
AcDbEntity
  8
1
  6
CONTINUOUS
370
    50
100
AcDbCircle
 10
115.7341881414
 20
183.2492900328
 30
0.0
 40
12.3776278967
100
AcDbArc
 50
240.9706336713
 51
242.1966722694
  0
ARC
  5
144
330
A
100
AcDbEntity
  8
1
  6
CONTINUOUS
370
    50
100
AcDbCircle
 10
105.4584977197
 20
172.8272833449
 30
0.0
 40
4.2881059463
100
AcDbArc
 50
352.9076566894001
 51
354.6390928984
  0
LWPOLYLINE
  5
145
330
A
100
AcDbEntity
  8
1
  6
CONTINUOUS
370
    50
100
AcDbPolyline
 90
       24
 70
   128
 43
0.0
 10
106.3773819077
 20
174.5126445846
 10
106.3384155083
 20
174.0783710795
 10
106.3781088626
 20
173.6763056537
 10
106.4935180961
 20
173.3362676604
 10
106.6760838339
 20
173.0834761619
 10
106.9122660104
 20
172.9366795474
 10
107.184548074
 20
172.9067650501
 10
107.4727361097
 20
172.9959512915
 10
107.7554565293
 20
173.197623736
 10
108.0117412526
 20
173.496825261
 10
108.222582814
 20
173.8713654582
 10
108.3723440596
 20
174.2934663946
 10
108.4499178828
 20
174.7318227746
 10
108.4495509881
 20
175.1539237109
 10
108.3712705863
 20
175.5284639081
 10
108.2208823767
 20
175.8276654332
 10
108.009539965
 20
176.0293378777
 10
107.7529176508
 20
176.1185241191
 10
107.4700479374
 20
176.0886096218
 10
107.1819099772
 20
175.9418130072
 10
106.9098736447
 20
175.6890215088
 10
106.6741146302
 20
175.3489835155
 10
106.4921181012
 20
174.9469180896
 10
106.3773819077
 20
174.5126445846
  0
LINE
  5
15F
330
A
100
AcDbEntity
  8
1
  6
CONTINUOUS
370
    50
100
AcDbLine
 10
100.1276187506
 20
158.1265001496
 30
0.0
 11
100.1276187506
 21
203.7191591809
 31
0.0
  0
LINE
  5
160
330
A
100
AcDbEntity
  8
1
  6
CONTINUOUS
370
    50
100
AcDbLine
 10
100.1744648571
 20
158.1265001496
 30
0.0
 11
100.1744648571
 21
203.5078500501
 31
0.0
  0
LWPOLYLINE
  5
161
330
A
100
AcDbEntity
  8
1
  6
CONTINUOUS
370
    50
100
AcDbPolyline
 90
        9
 70
   128
 43
0.0
 10
109.9607919439
 20
175.3886691734
 10
109.931669994
 20
175.4065227498
 10
109.9024935649
 20
175.4229290285
 10
109.8732904428
 20
175.437872385
 10
109.8440884391
 20
175.4513385882
 10
109.8149153643
 20
175.4633148134
 10
109.7857990013
 20
175.4737896552
 10
109.7567670791
 20
175.4827531378
 10
109.727847246
 20
175.4901967249
  0
LWPOLYLINE
  5
16C
330
A
100
AcDbEntity
  8
1
  6
CONTINUOUS
370
    50
100
AcDbPolyline
 90
       26
 70
   128
 43
0.0
 10
106.1530115812
 20
174.5148430477
 10
106.1060508931
 20
174.0296319083
 10
106.1398505114
 20
173.5749083692
 10
106.2522866818
 20
173.1792443828
 10
106.4362946261
 20
172.8675009726
 10
106.6803124486
 20
172.6592661234
 10
106.9690076119
 20
172.5676239967
 10
107.2842403373
 20
172.5983328043
 10
107.6062033932
 20
172.749462999
 10
107.9146666568
 20
173.0115185147
 10
108.1902482467
 20
173.3680334397
 10
108.4156323581
 20
173.79660663
 10
108.5766572785
 20
174.270309256
 10
108.6632052198
 20
174.7593768394
 10
108.6698380566
 20
175.2330794653
 10
108.5961390234
 20
175.6616526557
 10
108.4467389015
 20
176.0181675807
 10
108.2310250499
 20
176.2802230964
 10
107.9625515634
 20
176.4313532911
 10
107.6581876184
 20
176.4620620987
 10
107.337057521
 20
176.370419972
 10
107.0193390563
 20
176.1621851228
 10
106.7249956438
 20
175.8504417126
 10
106.4725219628
 20
175.4547777262
 10
106.277781863
 20
175.0000541871
 10
106.1530115812
 20
174.5148430477
  0
LWPOLYLINE
  5
188
330
A
100
AcDbEntity
  8
1
  6
CONTINUOUS
370
    50
100
AcDbPolyline
 90
       26
 70
   128
 43
0.0
 10
106.1606720257
 20
174.5126445846
 10
106.1137113375
 20
174.0274334452
 10
106.1475109558
 20
173.5727099061
 10
106.2599471262
 20
173.1770459197
 10
106.4439550705
 20
172.8653025095
 10
106.687972893
 20
172.6570676603
 10
106.9766680564
 20
172.5654255336
 10
107.2919007817
 20
172.5961343412
 10
107.6138638376
 20
172.7472645359
 10
107.9223271012
 20
173.0093200516
 10
108.1979086911
 20
173.3658349766
 10
108.4232928026
 20
173.7944081669
 10
108.5843177229
 20
174.2681107929
 10
108.6708656643
 20
174.7571783763
 10
108.6774985011
 20
175.2308810022
 10
108.6037994679
 20
175.6594541926
 10
108.4543993459
 20
176.0159691176
 10
108.2386854944
 20
176.2780246333
 10
107.9702120078
 20
176.429154828
 10
107.6658480629
 20
176.4598636356
 10
107.3447179655
 20
176.3682215089
 10
107.0269995007
 20
176.1599866597
 10
106.7326560883
 20
175.8482432495
 10
106.4801824072
 20
175.4525792631
 10
106.2854423074
 20
174.997855724
 10
106.1606720257
 20
174.5126445846
  0
LWPOLYLINE
  5
1A4
330
A
100
AcDbEntity
  8
1
  6
CONTINUOUS
370
    50
100
AcDbPolyline
 90
       24
 70
   128
 43
0.0
 10
106.3697214633
 20
174.5148430477
 10
106.3307550639
 20
174.0805695427
 10
106.3704484182
 20
173.6785041168
 10
106.4858576517
 20
173.3384661235
 10
106.6684233894
 20
173.085674625
 10
106.9046055659
 20
172.9388780105
 10
107.1768876296
 20
172.9089635132
 10
107.4650756653
 20
172.9981497546
 10
107.7477960849
 20
173.1998221991
 10
108.0040808081
 20
173.4990237241
 10
108.2149223696
 20
173.8735639213
 10
108.3646836151
 20
174.2956648577
 10
108.4422574384
 20
174.7340212377
 10
108.4418905436
 20
175.156122174
 10
108.3636101418
 20
175.5306623712
 10
108.2132219323
 20
175.8298638963
 10
108.0018795205
 20
176.0315363408
 10
107.7452572064
 20
176.1207225822
 10
107.4623874929
 20
176.0908080849
 10
107.1742495328
 20
175.9440114703
 10
106.9022132003
 20
175.6912199719
 10
106.6664541857
 20
175.3511819786
 10
106.4844576567
 20
174.9491165527
 10
106.3697214633
 20
174.5148430477
  0
LWPOLYLINE
  5
1BE
330
A
100
AcDbEntity
  8
1
  6
CONTINUOUS
370
    50
100
AcDbPolyline
 90
       23
 70
   128
 43
0.0
 10
91.6298801846
 20
178.7450150044
 10
91.5523363286
 20
178.3384511553
 10
91.6198163199
 20
177.938924838
 10
91.8178826096
 20
177.5899179886
 10
92.1477261812
 20
177.2876610229
 10
92.7839109447
 20
176.9907675769
 10
93.7989840327
 20
176.8413287847
 10
94.4778055057
 20
176.877235536
 10
95.1592343527
 20
177.0117007851
 10
95.9919157127
 20
177.3560854755
 10
96.399533132
 20
177.6753409679
 10
96.6112283359
 20
177.9840649649
 10
96.6843151143
 20
178.270202611
 10
96.6488322771
 20
178.5681206306
 10
96.5223323362
 20
178.8347635474
 10
96.1811060846
 20
179.2064453089
 10
95.4370996798
 20
179.6379709749
 10
94.8024919907
 20
179.8373839466
 10
94.1247035416
 20
179.9342700661
 10
93.0024633025
 20
179.8316467425
 10
92.3133371608
 20
179.5388514055
 10
91.8746580843
 20
179.161092143
 10
91.6298801846
 20
178.7450150044
  0
LWPOLYLINE
  5
1D7
330
A
100
AcDbEntity
  8
1
  6
CONTINUOUS
370
    50
100
AcDbPolyline
 90
        9
 70
   128
 43
0.0
 10
109.727847246
 20
172.4266498098
 10
109.7567670791
 20
172.4058413005
 10
109.7857990013
 20
172.3864431855
 10
109.8149153643
 20
172.3684739387
 10
109.8440884391
 20
172.3519506729
 10
109.8732904428
 20
172.3368891241
 10
109.9024935649
 20
172.323303636
 10
109.931669994
 20
172.3112071469
 10
109.9607919439
 20
172.3006111767
  0
LINE
  5
1E2
330
A
100
AcDbEntity
  8
1
  6
CONTINUOUS
370
    50
100
AcDbLine
 10
99.8744648571
 20
157.3765001496
 30
0.0
 11
102.5744648571
 21
157.3765001496
 31
0.0
  0
LINE
  5
1E3
330
A
100
AcDbEntity
  8
1
  6
CONTINUOUS
370
    50
100
AcDbLine
 10
102.5744648571
 20
206.2765001496
 30
0.0
 11
99.8744648571
 21
206.2765001496
 31
0.0
  0
LINE
  5
1E4
330
A
100
AcDbEntity
  8
1
  6
CONTINUOUS
370
    50
100
AcDbLine
 10
177.8112428327
 20
171.7265001496
 30
0.0
 11
177.8112428327
 21
189.7265001496
 31
0.0
  0
LINE
  5
1E5
330
A
100
AcDbEntity
  8
1
  6
CONTINUOUS
370
    50
100
AcDbLine
 10
102.2638046853
 20
158.1265001496
 30
0.0
 11
99.8744648571
 21
158.1265001496
 31
0.0
  0
LINE
  5
1E6
330
A
100
AcDbEntity
  8
1
  6
CONTINUOUS
370
    50
100
AcDbLine
 10
99.8744648571
 20
205.5265001496
 30
0.0
 11
102.2638046853
 21
205.5265001496
 31
0.0
  0
LINE
  5
1E7
330
A
100
AcDbEntity
  8
1
  6
CONTINUOUS
370
    50
100
AcDbLine
 10
30.8957513032
 20
171.9113187799
 30
0.0
 11
30.8957513032
 21
189.5416815193
 31
0.0
  0
LINE
  5
1E8
330
A
100
AcDbEntity
  8
1
  6
CONTINUOUS
370
    50
100
AcDbLine
 10
138.7589948071
 20
171.5265001496
 30
0.0
 11
138.7589948071
 21
189.9265001496
 31
0.0
  0
LINE
  5
1E9
330
A
100
AcDbEntity
  8
1
  6
CONTINUOUS
370
    50
100
AcDbLine
 10
129.3744648571
 20
189.9265001496
 30
0.0
 11
129.3744648571
 21
171.5415043935
 31
0.0
  0
LINE
  5
1EA
330
A
100
AcDbEntity
  8
1
  6
CONTINUOUS
370
    50
100
AcDbLine
 10
128.8744648571
 20
172.0265001496
 30
0.0
 11
128.8744648571
 21
189.4265001496
 31
0.0
  0
LINE
  5
1EB
330
A
100
AcDbEntity
  8
1
  6
CONTINUOUS
370
    50
100
AcDbLine
 10
138.8744648609
 20
189.7265001496
 30
0.0
 11
138.8744648609
 21
171.7265001496
 31
0.0
  0
LINE
  5
1EC
330
A
100
AcDbEntity
  8
1
  6
CONTINUOUS
370
    50
100
AcDbLine
 10
101.7244648546
 20
150.2494185971
 30
0.0
 11
102.5744648571
 21
151.0994185996
 31
0.0
  0
LINE
  5
1ED
330
A
100
AcDbEntity
  8
1
  6
CONTINUOUS
370
    50
100
AcDbLine
 10
101.7244648546
 20
211.2035817021
 30
0.0
 11
102.5744648571
 21
210.3535816996
 31
0.0
  0
LINE
  5
1EE
330
A
100
AcDbEntity
  8
1
  6
CONTINUOUS
370
    50
100
AcDbLine
 10
31.3957513032
 20
172.1999939145
 30
0.0
 11
31.3957513032
 21
189.2530063847
 31
0.0
  0
LINE
  5
1EF
330
A
100
AcDbEntity
  8
1
  6
CONTINUOUS
370
    50
100
AcDbLine
 10
40.0337915311
 20
187.8015001496
 30
0.0
 11
40.0337915311
 21
173.6515001496
 31
0.0
  0
LINE
  5
1F0
330
A
100
AcDbEntity
  8
1
  6
CONTINUOUS
370
    50
100
AcDbLine
 10
39.1244648571
 20
189.3765001496
 30
0.0
 11
39.1244648571
 21
172.0765001496
 31
0.0
  0
LINE
  5
1F1
330
A
100
AcDbEntity
  8
1
  6
CONTINUOUS
370
    50
100
AcDbLine
 10
36.8141762888
 20
189.3765001496
 30
0.0
 11
36.8141762888
 21
172.0765001496
 31
0.0
  0
LINE
  5
1F2
330
A
100
AcDbEntity
  8
1
  6
CONTINUOUS
370
    50
100
AcDbLine
 10
36.5543686676
 20
189.2265001496
 30
0.0
 11
36.5543686676
 21
172.2265001496
 31
0.0
  0
LINE
  5
1F3
330
A
100
AcDbEntity
  8
1
  6
CONTINUOUS
370
    50
100
AcDbLine
 10
31.6244648571
 20
189.2265001496
 30
0.0
 11
31.6244648571
 21
172.2414284296
 31
0.0
  0
LINE
  5
1F4
330
A
100
AcDbEntity
  8
1
  6
CONTINUOUS
370
    50
100
AcDbLine
 10
102.5744648571
 20
151.0994185996
 30
0.0
 11
107.0581270403
 21
151.0994185996
 31
0.0
  0
LINE
  5
1F5
330
A
100
AcDbEntity
  8
1
  6
CONTINUOUS
370
    50
100
AcDbLine
 10
112.8908026738
 20
151.0994185996
 30
0.0
 11
117.9244648571
 21
151.0994185996
 31
0.0
  0
LINE
  5
1F6
330
A
100
AcDbEntity
  8
1
  6
CONTINUOUS
370
    50
100
AcDbLine
 10
102.5744648571
 20
151.0994185996
 30
0.0
 11
102.5744648571
 21
157.3765001496
 31
0.0
  0
LINE
  5
1F7
330
A
100
AcDbEntity
  8
1
  6
CONTINUOUS
370
    50
100
AcDbLine
 10
102.5744648571
 20
157.3765001496
 30
0.0
 11
118.0362407381
 21
157.3765001496
 31
0.0
  0
LINE
  5
1F8
330
A
100
AcDbEntity
  8
1
  6
CONTINUOUS
370
    50
100
AcDbLine
 10
118.3420040233
 20
158.1265001496
 30
0.0
 11
102.2638046853
 21
158.1265001496
 31
0.0
  0
LINE
  5
1F9
330
A
100
AcDbEntity
  8
1
  6
CONTINUOUS
370
    50
100
AcDbLine
 10
102.5744648571
 20
157.3765001496
 30
0.0
 11
102.2638046853
 21
158.1265001496
 31
0.0
  0
LINE
  5
1FA
330
A
100
AcDbEntity
  8
1
  6
CONTINUOUS
370
    50
100
AcDbLine
 10
102.2638046853
 20
205.5265001496
 30
0.0
 11
117.9244648571
 21
205.5265001496
 31
0.0
  0
LINE
  5
1FB
330
A
100
AcDbEntity
  8
1
  6
CONTINUOUS
370
    50
100
AcDbLine
 10
102.5744648571
 20
206.2765001496
 30
0.0
 11
102.2638046853
 21
205.5265001496
 31
0.0
  0
LINE
  5
1FC
330
A
100
AcDbEntity
  8
1
  6
CONTINUOUS
370
    50
100
AcDbLine
 10
117.9244648571
 20
206.2765001496
 30
0.0
 11
102.5744648571
 21
206.2765001496
 31
0.0
  0
LINE
  5
1FD
330
A
100
AcDbEntity
  8
1
  6
CONTINUOUS
370
    50
100
AcDbLine
 10
112.8908026738
 20
210.3535816996
 30
0.0
 11
117.9244648571
 21
210.3535816996
 31
0.0
  0
LINE
  5
1FE
330
A
100
AcDbEntity
  8
1
  6
CONTINUOUS
370
    50
100
AcDbLine
 10
102.5744648571
 20
210.3535816996
 30
0.0
 11
107.0581270403
 21
210.3535816996
 31
0.0
  0
LINE
  5
1FF
330
A
100
AcDbEntity
  8
1
  6
CONTINUOUS
370
    50
100
AcDbLine
 10
102.5744648571
 20
210.3535816996
 30
0.0
 11
102.5744648571
 21
206.2765001496
 31
0.0
  0
LINE
  5
200
330
A
100
AcDbEntity
  8
1
  6
CONTINUOUS
370
    50
100
AcDbLine
 10
64.6244648571
 20
188.7265001496
 30
0.0
 11
64.6244648571
 21
172.7265001496
 31
0.0
  0
LINE
  5
201
330
A
100
AcDbEntity
  8
1
  6
CONTINUOUS
370
    50
100
AcDbLine
 10
64.6144648571
 20
188.7265001496
 30
0.0
 11
64.6144648571
 21
172.7265001496
 31
0.0
  0
LINE
  5
202
330
A
100
AcDbEntity
  8
1
  6
CONTINUOUS
370
    50
100
AcDbLine
 10
75.6244648571
 20
187.8015001496
 30
0.0
 11
75.6244648571
 21
173.6515001496
 31
0.0
  0
LINE
  5
203
330
A
100
AcDbEntity
  8
1
  6
CONTINUOUS
370
    50
100
AcDbLine
 10
75.6426633688
 20
187.7515001496
 30
0.0
 11
75.6426633688
 21
173.7015001496
 31
0.0
  0
LINE
  5
204
330
A
100
AcDbEntity
  8
1
  6
CONTINUOUS
370
    50
100
AcDbLine
 10
109.6244648571
 20
187.7515001496
 30
0.0
 11
109.6244648571
 21
173.7015001496
 31
0.0
  0
LWPOLYLINE
  5
205
330
A
100
AcDbEntity
  8
1
  6
CONTINUOUS
370
    50
100
AcDbPolyline
 90
       23
 70
   128
 43
0.0
 10
91.6298801846
 20
182.7079852947
 10
91.5523363286
 20
183.1145491438
 10
91.6198163199
 20
183.5140754612
 10
91.8178826096
 20
183.8630823106
 10
92.1477261812
 20
184.1653392763
 10
92.7839109447
 20
184.4622327223
 10
93.7989840327
 20
184.6116715145
 10
94.4875600171
 20
184.5749853132
 10
95.1592343527
 20
184.441299514
 10
95.9919157127
 20
184.0969148236
 10
96.399533132
 20
183.7776593313
 10
96.6112283359
 20
183.4689353343
 10
96.6843151143
 20
183.1827976881
 10
96.6488322771
 20
182.8848796686
 10
96.5223323362
 20
182.6182367518
 10
96.1811060846
 20
182.2465549903
 10
95.4370996798
 20
181.8150293242
 10
94.7934848753
 20
181.6131605942
 10
94.1247035416
 20
181.518730233
 10
93.0024633025
 20
181.6213535566
 10
92.3133371608
 20
181.9141488936
 10
91.8746580843
 20
182.2919081562
 10
91.6298801846
 20
182.7079852947
  0
LINE
  5
21E
330
A
100
AcDbEntity
  8
1
  6
CONTINUOUS
370
    50
100
AcDbLine
 10
110.5049240176
 20
186.2265001496
 30
0.0
 11
110.5049240176
 21
175.2265001496
 31
0.0
  0
LINE
  5
21F
330
A
100
AcDbEntity
  8
1
  6
CONTINUOUS
370
    50
100
AcDbLine
 10
104.9744648571
 20
205.3265001496
 30
0.0
 11
114.9744648571
 21
205.3265001496
 31
0.0
  0
LINE
  5
220
330
A
100
AcDbEntity
  8
1
  6
CONTINUOUS
370
    50
100
AcDbLine
 10
105.2744649238
 20
200.8265001496
 30
0.0
 11
114.6744648571
 21
200.8265001496
 31
0.0
  0
LINE
  5
221
330
A
100
AcDbEntity
  8
1
  6
CONTINUOUS
370
    50
100
AcDbLine
 10
114.9744648571
 20
201.1265001496
 30
0.0
 11
104.9744648571
 21
201.1265001496
 31
0.0
  0
LINE
  5
222
330
A
100
AcDbEntity
  8
1
  6
CONTINUOUS
370
    50
100
AcDbLine
 10
108.8744648571
 20
200.4265001496
 30
0.0
 11
111.0744648571
 21
200.4265001496
 31
0.0
  0
LINE
  5
223
330
A
100
AcDbEntity
  8
1
  6
CONTINUOUS
370
    50
100
AcDbLine
 10
108.7244648571
 20
197.0165001496
 30
0.0
 11
111.2244648571
 21
197.0165001496
 31
0.0
  0
LINE
  5
224
330
A
100
AcDbEntity
  8
1
  6
CONTINUOUS
370
    50
100
AcDbLine
 10
108.7244648571
 20
197.0265001496
 30
0.0
 11
111.2244648571
 21
197.0265001496
 31
0.0
  0
LINE
  5
225
330
A
100
AcDbEntity
  8
1
  6
CONTINUOUS
370
    50
100
AcDbLine
 10
108.8744648571
 20
194.4265001496
 30
0.0
 11
111.0744648571
 21
194.4265001496
 31
0.0
  0
LWPOLYLINE
  5
226
330
A
100
AcDbEntity
  8
1
  6
CONTINUOUS
370
    50
100
AcDbPolyline
 90
       24
 70
   128
 43
0.0
 10
106.3697214633
 20
186.9381572515
 10
106.3307550639
 20
187.3724307565
 10
106.3704484182
 20
187.7744961824
 10
106.4858576517
 20
188.1145341757
 10
106.6684233894
 20
188.3673256741
 10
106.9046055659
 20
188.5141222887
 10
107.1768876296
 20
188.5440367859
 10
107.4650756653
 20
188.4548505446
 10
107.7477960849
 20
188.2531781001
 10
108.0040808081
 20
187.953976575
 10
108.2149223696
 20
187.5794363778
 10
108.3646836151
 20
187.1573354415
 10
108.4422574384
 20
186.7189790615
 10
108.4418905436
 20
186.2968781251
 10
108.3636101418
 20
185.9223379279
 10
108.2132219323
 20
185.6231364029
 10
108.0018795205
 20
185.4214639584
 10
107.7452572064
 20
185.332277717
 10
107.4623874929
 20
185.3621922143
 10
107.1742495328
 20
185.5089888288
 10
106.9022132003
 20
185.7617803273
 10
106.6664541857
 20
186.1018183206
 10
106.4844576567
 20
186.5038837464
 10
106.3697214633
 20
186.9381572515
  0
LINE
  5
240
330
A
100
AcDbEntity
  8
1
  6
CONTINUOUS
370
    50
100
AcDbLine
 10
111.3994648571
 20
153.9086422933
 30
0.0
 11
111.3994648571
 21
207.5443580059
 31
0.0
  0
LINE
  5
241
330
A
100
AcDbEntity
  8
1
  6
CONTINUOUS
370
    50
100
AcDbLine
 10
111.8994648571
 20
199.0765001496
 30
0.0
 11
111.8994648571
 21
202.5330931893
 31
0.0
  0
LINE
  5
242
330
A
100
AcDbEntity
  8
1
  6
CONTINUOUS
370
    50
100
AcDbLine
 10
108.5494648571
 20
153.9086422933
 30
0.0
 11
108.5494648571
 21
207.5443580059
 31
0.0
  0
LINE
  5
243
330
A
100
AcDbEntity
  8
1
  6
CONTINUOUS
370
    50
100
AcDbLine
 10
108.0494648571
 20
199.0765001496
 30
0.0
 11
108.0494648571
 21
202.5330931893
 31
0.0
  0
LINE
  5
244
330
A
100
AcDbEntity
  8
1
  6
CONTINUOUS
370
    50
100
AcDbLine
 10
106.452628215
 20
206.6367297896
 30
0.0
 11
106.452628215
 21
199.0765001496
 31
0.0
  0
LINE
  5
245
330
A
100
AcDbEntity
  8
1
  6
CONTINUOUS
370
    50
100
AcDbLine
 10
117.4244648571
 20
206.6367297896
 30
0.0
 11
117.4244648571
 21
199.0765001496
 31
0.0
  0
LINE
  5
246
330
A
100
AcDbEntity
  8
1
  6
CONTINUOUS
370
    50
100
AcDbLine
 10
113.4963014991
 20
206.6367297896
 30
0.0
 11
113.4963014991
 21
199.0765001496
 31
0.0
  0
LINE
  5
247
330
A
100
AcDbEntity
  8
1
  6
CONTINUOUS
370
    50
100
AcDbLine
 10
100.3744648571
 20
199.0765001496
 30
0.0
 11
100.3744648571
 21
206.6367297896
 31
0.0
  0
LWPOLYLINE
  5
248
330
A
100
AcDbEntity
  8
1
  6
CONTINUOUS
370
    50
100
AcDbPolyline
 90
       26
 70
   128
 43
0.0
 10
106.1530115812
 20
186.9381572515
 10
106.1060508931
 20
187.4233683909
 10
106.1398505114
 20
187.87809193
 10
106.2522866818
 20
188.2737559163
 10
106.4362946261
 20
188.5854993266
 10
106.6803124486
 20
188.7937341758
 10
106.9690076119
 20
188.8853763025
 10
107.2842403373
 20
188.8546674949
 10
107.6062033932
 20
188.7035373002
 10
107.9146666568
 20
188.4414817844
 10
108.1902482467
 20
188.0849668594
 10
108.4156323581
 20
187.6563936691
 10
108.5766572785
 20
187.1826910432
 10
108.6632052198
 20
186.6936234598
 10
108.6698380566
 20
186.2199208338
 10
108.5961390234
 20
185.7913476435
 10
108.4467389015
 20
185.4348327185
 10
108.2310250499
 20
185.1727772028
 10
107.9625515634
 20
185.0216470081
 10
107.6581876184
 20
184.9909382004
 10
107.337057521
 20
185.0825803271
 10
107.0193390563
 20
185.2908151763
 10
106.7249956438
 20
185.6025585866
 10
106.4725219628
 20
185.998222573
 10
106.277781863
 20
186.452946112
 10
106.1530115812
 20
186.9381572515
  0
LWPOLYLINE
  5
264
330
A
100
AcDbEntity
  8
1
  6
CONTINUOUS
370
    50
100
AcDbPolyline
 90
       26
 70
   128
 43
0.0
 10
106.1606720257
 20
186.9403557146
 10
106.1137113375
 20
187.425566854
 10
106.1475109558
 20
187.8802903931
 10
106.2599471262
 20
188.2759543794
 10
106.4439550705
 20
188.5876977897
 10
106.687972893
 20
188.7959326389
 10
106.9766680564
 20
188.8875747656
 10
107.2919007817
 20
188.856865958
 10
107.6138638376
 20
188.7057357633
 10
107.9223271012
 20
188.4436802475
 10
108.1979086911
 20
188.0871653226
 10
108.4232928026
 20
187.6585921322
 10
108.5843177229
 20
187.1848895063
 10
108.6708656643
 20
186.6958219229
 10
108.6774985011
 20
186.2221192969
 10
108.6037994679
 20
185.7935461066
 10
108.4543993459
 20
185.4370311816
 10
108.2386854944
 20
185.1749756659
 10
107.9702120078
 20
185.0238454712
 10
107.6658480629
 20
184.9931366636
 10
107.3447179655
 20
185.0847787903
 10
107.0269995007
 20
185.2930136394
 10
106.7326560883
 20
185.6047570497
 10
106.4801824072
 20
186.0004210361
 10
106.2854423074
 20
186.4551445751
 10
106.1606720257
 20
186.9403557146
  0
LWPOLYLINE
  5
280
330
A
100
AcDbEntity
  8
1
  6
CONTINUOUS
370
    50
100
AcDbPolyline
 90
       24
 70
   128
 43
0.0
 10
106.3773819077
 20
186.9403557146
 10
106.3384155083
 20
187.3746292196
 10
106.3781088626
 20
187.7766946455
 10
106.4935180961
 20
188.1167326388
 10
106.6760838339
 20
188.3695241372
 10
106.9122660104
 20
188.5163207518
 10
107.184548074
 20
188.546235249
 10
107.4727361097
 20
188.4570490077
 10
107.7554565293
 20
188.2553765632
 10
108.0117412526
 20
187.9561750381
 10
108.222582814
 20
187.5816348409
 10
108.3723440596
 20
187.1595339046
 10
108.4499178828
 20
186.7211775246
 10
108.4495509881
 20
186.2990765882
 10
108.3712705863
 20
185.924536391
 10
108.2208823767
 20
185.625334866
 10
108.009539965
 20
185.4236624215
 10
107.7529176508
 20
185.3344761801
 10
107.4700479374
 20
185.3643906774
 10
107.1819099772
 20
185.5111872919
 10
106.9098736447
 20
185.7639787904
 10
106.6741146302
 20
186.1040167837
 10
106.4921181012
 20
186.5060822095
 10
106.3773819077
 20
186.9403557146
  0
LWPOLYLINE
  5
29A
330
A
100
AcDbEntity
  8
1
  6
CONTINUOUS
370
    50
100
AcDbPolyline
 90
       24
 70
   128
 43
0.0
 10
116.55949672
 20
189.2761160033
 10
116.4447605265
 20
189.7103895083
 10
116.2627639975
 20
190.1124549341
 10
116.0270049829
 20
190.4524929275
 10
115.7549686504
 20
190.7052844259
 10
115.4668306903
 20
190.8520810404
 10
115.1839609768
 20
190.8819955377
 10
114.9273386627
 20
190.7928092963
 10
114.7159962509
 20
190.5911368518
 10
114.5656080414
 20
190.2919353268
 10
114.4873276396
 20
189.9173951296
 10
114.4869607449
 20
189.4952941933
 10
114.5645345681
 20
189.0569378132
 10
114.7142958136
 20
188.6348368769
 10
114.9251373751
 20
188.2602966797
 10
115.1814220984
 20
187.9610951547
 10
115.4641425179
 20
187.7594227102
 10
115.7523305536
 20
187.6702364688
 10
116.0246126173
 20
187.7001509661
 10
116.2607947938
 20
187.8469475806
 10
116.4433605316
 20
188.099739079
 10
116.558769765
 20
188.4397770724
 10
116.5984631194
 20
188.8418424982
 10
116.55949672
 20
189.2761160033
  0
ARC
  5
2B4
330
A
100
AcDbEntity
  8
1
  6
CONTINUOUS
370
    50
100
AcDbCircle
 10
111.285811751
 20
186.2491994388
 30
0.0
 40
1.5840694397
100
AcDbArc
 50
187.0718339011
 51
190.4162179379
  0
ARC
  5
2B5
330
A
100
AcDbEntity
  8
1
  6
CONTINUOUS
370
    50
100
AcDbCircle
 10
105.4877756371
 20
196.0092168185
 30
0.0
 40
10.9045232047
100
AcDbArc
 50
292.8820937123
 51
294.217288997
  0
ARC
  5
2B6
330
A
100
AcDbEntity
  8
1
  6
CONTINUOUS
370
    50
100
AcDbCircle
 10
109.6434035855
 20
190.7764741992
 30
0.0
 40
4.7228198901
100
AcDbArc
 50
270.8539739894
 51
273.853360867
  0
LWPOLYLINE
  5
2B7
330
A
100
AcDbEntity
  8
1
  6
CONTINUOUS
370
    50
100
AcDbPolyline
 90
       18
 70
   128
 43
0.0
 10
109.7137929938
 20
189.1551645324
 10
109.6971234751
 20
189.2593459397
 10
109.6810216169
 20
189.3071794006
 10
109.6660357487
 20
189.297036004
 10
109.6526761961
 20
189.2292611711
 10
109.6413979028
 20
189.1061628925
 10
109.6325849375
 20
188.9319331324
 10
109.6265374151
 20
188.7125050764
 10
109.6234612769
 20
188.4553510838
 10
109.6234612769
 20
188.1692282252
 10
109.6265374151
 20
187.8638800716
 10
109.6325849375
 20
187.5497048881
 10
109.6413979028
 20
187.2374015337
 10
109.6526761961
 20
186.9376051246
 10
109.6660357487
 20
186.6605248679
 10
109.6810216169
 20
186.4155963995
 10
109.6971234751
 20
186.2111604646
 10
109.7137929938
 20
186.0541788838
  0
ARC
  5
2CB
330
A
100
AcDbEntity
  8
1
  6
CONTINUOUS
370
    50
100
AcDbCircle
 10
109.7843205509
 20
184.4395152441
 30
0.0
 40
4.7161766661
100
AcDbArc
 50
87.8555877574
 51
90.856855516
  0
ARC
  5
2CC
330
A
100
AcDbEntity
  8
1
  6
CONTINUOUS
370
    50
100
AcDbCircle
 10
115.7341881434
 20
178.2037102627
 30
0.0
 40
12.3776279008
100
AcDbArc
 50
117.8033277308
 51
119.0293663285
  0
ARC
  5
2CD
330
A
100
AcDbEntity
  8
1
  6
CONTINUOUS
370
    50
100
AcDbCircle
 10
105.4584977195
 20
188.6257169542
 30
0.0
 40
4.2881059466
100
AcDbArc
 50
5.3609071017
 51
7.0923433105
  0
LWPOLYLINE
  5
2CE
330
A
100
AcDbEntity
  8
1
  6
CONTINUOUS
370
    50
100
AcDbPolyline
 90
       18
 70
   128
 43
0.0
 10
109.7137929938
 20
186.0541788838
 10
109.2162283923
 20
186.0731488772
 10
108.7356077565
 20
186.1442730437
 10
108.2882980458
 20
186.2651293352
 10
107.8895318558
 20
186.4316021356
 10
107.552888691
 20
186.6380224134
 10
107.2898325304
 20
186.8773607735
 10
107.1093214362
 20
187.1414668352
 10
107.0175024972
 20
187.4213467833
 10
107.0175024972
 20
187.7074696418
 10
107.1093214362
 20
187.99009184
 10
107.2898325304
 20
188.2595890178
 10
107.552888691
 20
188.5067837721
 10
107.8895318558
 20
188.7232581821
 10
108.2882980458
 20
188.9016404713
 10
108.7356077565
 20
189.0358560448
 10
109.2162283923
 20
189.1213343522
 10
109.7137929938
 20
189.1551645324
  0
LWPOLYLINE
  5
2E2
330
A
100
AcDbEntity
  8
1
  6
CONTINUOUS
370
    50
100
AcDbPolyline
 90
        9
 70
   128
 43
0.0
 10
109.727847246
 20
189.0263504894
 10
109.7567670791
 20
189.0471589987
 10
109.7857990013
 20
189.0665571136
 10
109.8149153643
 20
189.0845263605
 10
109.8440884391
 20
189.1010496263
 10
109.8732904428
 20
189.1161111751
 10
109.9024935649
 20
189.1296966632
 10
109.931669994
 20
189.1417931523
 10
109.9607919439
 20
189.1523891225
  0
LWPOLYLINE
  5
2ED
330
A
100
AcDbEntity
  8
1
  6
CONTINUOUS
370
    50
100
AcDbPolyline
 90
        9
 70
   128
 43
0.0
 10
109.9607919439
 20
186.0643311257
 10
109.931669994
 20
186.0464775494
 10
109.9024935649
 20
186.0300712707
 10
109.8732904428
 20
186.0151279141
 10
109.8440884391
 20
186.001661711
 10
109.8149153643
 20
185.9896854858
 10
109.7857990013
 20
185.979210644
 10
109.7567670791
 20
185.9702471614
 10
109.727847246
 20
185.9628035743
  0
LINE
  5
2F8
330
A
100
AcDbEntity
  8
1
  6
CONTINUOUS
370
    50
100
AcDbLine
 10
116.9244648571
 20
187.7648420398
 30
0.0
 11
116.9244648571
 21
187.7626597947
 31
0.0
  0
LWPOLYLINE
  5
2F9
330
A
100
AcDbEntity
  8
1
  6
CONTINUOUS
370
    50
100
AcDbPolyline
 90
       22
 70
   128
 43
0.0
 10
116.9244648571
 20
187.7648420398
 10
116.7064501014
 20
187.5044126677
 10
116.4378548021
 20
187.3504472433
 10
116.1341006542
 20
187.3117858614
 10
115.8126280368
 20
187.3906483075
 10
115.4918946544
 20
187.5825066076
 10
115.1903157674
 20
187.876345006
 10
114.9252068599
 20
188.2552924473
 10
114.7117894519
 20
188.6975912466
 10
114.562317139
 20
189.1778463313
 10
114.4853720387
 20
189.6684833263
 10
114.4853720387
 20
190.1413317683
 10
114.562317139
 20
190.5692425429
 10
114.7117894519
 20
190.9276466816
 10
114.9252068599
 20
191.1959660159
 10
115.1903157674
 20
191.3587946957
 10
115.4918946544
 20
191.4067837329
 10
115.8126280368
 20
191.337177784
 10
116.1341006542
 20
191.1539733514
 10
116.4378548021
 20
190.8676893193
 10
116.7064501014
 20
190.4947630008
 10
116.9244648571
 20
190.0566063714
  0
LINE
  5
311
330
A
100
AcDbEntity
  8
1
  6
CONTINUOUS
370
    50
100
AcDbLine
 10
116.9244648571
 20
190.0610332075
 30
0.0
 11
116.9244648571
 21
190.0566063714
 31
0.0
  0
LWPOLYLINE
  5
312
330
A
100
AcDbEntity
  8
1
  6
CONTINUOUS
370
    50
100
AcDbPolyline
 90
        9
 70
   128
 43
0.0
 10
116.9244648571
 20
187.7626597947
 10
117.0329116649
 20
187.9806052528
 10
117.11229639
 20
188.2317759596
 10
117.1607056975
 20
188.5101181853
 10
117.1769728237
 20
188.8089233109
 10
117.1607056975
 20
189.1209895192
 10
117.11229639
 20
189.438795374
 10
117.0329116649
 20
189.7546811016
 10
116.9244648571
 20
190.0610332075
  0
LWPOLYLINE
  5
31D
330
A
100
AcDbEntity
  8
1
  6
CONTINUOUS
370
    50
100
AcDbPolyline
 90
       22
 70
   128
 43
0.0
 10
116.9244648571
 20
190.0336152531
 10
116.7087204973
 20
190.473914617
 10
116.4416565607
 20
190.8496133648
 10
116.1387285009
 20
191.1389691575
 10
115.8174672908
 20
191.3252364729
 10
115.4964648743
 20
191.3976356982
 10
115.1942982188
 20
191.3519769644
 10
114.9284542332
 20
191.1909026217
 10
114.7143177705
 20
190.923734322
 10
114.5642812796
 20
190.5659335588
 10
114.4870276329
 20
190.1382068834
 10
114.4870276329
 20
189.6653075812
 10
114.5642812796
 20
189.174603156
 10
114.7143177705
 20
188.6944915247
 10
114.9284542332
 20
188.2527575813
 10
115.1942982188
 20
187.8749652359
 10
115.4964648744
 20
187.5829779876
 10
115.8174672908
 20
187.3936936454
 10
116.1387285009
 20
187.3180664228
 10
116.4416565607
 20
187.3604729986
 10
116.7087204973
 20
187.5184592305
 10
116.9244648571
 20
187.782882181
  0
LINE
  5
335
330
A
100
AcDbEntity
  8
1
  6
CONTINUOUS
370
    50
100
AcDbLine
 10
116.9244648571
 20
190.0566063714
 30
0.0
 11
116.9244648571
 21
190.0336152531
 31
0.0
  0
LINE
  5
336
330
A
100
AcDbEntity
  8
1
  6
CONTINUOUS
370
    50
100
AcDbLine
 10
114.0244648571
 20
172.1700617721
 30
0.0
 11
114.0244648571
 21
179.1700617721
 31
0.0
  0
LINE
  5
337
330
A
100
AcDbEntity
  8
1
  6
CONTINUOUS
370
    50
100
AcDbLine
 10
114.0244648571
 20
186.843571072
 30
0.0
 11
114.0244648571
 21
186.9965044262
 31
0.0
  0
LINE
  5
338
330
A
100
AcDbEntity
  8
1
  6
CONTINUOUS
370
    50
100
AcDbLine
 10
114.0244648571
 20
179.9965044262
 30
0.0
 11
114.0244648571
 21
186.843571072
 31
0.0
  0
LINE
  5
339
330
A
100
AcDbEntity
  8
1
  6
CONTINUOUS
370
    50
100
AcDbLine
 10
116.9244648571
 20
187.782882181
 30
0.0
 11
116.9244648571
 21
187.7648420398
 31
0.0
  0
LINE
  5
33A
330
A
100
AcDbEntity
  8
1
  6
CONTINUOUS
370
    50
100
AcDbLine
 10
101.6744648571
 20
200.7265001496
 30
0.0
 11
101.6744648571
 21
160.7265001496
 31
0.0
  0
LINE
  5
33B
330
A
100
AcDbEntity
  8
1
  6
CONTINUOUS
370
    50
100
AcDbLine
 10
105.6744648571
 20
160.7265001496
 30
0.0
 11
105.6744648571
 21
200.7265001496
 31
0.0
  0
LINE
  5
33C
330
A
100
AcDbEntity
  8
1
  6
CONTINUOUS
370
    50
100
AcDbLine
 10
114.4744648571
 20
200.7265001496
 30
0.0
 11
114.4744648571
 21
160.7265001496
 31
0.0
  0
LINE
  5
33D
330
A
100
AcDbEntity
  8
1
  6
CONTINUOUS
370
    50
100
AcDbLine
 10
116.4744648571
 20
160.7265001496
 30
0.0
 11
116.4744648571
 21
200.7265001496
 31
0.0
  0
LINE
  5
33E
330
A
100
AcDbEntity
  8
1
  6
CONTINUOUS
370
    50
100
AcDbLine
 10
114.4744648571
 20
160.7265001496
 30
0.0
 11
116.4744648571
 21
160.7265001496
 31
0.0
  0
LINE
  5
33F
330
A
100
AcDbEntity
  8
1
  6
CONTINUOUS
370
    50
100
AcDbLine
 10
101.6744648571
 20
160.7265001496
 30
0.0
 11
105.6744648571
 21
160.7265001496
 31
0.0
  0
LINE
  5
340
330
A
100
AcDbEntity
  8
1
  6
CONTINUOUS
370
    50
100
AcDbLine
 10
116.4744648571
 20
200.7265001496
 30
0.0
 11
114.4744648571
 21
200.7265001496
 31
0.0
  0
LINE
  5
341
330
A
100
AcDbEntity
  8
1
  6
CONTINUOUS
370
    50
100
AcDbLine
 10
105.6744648571
 20
200.7265001496
 30
0.0
 11
101.6744648571
 21
200.7265001496
 31
0.0
  0
LINE
  5
342
330
A
100
AcDbEntity
  8
1
  6
CONTINUOUS
370
    50
100
AcDbLine
 10
117.9244648571
 20
173.6767261499
 30
0.0
 11
116.4047958506
 21
174.1128544021
 31
0.0
  0
LINE
  5
343
330
A
100
AcDbEntity
  8
1
  6
CONTINUOUS
370
    50
100
AcDbLine
 10
115.2462103153
 20
170.0758159384
 30
0.0
 11
117.9244648571
 21
169.3071864097
 31
0.0
  0
LINE
  5
344
330
A
100
AcDbEntity
  8
1
  6
CONTINUOUS
370
    50
100
AcDbLine
 10
99.8744648571
 20
169.7952996181
 30
0.0
 11
109.676956864
 21
172.1428502258
 31
0.0
  0
LINE
  5
345
330
A
100
AcDbEntity
  8
1
  6
CONTINUOUS
370
    50
100
AcDbLine
 10
108.6142798883
 20
175.281668266
 30
0.0
 11
99.8744648571
 21
173.1886129415
 31
0.0
  0
LINE
  5
346
330
A
100
AcDbEntity
  8
1
  6
CONTINUOUS
370
    50
100
AcDbLine
 10
114.9725664537
 20
173.2731195313
 30
0.0
 11
114.8679294694
 21
173.1058329617
 31
0.0
  0
LINE
  5
347
330
A
100
AcDbEntity
  8
1
  6
CONTINUOUS
370
    50
100
AcDbLine
 10
114.477264863
 20
171.744579956
 30
0.0
 11
114.477264863
 21
171.5472637254
 31
0.0
  0
LINE
  5
348
330
A
100
AcDbEntity
  8
1
  6
CONTINUOUS
370
    50
100
AcDbLine
 10
115.9930230222
 20
173.7628636924
 30
0.0
 11
107.8541728118
 21
176.098623981
 31
0.0
  0
LINE
  5
349
330
A
100
AcDbEntity
  8
1
  6
CONTINUOUS
370
    50
100
AcDbLine
 10
109.6748608636
 20
172.1428967853
 30
0.0
 11
115.0827058159
 21
170.5909048995
 31
0.0
  0
LINE
  5
34A
330
A
100
AcDbEntity
  8
1
  6
CONTINUOUS
370
    50
100
AcDbLine
 10
106.9438556055
 20
172.9266651881
 30
0.0
 11
108.5517168587
 21
172.4652267333
 31
0.0
  0
LINE
  5
34B
330
A
100
AcDbEntity
  8
1
  6
CONTINUOUS
370
    50
100
AcDbLine
 10
100.1276187506
 20
203.7191591809
 30
0.0
 11
99.8744648571
 21
204.2620494575
 31
0.0
  0
ARC
  5
34C
330
A
100
AcDbEntity
  8
1
  6
CONTINUOUS
370
    50
100
AcDbCircle
 10
99.6744648571
 20
203.5078500501
 30
0.0
 40
0.5
100
AcDbArc
 50
0.0
 51
25.0
  0
ARC
  5
34D
330
A
100
AcDbEntity
  8
1
  6
CONTINUOUS
370
    50
100
AcDbCircle
 10
99.6744648571
 20
158.3015001496
 30
0.0
 40
0.5
100
AcDbArc
 50
0.0
 51
66.4218215218
  0
ARC
  5
34E
330
A
100
AcDbEntity
  8
1
  6
CONTINUOUS
370
    50
100
AcDbCircle
 10
99.6744648571
 20
203.1515001496
 30
0.0
 40
0.5
100
AcDbArc
 50
293.5781784782001
 51
0.0
  0
LINE
  5
34F
330
A
100
AcDbEntity
  8
1
  6
CONTINUOUS
370
    50
100
AcDbLine
 10
107.8465123673
 20
176.1008224442
 30
0.0
 11
95.026996848
 21
179.7798820774
 31
0.0
  0
LINE
  5
350
330
A
100
AcDbEntity
  8
1
  6
CONTINUOUS
370
    50
100
AcDbLine
 10
92.8301288734
 20
176.9771491722
 30
0.0
 11
106.9361951611
 21
172.9288636512
 31
0.0
  0
ARC
  5
351
330
A
100
AcDbEntity
  8
1
  6
CONTINUOUS
370
    50
100
AcDbCircle
 10
177.3744648571
 20
170.2915001496
 30
0.0
 40
1.5
100
AcDbArc
 50
0.0
 51
73.0710674448
  0
ARC
  5
352
330
A
100
AcDbEntity
  8
1
  6
CONTINUOUS
370
    50
100
AcDbCircle
 10
177.3744648571
 20
191.1615001496
 30
0.0
 40
1.5
100
AcDbArc
 50
286.9289325552
 51
0.0
  0
ARC
  5
353
330
A
100
AcDbEntity
  8
1
  6
CONTINUOUS
370
    50
100
AcDbCircle
 10
31.6244648571
 20
171.2265001496
 30
0.0
 40
1.0
100
AcDbArc
 50
136.778654881
 51
180.0
  0
ARC
  5
354
330
A
100
AcDbEntity
  8
1
  6
CONTINUOUS
370
    50
100
AcDbCircle
 10
31.6244648571
 20
190.2265001496
 30
0.0
 40
1.0
100
AcDbArc
 50
180.0
 51
223.221345119
  0
LINE
  5
355
330
A
100
AcDbEntity
  8
1
  6
CONTINUOUS
370
    50
100
AcDbLine
 10
129.3744648571
 20
171.5265001496
 30
0.0
 11
138.7589948071
 21
171.5265001496
 31
0.0
  0
LINE
  5
356
330
A
100
AcDbEntity
  8
1
  6
CONTINUOUS
370
    50
100
AcDbLine
 10
138.7589948071
 20
189.9265001496
 30
0.0
 11
129.3744648571
 21
189.9265001496
 31
0.0
  0
ARC
  5
357
330
A
100
AcDbEntity
  8
1
  6
CONTINUOUS
370
    50
100
AcDbCircle
 10
129.3744648571
 20
172.0265001496
 30
0.0
 40
0.5
100
AcDbArc
 50
180.0
 51
270.0
  0
ARC
  5
358
330
A
100
AcDbEntity
  8
1
  6
CONTINUOUS
370
    50
100
AcDbCircle
 10
129.3744648571
 20
189.4265001496
 30
0.0
 40
0.5
100
AcDbArc
 50
90.0
 51
180.0
  0
LINE
  5
359
330
A
100
AcDbEntity
  8
1
  6
CONTINUOUS
370
    50
100
AcDbLine
 10
138.7589948071
 20
171.5265001496
 30
0.0
 11
138.8744648609
 21
171.7265001496
 31
0.0
  0
LINE
  5
35A
330
A
100
AcDbEntity
  8
1
  6
CONTINUOUS
370
    50
100
AcDbLine
 10
138.8744648609
 20
189.7265001496
 30
0.0
 11
138.7589948071
 21
189.9265001496
 31
0.0
  0
LINE
  5
35B
330
A
100
AcDbEntity
  8
1
  6
CONTINUOUS
370
    50
100
AcDbLine
 10
138.8744648609
 20
171.7265001496
 30
0.0
 11
177.8112428327
 21
171.7265001496
 31
0.0
  0
LINE
  5
35C
330
A
100
AcDbEntity
  8
1
  6
CONTINUOUS
370
    50
100
AcDbLine
 10
177.8112428327
 20
189.7265001496
 30
0.0
 11
138.8744648609
 21
189.7265001496
 31
0.0
  0
LINE
  5
35D
330
A
100
AcDbEntity
  8
1
  6
CONTINUOUS
370
    50
100
AcDbLine
 10
30.8957513032
 20
171.9113187799
 30
0.0
 11
31.3957513032
 21
172.1999939145
 31
0.0
  0
LINE
  5
35E
330
A
100
AcDbEntity
  8
1
  6
CONTINUOUS
370
    50
100
AcDbLine
 10
31.3957513032
 20
189.2530063847
 30
0.0
 11
30.8957513032
 21
189.5416815193
 31
0.0
  0
LINE
  5
35F
330
A
100
AcDbEntity
  8
1
  6
CONTINUOUS
370
    50
100
AcDbLine
 10
39.1244648571
 20
172.0765001496
 30
0.0
 11
40.0337915311
 21
173.6515001496
 31
0.0
  0
LINE
  5
360
330
A
100
AcDbEntity
  8
1
  6
CONTINUOUS
370
    50
100
AcDbLine
 10
40.0337915311
 20
187.8015001496
 30
0.0
 11
39.1244648571
 21
189.3765001496
 31
0.0
  0
LINE
  5
361
330
A
100
AcDbEntity
  8
1
  6
CONTINUOUS
370
    50
100
AcDbLine
 10
39.1244648571
 20
189.3765001496
 30
0.0
 11
36.8141762888
 21
189.3765001496
 31
0.0
  0
LINE
  5
362
330
A
100
AcDbEntity
  8
1
  6
CONTINUOUS
370
    50
100
AcDbLine
 10
36.8141762888
 20
172.0765001496
 30
0.0
 11
39.1244648571
 21
172.0765001496
 31
0.0
  0
LINE
  5
363
330
A
100
AcDbEntity
  8
1
  6
CONTINUOUS
370
    50
100
AcDbLine
 10
36.8141762888
 20
189.3765001496
 30
0.0
 11
36.5543686676
 21
189.2265001496
 31
0.0
  0
LINE
  5
364
330
A
100
AcDbEntity
  8
1
  6
CONTINUOUS
370
    50
100
AcDbLine
 10
36.5543686676
 20
172.2265001496
 30
0.0
 11
36.8141762888
 21
172.0765001496
 31
0.0
  0
ARC
  5
365
330
A
100
AcDbEntity
  8
1
  6
CONTINUOUS
370
    50
100
AcDbCircle
 10
31.6244648571
 20
171.2265001496
 30
0.0
 40
1.0
100
AcDbArc
 50
90.0
 51
103.221345119
  0
ARC
  5
366
330
A
100
AcDbEntity
  8
1
  6
CONTINUOUS
370
    50
100
AcDbCircle
 10
31.6244648571
 20
190.2265001496
 30
0.0
 40
1.0
100
AcDbArc
 50
256.778654881
 51
270.0
  0
LINE
  5
367
330
A
100
AcDbEntity
  8
1
  6
CONTINUOUS
370
    50
100
AcDbLine
 10
31.6244648571
 20
172.2265001496
 30
0.0
 11
36.5543686676
 21
172.2265001496
 31
0.0
  0
LINE
  5
368
330
A
100
AcDbEntity
  8
1
  6
CONTINUOUS
370
    50
100
AcDbLine
 10
36.5543686676
 20
189.2265001496
 30
0.0
 11
31.6244648571
 21
189.2265001496
 31
0.0
  0
LINE
  5
369
330
A
100
AcDbEntity
  8
1
  6
CONTINUOUS
370
    50
100
AcDbLine
 10
64.6144648571
 20
187.8015001496
 30
0.0
 11
40.0337915311
 21
187.8015001496
 31
0.0
  0
LINE
  5
36A
330
A
100
AcDbEntity
  8
1
  6
CONTINUOUS
370
    50
100
AcDbLine
 10
40.0337915311
 20
173.6515001496
 30
0.0
 11
64.6144648571
 21
173.6515001496
 31
0.0
  0
LINE
  5
36B
330
A
100
AcDbEntity
  8
1
  6
CONTINUOUS
370
    50
100
AcDbLine
 10
75.6244648571
 20
187.8015001496
 30
0.0
 11
64.6244648571
 21
187.8015001496
 31
0.0
  0
LINE
  5
36C
330
A
100
AcDbEntity
  8
1
  6
CONTINUOUS
370
    50
100
AcDbLine
 10
64.6244648571
 20
173.6515001496
 30
0.0
 11
75.6244648571
 21
173.6515001496
 31
0.0
  0
LINE
  5
36D
330
A
100
AcDbEntity
  8
1
  6
CONTINUOUS
370
    50
100
AcDbLine
 10
109.6244648571
 20
187.7515001496
 30
0.0
 11
75.6426633688
 21
187.7515001496
 31
0.0
  0
LINE
  5
36E
330
A
100
AcDbEntity
  8
1
  6
CONTINUOUS
370
    50
100
AcDbLine
 10
75.6426633688
 20
173.7015001496
 30
0.0
 11
109.6244648571
 21
173.7015001496
 31
0.0
  0
LINE
  5
36F
330
A
100
AcDbEntity
  8
1
  6
CONTINUOUS
370
    50
100
AcDbLine
 10
109.6244648571
 20
173.7015001496
 30
0.0
 11
110.5049240176
 21
175.2265001496
 31
0.0
  0
LINE
  5
370
330
A
100
AcDbEntity
  8
1
  6
CONTINUOUS
370
    50
100
AcDbLine
 10
110.5049240176
 20
186.2265001496
 30
0.0
 11
109.6244648571
 21
187.7515001496
 31
0.0
  0
LINE
  5
371
330
A
100
AcDbEntity
  8
1
  6
CONTINUOUS
370
    50
100
AcDbLine
 10
110.5049240176
 20
175.2265001496
 30
0.0
 11
128.8744648571
 21
175.2265001496
 31
0.0
  0
LINE
  5
372
330
A
100
AcDbEntity
  8
1
  6
CONTINUOUS
370
    50
100
AcDbLine
 10
128.8744648571
 20
186.2265001496
 30
0.0
 11
110.5049240176
 21
186.2265001496
 31
0.0
  0
LINE
  5
373
330
A
100
AcDbEntity
  8
1
  6
CONTINUOUS
370
    50
100
AcDbLine
 10
104.7744648571
 20
205.5265001496
 30
0.0
 11
104.9744648571
 21
205.3265001496
 31
0.0
  0
LINE
  5
374
330
A
100
AcDbEntity
  8
1
  6
CONTINUOUS
370
    50
100
AcDbLine
 10
114.9744648571
 20
205.3265001496
 30
0.0
 11
115.1744648571
 21
205.5265001496
 31
0.0
  0
ARC
  5
375
330
A
100
AcDbEntity
  8
1
  6
CONTINUOUS
370
    50
100
AcDbCircle
 10
105.2744648571
 20
201.1265001496
 30
0.0
 40
0.3
100
AcDbArc
 50
180.0
 51
270.0
  0
ARC
  5
376
330
A
100
AcDbEntity
  8
1
  6
CONTINUOUS
370
    50
100
AcDbCircle
 10
114.6744648571
 20
201.1265001496
 30
0.0
 40
0.3
100
AcDbArc
 50
270.0
 51
0.0
  0
LINE
  5
377
330
A
100
AcDbEntity
  8
1
  6
CONTINUOUS
370
    50
100
AcDbLine
 10
104.9744648571
 20
205.3265001496
 30
0.0
 11
104.9744648571
 21
201.1265001496
 31
0.0
  0
LINE
  5
378
330
A
100
AcDbEntity
  8
1
  6
CONTINUOUS
370
    50
100
AcDbLine
 10
114.9744648571
 20
201.1265001496
 30
0.0
 11
114.9744648571
 21
205.3265001496
 31
0.0
  0
LINE
  5
379
330
A
100
AcDbEntity
  8
1
  6
CONTINUOUS
370
    50
100
AcDbLine
 10
108.4744648571
 20
200.8265001496
 30
0.0
 11
108.8744648571
 21
200.4265001496
 31
0.0
  0
LINE
  5
37A
330
A
100
AcDbEntity
  8
1
  6
CONTINUOUS
370
    50
100
AcDbLine
 10
111.0744648571
 20
200.4265001496
 30
0.0
 11
111.4744648571
 21
200.8265001496
 31
0.0
  0
LINE
  5
37B
330
A
100
AcDbEntity
  8
1
  6
CONTINUOUS
370
    50
100
AcDbLine
 10
108.8744648571
 20
194.4265001496
 30
0.0
 11
109.9744648571
 21
194.0261328919
 31
0.0
  0
LINE
  5
37C
330
A
100
AcDbEntity
  8
1
  6
CONTINUOUS
370
    50
100
AcDbLine
 10
109.9744648571
 20
194.0261328919
 30
0.0
 11
111.0744648571
 21
194.4265001496
 31
0.0
  0
LINE
  5
37D
330
A
100
AcDbEntity
  8
1
  6
CONTINUOUS
370
    50
100
AcDbLine
 10
108.8744648571
 20
197.0165001496
 30
0.0
 11
108.8744648571
 21
194.4265001496
 31
0.0
  0
LINE
  5
37E
330
A
100
AcDbEntity
  8
1
  6
CONTINUOUS
370
    50
100
AcDbLine
 10
111.0744648571
 20
194.4265001496
 30
0.0
 11
111.0744648571
 21
197.0165001496
 31
0.0
  0
LINE
  5
37F
330
A
100
AcDbEntity
  8
1
  6
CONTINUOUS
370
    50
100
AcDbLine
 10
108.8744648571
 20
200.4265001496
 30
0.0
 11
108.8744648571
 21
197.0265001496
 31
0.0
  0
LINE
  5
380
330
A
100
AcDbEntity
  8
1
  6
CONTINUOUS
370
    50
100
AcDbLine
 10
111.0744648571
 20
197.0265001496
 30
0.0
 11
111.0744648571
 21
200.4265001496
 31
0.0
  0
LINE
  5
381
330
A
100
AcDbEntity
  8
1
  6
CONTINUOUS
370
    50
100
AcDbLine
 10
106.9361951611
 20
188.5241366479
 30
0.0
 11
92.8301288734
 21
184.475851127
 31
0.0
  0
LINE
  5
382
330
A
100
AcDbEntity
  8
1
  6
CONTINUOUS
370
    50
100
AcDbLine
 10
95.0270962743
 20
181.673146756
 30
0.0
 11
107.8465123673
 21
185.352177855
 31
0.0
  0
LINE
  5
383
330
A
100
AcDbEntity
  8
1
  6
CONTINUOUS
370
    50
100
AcDbLine
 10
108.5517168587
 20
188.9877735658
 30
0.0
 11
106.9438556055
 21
188.526335111
 31
0.0
  0
LINE
  5
384
330
A
100
AcDbEntity
  8
1
  6
CONTINUOUS
370
    50
100
AcDbLine
 10
115.0827058159
 20
190.8620953997
 30
0.0
 11
109.6748608636
 21
189.3101035139
 31
0.0
  0
LINE
  5
385
330
A
100
AcDbEntity
  8
1
  6
CONTINUOUS
370
    50
100
AcDbLine
 10
107.8541728118
 20
185.3543763181
 30
0.0
 11
115.9930230222
 21
187.6901366068
 31
0.0
  0
LINE
  5
386
330
A
100
AcDbEntity
  8
1
  6
CONTINUOUS
370
    50
100
AcDbLine
 10
99.8744648571
 20
188.2643873577
 30
0.0
 11
108.6142798883
 21
186.1713320332
 31
0.0
  0
LINE
  5
387
330
A
100
AcDbEntity
  8
1
  6
CONTINUOUS
370
    50
100
AcDbLine
 10
109.676956864
 20
189.3101500734
 30
0.0
 11
99.8744648571
 21
191.6577006811
 31
0.0
  0
LINE
  5
388
330
A
100
AcDbEntity
  8
1
  6
CONTINUOUS
370
    50
100
AcDbLine
 10
117.9244648571
 20
192.1458138895
 30
0.0
 11
115.2462103153
 21
191.3771843608
 31
0.0
  0
LINE
  5
389
330
A
100
AcDbEntity
  8
1
  6
CONTINUOUS
370
    50
100
AcDbLine
 10
116.4047958506
 20
187.340145897
 30
0.0
 11
117.9244648571
 21
187.7762741493
 31
0.0
  0
LINE
  5
38A
330
A
100
AcDbEntity
  8
1
  6
CONTINUOUS
370
    50
100
AcDbLine
 10
114.477264863
 20
189.9057365738
 30
0.0
 11
114.477264863
 21
189.7084203431
 31
0.0
  0
LINE
  5
38B
330
A
100
AcDbEntity
  8
1
  6
CONTINUOUS
370
    50
100
AcDbLine
 10
114.8679294694
 20
188.3471673375
 30
0.0
 11
114.9725664537
 21
188.1798807678
 31
0.0
  0
LINE
  5
38C
330
A
100
AcDbEntity
  8
1
  6
CONTINUOUS
370
    50
100
AcDbLine
 10
114.0244648571
 20
172.1700617721
 30
0.0
 11
117.9244648571
 21
172.1700617721
 31
0.0
  0
LINE
  5
38D
330
A
100
AcDbEntity
  8
1
  6
CONTINUOUS
370
    50
100
AcDbLine
 10
117.9244648571
 20
179.1700617721
 30
0.0
 11
114.0244648571
 21
179.1700617721
 31
0.0
  0
LINE
  5
38E
330
A
100
AcDbEntity
  8
1
  6
CONTINUOUS
370
    50
100
AcDbLine
 10
114.0244648571
 20
179.1700617721
 30
0.0
 11
112.7505690371
 21
175.6700617721
 31
0.0
  0
LINE
  5
38F
330
A
100
AcDbEntity
  8
1
  6
CONTINUOUS
370
    50
100
AcDbLine
 10
112.7505690371
 20
175.6700617721
 30
0.0
 11
114.0244648571
 21
172.1700617721
 31
0.0
  0
LINE
  5
390
330
A
100
AcDbEntity
  8
1
  6
CONTINUOUS
370
    50
100
AcDbLine
 10
114.0244648571
 20
186.9965044262
 30
0.0
 11
112.7505690371
 21
183.4965044262
 31
0.0
  0
LINE
  5
391
330
A
100
AcDbEntity
  8
1
  6
CONTINUOUS
370
    50
100
AcDbLine
 10
112.7505690371
 20
183.4965044262
 30
0.0
 11
114.0244648571
 21
179.9965044262
 31
0.0
  0
LINE
  5
392
330
A
100
AcDbEntity
  8
1
  6
CONTINUOUS
370
    50
100
AcDbLine
 10
114.0244648571
 20
179.9965044262
 30
0.0
 11
117.9244648571
 21
179.9965044262
 31
0.0
  0
LINE
  5
393
330
A
100
AcDbEntity
  8
1
  6
CONTINUOUS
370
    50
100
AcDbLine
 10
117.9244648571
 20
186.9965044262
 30
0.0
 11
114.0244648571
 21
186.9965044262
 31
0.0
  0
LINE
  5
394
330
A
100
AcDbEntity
  8
1
  6
CONTINUOUS
370
    50
100
AcDbLine
 10
99.6744648571
 20
202.6515001496
 30
0.0
 11
99.6744648571
 21
158.8015001496
 31
0.0
  0
LINE
  5
395
330
A
100
AcDbEntity
  8
1
  6
CONTINUOUS
370
    50
100
AcDbLine
 10
99.4173551337
 20
202.6983462561
 30
0.0
 11
99.4173551337
 21
158.7546540431
 31
0.0
  0
LINE
  5
396
330
A
100
AcDbEntity
  8
1
  6
CONTINUOUS
370
    50
100
AcDbLine
 10
99.6286642646
 20
202.6515001496
 30
0.0
 11
99.6286642646
 21
158.8015001496
 31
0.0
  0
LINE
  5
397
330
A
100
AcDbEntity
  8
1
  6
CONTINUOUS
370
    50
100
AcDbLine
 10
31.3769487508
 20
193.1061081873
 30
0.0
 11
31.3769487508
 21
168.3468921119
 31
0.0
  0
LINE
  5
398
330
A
100
AcDbEntity
  8
1
  6
CONTINUOUS
370
    50
100
AcDbLine
 10
106.1530115812
 20
186.9381572515
 30
0.0
 11
106.1062571425
 21
187.5132449467
 31
0.0
  0
LINE
  5
399
330
A
100
AcDbEntity
  8
1
  6
CONTINUOUS
370
    50
100
AcDbLine
 10
106.1062571425
 20
187.5132449467
 30
0.0
 11
106.1736891782
 21
188.0372335764
 31
0.0
  0
LINE
  5
39A
330
A
100
AcDbEntity
  8
1
  6
CONTINUOUS
370
    50
100
AcDbLine
 10
106.1736891782
 20
188.0372335764
 30
0.0
 11
106.349316056
 21
188.4635644515
 31
0.0
  0
LINE
  5
39B
330
A
100
AcDbEntity
  8
1
  6
CONTINUOUS
370
    50
100
AcDbLine
 10
106.349316056
 20
188.4635644515
 30
0.0
 11
106.6175325571
 21
188.7543562027
 31
0.0
  0
LINE
  5
39C
330
A
100
AcDbEntity
  8
1
  6
CONTINUOUS
370
    50
100
AcDbLine
 10
106.6175325571
 20
188.7543562027
 30
0.0
 11
106.9545064683
 21
188.8837707068
 31
0.0
  0
LINE
  5
39D
330
A
100
AcDbEntity
  8
1
  6
CONTINUOUS
370
    50
100
AcDbLine
 10
106.9545064683
 20
188.8837707068
 30
0.0
 11
107.3302961788
 21
188.8403089173
 31
0.0
  0
LINE
  5
39E
330
A
100
AcDbEntity
  8
1
  6
CONTINUOUS
370
    50
100
AcDbLine
 10
107.3302961788
 20
188.8403089173
 30
0.0
 11
107.7115111237
 21
188.6278326047
 31
0.0
  0
LINE
  5
39F
330
A
100
AcDbEntity
  8
1
  6
CONTINUOUS
370
    50
100
AcDbLine
 10
107.7115111237
 20
188.6278326047
 30
0.0
 11
108.0642786822
 21
188.2652212221
 31
0.0
  0
LINE
  5
3A0
330
A
100
AcDbEntity
  8
1
  6
CONTINUOUS
370
    50
100
AcDbLine
 10
108.0642786822
 20
188.2652212221
 30
0.0
 11
108.3572539087
 21
187.7846943819
 31
0.0
  0
LINE
  5
3A1
330
A
100
AcDbEntity
  8
1
  6
CONTINUOUS
370
    50
100
AcDbLine
 10
108.3572539087
 20
187.7846943819
 30
0.0
 11
108.5644046685
 21
187.2289490027
 31
0.0
  0
LINE
  5
3A2
330
A
100
AcDbEntity
  8
1
  6
CONTINUOUS
370
    50
100
AcDbLine
 10
108.5644046685
 20
187.2289490027
 30
0.0
 11
108.6673247077
 21
186.6473655003
 31
0.0
  0
LINE
  5
3A3
330
A
100
AcDbEntity
  8
1
  6
CONTINUOUS
370
    50
100
AcDbLine
 10
108.6673247077
 20
186.6473655003
 30
0.0
 11
108.656869129
 21
186.0916201211
 31
0.0
  0
LINE
  5
3A4
330
A
100
AcDbEntity
  8
1
  6
CONTINUOUS
370
    50
100
AcDbLine
 10
108.656869129
 20
186.0916201211
 30
0.0
 11
108.5339669566
 21
185.6110932809
 31
0.0
  0
LINE
  5
3A5
330
A
100
AcDbEntity
  8
1
  6
CONTINUOUS
370
    50
100
AcDbLine
 10
108.5339669566
 20
185.6110932809
 30
0.0
 11
108.3095385877
 21
185.2484818982
 31
0.0
  0
LINE
  5
3A6
330
A
100
AcDbEntity
  8
1
  6
CONTINUOUS
370
    50
100
AcDbLine
 10
108.3095385877
 20
185.2484818982
 30
0.0
 11
108.0035254678
 21
185.0360055857
 31
0.0
  0
LINE
  5
3A7
330
A
100
AcDbEntity
  8
1
  6
CONTINUOUS
370
    50
100
AcDbLine
 10
108.0035254678
 20
185.0360055857
 30
0.0
 11
107.6431182057
 21
184.9925437961
 31
0.0
  0
LINE
  5
3A8
330
A
100
AcDbEntity
  8
1
  6
CONTINUOUS
370
    50
100
AcDbLine
 10
107.6431182057
 20
184.9925437961
 30
0.0
 11
107.260340568
 21
185.1219583003
 31
0.0
  0
LINE
  5
3A9
330
A
100
AcDbEntity
  8
1
  6
CONTINUOUS
370
    50
100
AcDbLine
 10
107.260340568
 20
185.1219583003
 30
0.0
 11
106.8892040278
 21
185.4127500515
 31
0.0
  0
LINE
  5
3AA
330
A
100
AcDbEntity
  8
1
  6
CONTINUOUS
370
    50
100
AcDbLine
 10
106.8892040278
 20
185.4127500515
 30
0.0
 11
106.5626856953
 21
185.8390809265
 31
0.0
  0
LINE
  5
3AB
330
A
100
AcDbEntity
  8
1
  6
CONTINUOUS
370
    50
100
AcDbLine
 10
106.5626856953
 20
185.8390809265
 30
0.0
 11
106.3097981573
 21
186.3630695563
 31
0.0
  0
LINE
  5
3AC
330
A
100
AcDbEntity
  8
1
  6
CONTINUOUS
370
    50
100
AcDbLine
 10
106.3097981573
 20
186.3630695563
 30
0.0
 11
106.1530115812
 21
186.9381572515
 31
0.0
  0
LINE
  5
3AD
330
A
100
AcDbEntity
  8
1
  6
CONTINUOUS
370
    50
100
AcDbLine
 10
114.3272110203
 20
190.4017976519
 30
0.0
 11
114.253527015
 21
189.8820695282
 31
0.0
  0
LINE
  5
3AE
330
A
100
AcDbEntity
  8
1
  6
CONTINUOUS
370
    50
100
AcDbLine
 10
114.253527015
 20
189.8820695282
 30
0.0
 11
114.2939620242
 21
189.3084997747
 31
0.0
  0
LINE
  5
3AF
330
A
100
AcDbEntity
  8
1
  6
CONTINUOUS
370
    50
100
AcDbLine
 10
114.2939620242
 20
189.3084997747
 30
0.0
 11
114.44492322
 21
188.732052581
 31
0.0
  0
LINE
  5
3B0
330
A
100
AcDbEntity
  8
1
  6
CONTINUOUS
370
    50
100
AcDbLine
 10
114.44492322
 20
188.732052581
 30
0.0
 11
114.6929970377
 21
188.20394781
 31
0.0
  0
LINE
  5
3B1
330
A
100
AcDbEntity
  8
1
  6
CONTINUOUS
370
    50
100
AcDbLine
 10
114.6929970377
 20
188.20394781
 30
0.0
 11
115.0161410298
 21
187.771109888
 31
0.0
  0
LINE
  5
3B2
330
A
100
AcDbEntity
  8
1
  6
CONTINUOUS
370
    50
100
AcDbLine
 10
115.0161410298
 20
187.771109888
 30
0.0
 11
115.3856424346
 21
187.471998364
 31
0.0
  0
LINE
  5
3B3
330
A
100
AcDbEntity
  8
1
  6
CONTINUOUS
370
    50
100
AcDbLine
 10
115.3856424346
 20
187.471998364
 30
0.0
 11
115.7686694307
 21
187.3331906095
 31
0.0
  0
LINE
  5
3B4
330
A
100
AcDbEntity
  8
1
  6
CONTINUOUS
370
    50
100
AcDbLine
 10
115.7686694307
 20
187.3331906095
 30
0.0
 11
116.1311883887
 21
187.3670203026
 31
0.0
  0
LINE
  5
3B5
330
A
100
AcDbEntity
  8
1
  6
CONTINUOUS
370
    50
100
AcDbLine
 10
116.1311883887
 20
187.3670203026
 30
0.0
 11
116.4409879082
 21
187.5704815266
 31
0.0
  0
LINE
  5
3B6
330
A
100
AcDbEntity
  8
1
  6
CONTINUOUS
370
    50
100
AcDbLine
 10
116.4409879082
 20
187.5704815266
 30
0.0
 11
116.6705409424
 21
187.925495859
 31
0.0
  0
LINE
  5
3B7
330
A
100
AcDbEntity
  8
1
  6
CONTINUOUS
370
    50
100
AcDbLine
 10
116.6705409424
 20
187.925495859
 30
0.0
 11
116.7994506968
 21
188.4005187182
 31
0.0
  0
LINE
  5
3B8
330
A
100
AcDbEntity
  8
1
  6
CONTINUOUS
370
    50
100
AcDbLine
 10
116.7994506968
 20
188.4005187182
 30
0.0
 11
116.8162629741
 21
188.9533422387
 31
0.0
  0
LINE
  5
3B9
330
A
100
AcDbEntity
  8
1
  6
CONTINUOUS
370
    50
100
AcDbLine
 10
116.8162629741
 20
188.9533422387
 30
0.0
 11
116.7194839296
 21
189.5348456247
 31
0.0
  0
LINE
  5
3BA
330
A
100
AcDbEntity
  8
1
  6
CONTINUOUS
370
    50
100
AcDbLine
 10
116.7194839296
 20
189.5348456247
 30
0.0
 11
116.5177128061
 21
190.0933597484
 31
0.0
  0
LINE
  5
3BB
330
A
100
AcDbEntity
  8
1
  6
CONTINUOUS
370
    50
100
AcDbLine
 10
116.5177128061
 20
190.0933597484
 30
0.0
 11
116.2288778534
 21
190.5792581789
 31
0.0
  0
LINE
  5
3BC
330
A
100
AcDbEntity
  8
1
  6
CONTINUOUS
370
    50
100
AcDbLine
 10
116.2288778534
 20
190.5792581789
 30
0.0
 11
115.8786433247
 21
190.9493667084
 31
0.0
  0
LINE
  5
3BD
330
A
100
AcDbEntity
  8
1
  6
CONTINUOUS
370
    50
100
AcDbLine
 10
115.8786433247
 20
190.9493667084
 30
0.0
 11
115.4981290947
 21
191.1707995698
 31
0.0
  0
LINE
  5
3BE
330
A
100
AcDbEntity
  8
1
  6
CONTINUOUS
370
    50
100
AcDbLine
 10
115.4981290947
 20
191.1707995698
 30
0.0
 11
115.1211455226
 21
191.2238814816
 31
0.0
  0
LINE
  5
3BF
330
A
100
AcDbEntity
  8
1
  6
CONTINUOUS
370
    50
100
AcDbLine
 10
115.1211455226
 20
191.2238814816
 30
0.0
 11
114.7811892532
 21
191.103895883
 31
0.0
  0
LINE
  5
3C0
330
A
100
AcDbEntity
  8
1
  6
CONTINUOUS
370
    50
100
AcDbLine
 10
114.7811892532
 20
191.103895883
 30
0.0
 11
114.5084668929
 21
190.821504021
 31
0.0
  0
LINE
  5
3C1
330
A
100
AcDbEntity
  8
1
  6
CONTINUOUS
370
    50
100
AcDbLine
 10
114.5084668929
 20
190.821504021
 30
0.0
 11
114.3272110203
 21
190.4017976519
 31
0.0
  0
LINE
  5
3C2
330
A
100
AcDbEntity
  8
1
  6
CONTINUOUS
370
    50
100
AcDbLine
 10
108.6373563916
 20
186.9403557146
 30
0.0
 11
108.6841108303
 21
186.3652680194
 31
0.0
  0
LINE
  5
3C3
330
A
100
AcDbEntity
  8
1
  6
CONTINUOUS
370
    50
100
AcDbLine
 10
108.6841108303
 20
186.3652680194
 30
0.0
 11
108.6166787946
 21
185.8412793896
 31
0.0
  0
LINE
  5
3C4
330
A
100
AcDbEntity
  8
1
  6
CONTINUOUS
370
    50
100
AcDbLine
 10
108.6166787946
 20
185.8412793896
 30
0.0
 11
108.4410519168
 21
185.4149485146
 31
0.0
  0
LINE
  5
3C5
330
A
100
AcDbEntity
  8
1
  6
CONTINUOUS
370
    50
100
AcDbLine
 10
108.4410519168
 20
185.4149485146
 30
0.0
 11
108.1728354157
 21
185.1241567634
 31
0.0
  0
LINE
  5
3C6
330
A
100
AcDbEntity
  8
1
  6
CONTINUOUS
370
    50
100
AcDbLine
 10
108.1728354157
 20
185.1241567634
 30
0.0
 11
107.8358615045
 21
184.9947422592
 31
0.0
  0
LINE
  5
3C7
330
A
100
AcDbEntity
  8
1
  6
CONTINUOUS
370
    50
100
AcDbLine
 10
107.8358615045
 20
184.9947422592
 30
0.0
 11
107.4600717941
 21
185.0382040488
 31
0.0
  0
LINE
  5
3C8
330
A
100
AcDbEntity
  8
1
  6
CONTINUOUS
370
    50
100
AcDbLine
 10
107.4600717941
 20
185.0382040488
 30
0.0
 11
107.0788568491
 21
185.2506803613
 31
0.0
  0
LINE
  5
3C9
330
A
100
AcDbEntity
  8
1
  6
CONTINUOUS
370
    50
100
AcDbLine
 10
107.0788568491
 20
185.2506803613
 30
0.0
 11
106.7260892906
 21
185.613291744
 31
0.0
  0
LINE
  5
3CA
330
A
100
AcDbEntity
  8
1
  6
CONTINUOUS
370
    50
100
AcDbLine
 10
106.7260892906
 20
185.613291744
 30
0.0
 11
106.4331140641
 21
186.0938185842
 31
0.0
  0
LINE
  5
3CB
330
A
100
AcDbEntity
  8
1
  6
CONTINUOUS
370
    50
100
AcDbLine
 10
106.4331140641
 20
186.0938185842
 30
0.0
 11
106.2259633043
 21
186.6495639634
 31
0.0
  0
LINE
  5
3CC
330
A
100
AcDbEntity
  8
1
  6
CONTINUOUS
370
    50
100
AcDbLine
 10
106.2259633043
 20
186.6495639634
 30
0.0
 11
106.1230432651
 21
187.2311474658
 31
0.0
  0
LINE
  5
3CD
330
A
100
AcDbEntity
  8
1
  6
CONTINUOUS
370
    50
100
AcDbLine
 10
106.1230432651
 20
187.2311474658
 30
0.0
 11
106.1334988438
 21
187.786892845
 31
0.0
  0
LINE
  5
3CE
330
A
100
AcDbEntity
  8
1
  6
CONTINUOUS
370
    50
100
AcDbLine
 10
106.1334988438
 20
187.786892845
 30
0.0
 11
106.2564010163
 21
188.2674196852
 31
0.0
  0
LINE
  5
3CF
330
A
100
AcDbEntity
  8
1
  6
CONTINUOUS
370
    50
100
AcDbLine
 10
106.2564010163
 20
188.2674196852
 30
0.0
 11
106.4808293851
 21
188.6300310678
 31
0.0
  0
LINE
  5
3D0
330
A
100
AcDbEntity
  8
1
  6
CONTINUOUS
370
    50
100
AcDbLine
 10
106.4808293851
 20
188.6300310678
 30
0.0
 11
106.786842505
 21
188.8425073804
 31
0.0
  0
LINE
  5
3D1
330
A
100
AcDbEntity
  8
1
  6
CONTINUOUS
370
    50
100
AcDbLine
 10
106.786842505
 20
188.8425073804
 30
0.0
 11
107.1472497672
 21
188.8859691699
 31
0.0
  0
LINE
  5
3D2
330
A
100
AcDbEntity
  8
1
  6
CONTINUOUS
370
    50
100
AcDbLine
 10
107.1472497672
 20
188.8859691699
 30
0.0
 11
107.5300274048
 21
188.7565546658
 31
0.0
  0
LINE
  5
3D3
330
A
100
AcDbEntity
  8
1
  6
CONTINUOUS
370
    50
100
AcDbLine
 10
107.5300274048
 20
188.7565546658
 30
0.0
 11
107.901163945
 21
188.4657629146
 31
0.0
  0
LINE
  5
3D4
330
A
100
AcDbEntity
  8
1
  6
CONTINUOUS
370
    50
100
AcDbLine
 10
107.901163945
 20
188.4657629146
 30
0.0
 11
108.2276822775
 21
188.0394320395
 31
0.0
  0
LINE
  5
3D5
330
A
100
AcDbEntity
  8
1
  6
CONTINUOUS
370
    50
100
AcDbLine
 10
108.2276822775
 20
188.0394320395
 30
0.0
 11
108.4805698156
 21
187.5154434098
 31
0.0
  0
LINE
  5
3D6
330
A
100
AcDbEntity
  8
1
  6
CONTINUOUS
370
    50
100
AcDbLine
 10
108.4805698156
 20
187.5154434098
 30
0.0
 11
108.6373563916
 21
186.9403557146
 31
0.0
  0
LINE
  5
3D7
330
A
100
AcDbEntity
  8
1
  6
CONTINUOUS
370
    50
100
AcDbLine
 10
106.1530115812
 20
174.5148430477
 30
0.0
 11
106.1062571425
 21
173.9397553525
 31
0.0
  0
LINE
  5
3D8
330
A
100
AcDbEntity
  8
1
  6
CONTINUOUS
370
    50
100
AcDbLine
 10
106.1062571425
 20
173.9397553525
 30
0.0
 11
106.1736891782
 21
173.4157667227
 31
0.0
  0
LINE
  5
3D9
330
A
100
AcDbEntity
  8
1
  6
CONTINUOUS
370
    50
100
AcDbLine
 10
106.1736891782
 20
173.4157667227
 30
0.0
 11
106.349316056
 21
172.9894358477
 31
0.0
  0
LINE
  5
3DA
330
A
100
AcDbEntity
  8
1
  6
CONTINUOUS
370
    50
100
AcDbLine
 10
106.349316056
 20
172.9894358477
 30
0.0
 11
106.6175325571
 21
172.6986440965
 31
0.0
  0
LINE
  5
3DB
330
A
100
AcDbEntity
  8
1
  6
CONTINUOUS
370
    50
100
AcDbLine
 10
106.6175325571
 20
172.6986440965
 30
0.0
 11
106.9545064683
 21
172.5692295923
 31
0.0
  0
LINE
  5
3DC
330
A
100
AcDbEntity
  8
1
  6
CONTINUOUS
370
    50
100
AcDbLine
 10
106.9545064683
 20
172.5692295923
 30
0.0
 11
107.3302961788
 21
172.6126913819
 31
0.0
  0
LINE
  5
3DD
330
A
100
AcDbEntity
  8
1
  6
CONTINUOUS
370
    50
100
AcDbLine
 10
107.3302961788
 20
172.6126913819
 30
0.0
 11
107.7115111237
 21
172.8251676944
 31
0.0
  0
LINE
  5
3DE
330
A
100
AcDbEntity
  8
1
  6
CONTINUOUS
370
    50
100
AcDbLine
 10
107.7115111237
 20
172.8251676944
 30
0.0
 11
108.0642786822
 21
173.1877790771
 31
0.0
  0
LINE
  5
3DF
330
A
100
AcDbEntity
  8
1
  6
CONTINUOUS
370
    50
100
AcDbLine
 10
108.0642786822
 20
173.1877790771
 30
0.0
 11
108.3572539087
 21
173.6683059173
 31
0.0
  0
LINE
  5
3E0
330
A
100
AcDbEntity
  8
1
  6
CONTINUOUS
370
    50
100
AcDbLine
 10
108.3572539087
 20
173.6683059173
 30
0.0
 11
108.5644046685
 21
174.2240512965
 31
0.0
  0
LINE
  5
3E1
330
A
100
AcDbEntity
  8
1
  6
CONTINUOUS
370
    50
100
AcDbLine
 10
108.5644046685
 20
174.2240512965
 30
0.0
 11
108.6673247077
 21
174.8056347989
 31
0.0
  0
LINE
  5
3E2
330
A
100
AcDbEntity
  8
1
  6
CONTINUOUS
370
    50
100
AcDbLine
 10
108.6673247077
 20
174.8056347989
 30
0.0
 11
108.656869129
 21
175.3613801781
 31
0.0
  0
LINE
  5
3E3
330
A
100
AcDbEntity
  8
1
  6
CONTINUOUS
370
    50
100
AcDbLine
 10
108.656869129
 20
175.3613801781
 30
0.0
 11
108.5339669566
 21
175.8419070183
 31
0.0
  0
LINE
  5
3E4
330
A
100
AcDbEntity
  8
1
  6
CONTINUOUS
370
    50
100
AcDbLine
 10
108.5339669566
 20
175.8419070183
 30
0.0
 11
108.3095385877
 21
176.204518401
 31
0.0
  0
LINE
  5
3E5
330
A
100
AcDbEntity
  8
1
  6
CONTINUOUS
370
    50
100
AcDbLine
 10
108.3095385877
 20
176.204518401
 30
0.0
 11
108.0035254678
 21
176.4169947135
 31
0.0
  0
LINE
  5
3E6
330
A
100
AcDbEntity
  8
1
  6
CONTINUOUS
370
    50
100
AcDbLine
 10
108.0035254678
 20
176.4169947135
 30
0.0
 11
107.6431182057
 21
176.460456503
 31
0.0
  0
LINE
  5
3E7
330
A
100
AcDbEntity
  8
1
  6
CONTINUOUS
370
    50
100
AcDbLine
 10
107.6431182057
 20
176.460456503
 30
0.0
 11
107.260340568
 21
176.3310419989
 31
0.0
  0
LINE
  5
3E8
330
A
100
AcDbEntity
  8
1
  6
CONTINUOUS
370
    50
100
AcDbLine
 10
107.260340568
 20
176.3310419989
 30
0.0
 11
106.8892040278
 21
176.0402502477
 31
0.0
  0
LINE
  5
3E9
330
A
100
AcDbEntity
  8
1
  6
CONTINUOUS
370
    50
100
AcDbLine
 10
106.8892040278
 20
176.0402502477
 30
0.0
 11
106.5626856953
 21
175.6139193726
 31
0.0
  0
LINE
  5
3EA
330
A
100
AcDbEntity
  8
1
  6
CONTINUOUS
370
    50
100
AcDbLine
 10
106.5626856953
 20
175.6139193726
 30
0.0
 11
106.3097981573
 21
175.0899307429
 31
0.0
  0
LINE
  5
3EB
330
A
100
AcDbEntity
  8
1
  6
CONTINUOUS
370
    50
100
AcDbLine
 10
106.3097981573
 20
175.0899307429
 30
0.0
 11
106.1530115812
 21
174.5148430477
 31
0.0
  0
LINE
  5
3EC
330
A
100
AcDbEntity
  8
1
  6
CONTINUOUS
370
    50
100
AcDbLine
 10
114.3272110203
 20
171.0512026473
 30
0.0
 11
114.253527015
 21
171.5709307709
 31
0.0
  0
LINE
  5
3ED
330
A
100
AcDbEntity
  8
1
  6
CONTINUOUS
370
    50
100
AcDbLine
 10
114.253527015
 20
171.5709307709
 30
0.0
 11
114.2939620242
 21
172.1445005244
 31
0.0
  0
LINE
  5
3EE
330
A
100
AcDbEntity
  8
1
  6
CONTINUOUS
370
    50
100
AcDbLine
 10
114.2939620242
 20
172.1445005244
 30
0.0
 11
114.44492322
 21
172.7209477181
 31
0.0
  0
LINE
  5
3EF
330
A
100
AcDbEntity
  8
1
  6
CONTINUOUS
370
    50
100
AcDbLine
 10
114.44492322
 20
172.7209477181
 30
0.0
 11
114.6929970377
 21
173.2490524892
 31
0.0
  0
LINE
  5
3F0
330
A
100
AcDbEntity
  8
1
  6
CONTINUOUS
370
    50
100
AcDbLine
 10
114.6929970377
 20
173.2490524892
 30
0.0
 11
115.0161410298
 21
173.6818904112
 31
0.0
  0
LINE
  5
3F1
330
A
100
AcDbEntity
  8
1
  6
CONTINUOUS
370
    50
100
AcDbLine
 10
115.0161410298
 20
173.6818904112
 30
0.0
 11
115.3856424346
 21
173.9810019352
 31
0.0
  0
LINE
  5
3F2
330
A
100
AcDbEntity
  8
1
  6
CONTINUOUS
370
    50
100
AcDbLine
 10
115.3856424346
 20
173.9810019352
 30
0.0
 11
115.7686694307
 21
174.1198096897
 31
0.0
  0
LINE
  5
3F3
330
A
100
AcDbEntity
  8
1
  6
CONTINUOUS
370
    50
100
AcDbLine
 10
115.7686694307
 20
174.1198096897
 30
0.0
 11
116.1311883887
 21
174.0859799966
 31
0.0
  0
LINE
  5
3F4
330
A
100
AcDbEntity
  8
1
  6
CONTINUOUS
370
    50
100
AcDbLine
 10
116.1311883887
 20
174.0859799966
 30
0.0
 11
116.4409879082
 21
173.8825187726
 31
0.0
  0
LINE
  5
3F5
330
A
100
AcDbEntity
  8
1
  6
CONTINUOUS
370
    50
100
AcDbLine
 10
116.4409879082
 20
173.8825187726
 30
0.0
 11
116.6705409424
 21
173.5275044402
 31
0.0
  0
LINE
  5
3F6
330
A
100
AcDbEntity
  8
1
  6
CONTINUOUS
370
    50
100
AcDbLine
 10
116.6705409424
 20
173.5275044402
 30
0.0
 11
116.7994506968
 21
173.052481581
 31
0.0
  0
LINE
  5
3F7
330
A
100
AcDbEntity
  8
1
  6
CONTINUOUS
370
    50
100
AcDbLine
 10
116.7994506968
 20
173.052481581
 30
0.0
 11
116.8162629741
 21
172.4996580604
 31
0.0
  0
LINE
  5
3F8
330
A
100
AcDbEntity
  8
1
  6
CONTINUOUS
370
    50
100
AcDbLine
 10
116.8162629741
 20
172.4996580604
 30
0.0
 11
116.7194839296
 21
171.9181546744
 31
0.0
  0
LINE
  5
3F9
330
A
100
AcDbEntity
  8
1
  6
CONTINUOUS
370
    50
100
AcDbLine
 10
116.7194839296
 20
171.9181546744
 30
0.0
 11
116.5177128061
 21
171.3596405508
 31
0.0
  0
LINE
  5
3FA
330
A
100
AcDbEntity
  8
1
  6
CONTINUOUS
370
    50
100
AcDbLine
 10
116.5177128061
 20
171.3596405508
 30
0.0
 11
116.2288778534
 21
170.8737421202
 31
0.0
  0
LINE
  5
3FB
330
A
100
AcDbEntity
  8
1
  6
CONTINUOUS
370
    50
100
AcDbLine
 10
116.2288778534
 20
170.8737421202
 30
0.0
 11
115.8786433247
 21
170.5036335908
 31
0.0
  0
LINE
  5
3FC
330
A
100
AcDbEntity
  8
1
  6
CONTINUOUS
370
    50
100
AcDbLine
 10
115.8786433247
 20
170.5036335908
 30
0.0
 11
115.4981290947
 21
170.2822007294
 31
0.0
  0
LINE
  5
3FD
330
A
100
AcDbEntity
  8
1
  6
CONTINUOUS
370
    50
100
AcDbLine
 10
115.4981290947
 20
170.2822007294
 30
0.0
 11
115.1211455226
 21
170.2291188176
 31
0.0
  0
LINE
  5
3FE
330
A
100
AcDbEntity
  8
1
  6
CONTINUOUS
370
    50
100
AcDbLine
 10
115.1211455226
 20
170.2291188176
 30
0.0
 11
114.7811892532
 21
170.3491044162
 31
0.0
  0
LINE
  5
3FF
330
A
100
AcDbEntity
  8
1
  6
CONTINUOUS
370
    50
100
AcDbLine
 10
114.7811892532
 20
170.3491044162
 30
0.0
 11
114.5084668929
 21
170.6314962781
 31
0.0
  0
LINE
  5
400
330
A
100
AcDbEntity
  8
1
  6
CONTINUOUS
370
    50
100
AcDbLine
 10
114.5084668929
 20
170.6314962781
 30
0.0
 11
114.3272110203
 21
171.0512026473
 31
0.0
  0
LINE
  5
401
330
A
100
AcDbEntity
  8
1
  6
CONTINUOUS
370
    50
100
AcDbLine
 10
106.1606720257
 20
174.5126445846
 30
0.0
 11
106.113917587
 21
173.9375568894
 31
0.0
  0
LINE
  5
402
330
A
100
AcDbEntity
  8
1
  6
CONTINUOUS
370
    50
100
AcDbLine
 10
106.113917587
 20
173.9375568894
 30
0.0
 11
106.1813496227
 21
173.4135682596
 31
0.0
  0
LINE
  5
403
330
A
100
AcDbEntity
  8
1
  6
CONTINUOUS
370
    50
100
AcDbLine
 10
106.1813496227
 20
173.4135682596
 30
0.0
 11
106.3569765005
 21
172.9872373846
 31
0.0
  0
LINE
  5
404
330
A
100
AcDbEntity
  8
1
  6
CONTINUOUS
370
    50
100
AcDbLine
 10
106.3569765005
 20
172.9872373846
 30
0.0
 11
106.6251930015
 21
172.6964456334
 31
0.0
  0
LINE
  5
405
330
A
100
AcDbEntity
  8
1
  6
CONTINUOUS
370
    50
100
AcDbLine
 10
106.6251930015
 20
172.6964456334
 30
0.0
 11
106.9621669127
 21
172.5670311292
 31
0.0
  0
LINE
  5
406
330
A
100
AcDbEntity
  8
1
  6
CONTINUOUS
370
    50
100
AcDbLine
 10
106.9621669127
 20
172.5670311292
 30
0.0
 11
107.3379566232
 21
172.6104929188
 31
0.0
  0
LINE
  5
407
330
A
100
AcDbEntity
  8
1
  6
CONTINUOUS
370
    50
100
AcDbLine
 10
107.3379566232
 20
172.6104929188
 30
0.0
 11
107.7191715681
 21
172.8229692313
 31
0.0
  0
LINE
  5
408
330
A
100
AcDbEntity
  8
1
  6
CONTINUOUS
370
    50
100
AcDbLine
 10
107.7191715681
 20
172.8229692313
 30
0.0
 11
108.0719391266
 21
173.185580614
 31
0.0
  0
LINE
  5
409
330
A
100
AcDbEntity
  8
1
  6
CONTINUOUS
370
    50
100
AcDbLine
 10
108.0719391266
 20
173.185580614
 30
0.0
 11
108.3649143531
 21
173.6661074542
 31
0.0
  0
LINE
  5
40A
330
A
100
AcDbEntity
  8
1
  6
CONTINUOUS
370
    50
100
AcDbLine
 10
108.3649143531
 20
173.6661074542
 30
0.0
 11
108.572065113
 21
174.2218528334
 31
0.0
  0
LINE
  5
40B
330
A
100
AcDbEntity
  8
1
  6
CONTINUOUS
370
    50
100
AcDbLine
 10
108.572065113
 20
174.2218528334
 30
0.0
 11
108.6749851521
 21
174.8034363358
 31
0.0
  0
LINE
  5
40C
330
A
100
AcDbEntity
  8
1
  6
CONTINUOUS
370
    50
100
AcDbLine
 10
108.6749851521
 20
174.8034363358
 30
0.0
 11
108.6645295735
 21
175.359181715
 31
0.0
  0
LINE
  5
40D
330
A
100
AcDbEntity
  8
1
  6
CONTINUOUS
370
    50
100
AcDbLine
 10
108.6645295735
 20
175.359181715
 30
0.0
 11
108.541627401
 21
175.8397085552
 31
0.0
  0
LINE
  5
40E
330
A
100
AcDbEntity
  8
1
  6
CONTINUOUS
370
    50
100
AcDbLine
 10
108.541627401
 20
175.8397085552
 30
0.0
 11
108.3171990321
 21
176.2023199379
 31
0.0
  0
LINE
  5
40F
330
A
100
AcDbEntity
  8
1
  6
CONTINUOUS
370
    50
100
AcDbLine
 10
108.3171990321
 20
176.2023199379
 30
0.0
 11
108.0111859123
 21
176.4147962504
 31
0.0
  0
LINE
  5
410
330
A
100
AcDbEntity
  8
1
  6
CONTINUOUS
370
    50
100
AcDbLine
 10
108.0111859123
 20
176.4147962504
 30
0.0
 11
107.6507786501
 21
176.4582580399
 31
0.0
  0
LINE
  5
411
330
A
100
AcDbEntity
  8
1
  6
CONTINUOUS
370
    50
100
AcDbLine
 10
107.6507786501
 20
176.4582580399
 30
0.0
 11
107.2680010124
 21
176.3288435358
 31
0.0
  0
LINE
  5
412
330
A
100
AcDbEntity
  8
1
  6
CONTINUOUS
370
    50
100
AcDbLine
 10
107.2680010124
 20
176.3288435358
 30
0.0
 11
106.8968644722
 21
176.0380517846
 31
0.0
  0
LINE
  5
413
330
A
100
AcDbEntity
  8
1
  6
CONTINUOUS
370
    50
100
AcDbLine
 10
106.8968644722
 20
176.0380517846
 30
0.0
 11
106.5703461397
 21
175.6117209095
 31
0.0
  0
LINE
  5
414
330
A
100
AcDbEntity
  8
1
  6
CONTINUOUS
370
    50
100
AcDbLine
 10
106.5703461397
 20
175.6117209095
 30
0.0
 11
106.3174586017
 21
175.0877322798
 31
0.0
  0
LINE
  5
415
330
A
100
AcDbEntity
  8
1
  6
CONTINUOUS
370
    50
100
AcDbLine
 10
106.3174586017
 20
175.0877322798
 30
0.0
 11
106.1606720257
 21
174.5126445846
 31
0.0
  0
LINE
  5
416
330
A
100
AcDbEntity
  8
1
  6
CONTINUOUS
370
    50
100
AcDbLine
 10
64.5344648571
 20
188.7265001496
 30
0.0
 11
39.4997425321
 21
188.7265001496
 31
0.0
  0
LINE
  5
417
330
A
100
AcDbEntity
  8
1
  6
CONTINUOUS
370
    50
100
AcDbLine
 10
39.4997425321
 20
172.7265001496
 30
0.0
 11
64.5344648571
 21
172.7265001496
 31
0.0
  0
LINE
  5
418
330
A
100
AcDbEntity
  8
1
  6
CONTINUOUS
370
    50
100
AcDbLine
 10
64.5344648571
 20
188.7265001496
 30
0.0
 11
64.5344648571
 21
188.704130527
 31
0.0
  0
LINE
  5
419
330
A
100
AcDbEntity
  8
1
  6
CONTINUOUS
370
    50
100
AcDbLine
 10
64.5344648571
 20
188.704130527
 30
0.0
 11
64.5344648571
 21
172.7265001496
 31
0.0
  0
LINE
  5
41A
330
A
100
AcDbEntity
  8
1
  6
CONTINUOUS
370
    50
100
AcDbLine
 10
128.8649240176
 20
186.7265001496
 30
0.0
 11
110.5049240176
 21
186.7265001496
 31
0.0
  0
LINE
  5
41B
330
A
100
AcDbEntity
  8
1
  6
CONTINUOUS
370
    50
100
AcDbLine
 10
110.5049240176
 20
174.7265001496
 30
0.0
 11
128.8649240176
 21
174.7265001496
 31
0.0
  0
LINE
  5
41C
330
A
100
AcDbEntity
  8
1
  6
CONTINUOUS
370
    50
100
AcDbLine
 10
128.8649240176
 20
186.7265001496
 30
0.0
 11
128.8649240176
 21
186.6779027611
 31
0.0
  0
LINE
  5
41D
330
A
100
AcDbEntity
  8
1
  6
CONTINUOUS
370
    50
100
AcDbLine
 10
128.8649240176
 20
186.6779027611
 30
0.0
 11
128.8649240176
 21
174.7265001496
 31
0.0
  0
LINE
  5
41E
330
A
100
AcDbEntity
  8
1
  6
CONTINUOUS
370
    50
100
AcDbLine
 10
128.8649240176
 20
186.2265001496
 30
0.0
 11
128.8649240176
 21
186.2209620156
 31
0.0
  0
LINE
  5
41F
330
A
100
AcDbEntity
  8
1
  6
CONTINUOUS
370
    50
100
AcDbLine
 10
128.8649240176
 20
186.2209620156
 30
0.0
 11
128.8649240176
 21
180.7265001496
 31
0.0
  0
ENDSEC
  0
SECTION
  2
OBJECTS
  0
DICTIONARY
  5
19
330
0
100
AcDbDictionary
281
     1
  3
ACAD_GROUP
350
1A
  3
ACAD_LAYOUT
350
444
  3
ACAD_MATERIAL
350
458
  3
ACAD_MLEADERSTYLE
350
460
  3
ACAD_MLINESTYLE
350
1B
  3
ACAD_SCALELIST
350
422
  3
ACAD_VISUALSTYLE
350
447
  3
ACDB_RECOMPOSE_DATA
350
48D
  3
AcDbVariableDictionary
350
45E
  0
DICTIONARY
  5
464
330
7
100
AcDbDictionary
280
     1
281
     1
  3
ACAD_XREC_ROUNDTRIP
360
465
  0
DICTIONARY
  5
1A
102
{ACAD_REACTORS
330
19
102
}
330
19
100
AcDbDictionary
281
     1
  0
DICTIONARY
  5
444
102
{ACAD_REACTORS
330
19
102
}
330
19
100
AcDbDictionary
281
     1
  3
Layout1
350
446
  3
Model
350
445
  0
DICTIONARY
  5
458
102
{ACAD_REACTORS
330
19
102
}
330
19
100
AcDbDictionary
281
     1
  3
ByBlock
350
45A
  3
ByLayer
350
459
  3
Global
350
45B
  0
DICTIONARY
  5
460
102
{ACAD_REACTORS
330
19
102
}
330
19
100
AcDbDictionary
281
     1
  0
DICTIONARY
  5
1B
102
{ACAD_REACTORS
330
19
102
}
330
19
100
AcDbDictionary
281
     1
  3
STANDARD
350
1C
  0
DICTIONARY
  5
422
102
{ACAD_REACTORS
330
19
102
}
330
19
100
AcDbDictionary
281
     1
  3
A0
350
423
  3
A1
350
424
  3
A2
350
425
  3
A3
350
426
  3
A4
350
427
  3
A5
350
428
  3
A6
350
429
  3
A7
350
42A
  3
A8
350
42B
  3
A9
350
42C
  3
B0
350
42D
  3
B1
350
42E
  3
B2
350
42F
  3
B3
350
430
  3
B4
350
431
  3
B5
350
432
  3
B6
350
433
  3
B7
350
434
  3
B8
350
435
  3
B9
350
436
  3
C0
350
437
  3
C1
350
438
  3
C2
350
439
  3
C3
350
43A
  3
C4
350
43B
  3
C5
350
43C
  3
C6
350
43D
  3
C7
350
43E
  3
C8
350
43F
  3
C9
350
440
  3
D0
350
441
  3
D1
350
442
  3
D2
350
443
  0
DICTIONARY
  5
447
102
{ACAD_REACTORS
330
19
102
}
330
19
100
AcDbDictionary
281
     1
  3
2dWireframe
350
44C
  3
3D Hidden
350
44E
  3
3dWireframe
350
44D
  3
Basic
350
44F
  3
Brighten
350
453
  3
ColorChange
350
457
  3
Conceptual
350
451
  3
Dim
350
452
  3
Facepattern
350
456
  3
Flat
350
448
  3
FlatWithEdges
350
449
  3
Gouraud
350
44A
  3
GouraudWithEdges
350
44B
  3
Linepattern
350
455
  3
Realistic
350
450
  3
Thicken
350
454
  0
XRECORD
  5
48D
102
{ACAD_REACTORS
330
19
102
}
330
19
100
AcDbXrecord
280
     1
  0
DICTIONARY
  5
45E
102
{ACAD_REACTORS
330
19
102
}
330
19
100
AcDbDictionary
281
     1
  3
CANNOSCALE
350
466
  3
DIMASSOC
350
462
  3
HIDETEXT
350
463
  3
MSLTSCALE
350
461
  0
XRECORD
  5
465
102
{ACAD_REACTORS
330
464
102
}
330
464
100
AcDbXrecord
280
     1
102
VTR_0.000_0.000_1.000_1.000_VISUALSTYLE
340
44C
102
VTR_0.000_0.000_1.000_1.000_GRIDDISPLAY
 70
     3
102
VTR_0.000_0.000_1.000_1.000_GRIDMAJOR
 70
     5
102
VTR_0.000_0.000_1.000_1.000_DEFAULTLIGHTING
280
     1
102
VTR_0.000_0.000_1.000_1.000_DEFAULTLIGHTINGTYPE
 70
     1
102
VTR_0.000_0.000_1.000_1.000_BRIGHTNESS
141
0.0
102
VTR_0.000_0.000_1.000_1.000_CONTRAST
142
0.0
  0
LAYOUT
  5
446
102
{ACAD_REACTORS
330
444
102
}
330
444
100
AcDbPlotSettings
  1

  2
none_device
  4

  6

 40
0.0
 41
0.0
 42
0.0
 43
0.0
 44
0.0
 45
0.0
 46
0.0
 47
0.0
 48
0.0
 49
0.0
140
0.0
141
0.0
142
1.0
143
1.0
 70
   688
 72
     0
 73
     0
 74
     5
  7

 75
    16
147
1.0
148
0.0
149
0.0
100
AcDbLayout
  1
Layout1
 70
     1
 71
     1
 10
0.0
 20
0.0
 11
12.0
 21
9.0
 12
0.0
 22
0.0
 32
0.0
 14
1.000000000000000E+20
 24
1.000000000000000E+20
 34
1.000000000000000E+20
 15
-1.000000000000000E+20
 25
-1.000000000000000E+20
 35
-1.000000000000000E+20
146
0.0
 13
0.0
 23
0.0
 33
0.0
 16
1.0
 26
0.0
 36
0.0
 17
0.0
 27
1.0
 37
0.0
 76
     0
330
B
  0
LAYOUT
  5
445
102
{ACAD_REACTORS
330
444
102
}
330
444
100
AcDbPlotSettings
  1

  2
none_device
  4

  6

 40
0.0
 41
0.0
 42
0.0
 43
0.0
 44
0.0
 45
0.0
 46
0.0
 47
0.0
 48
0.0
 49
0.0
140
0.0
141
0.0
142
1.0
143
1.0
 70
  1712
 72
     0
 73
     0
 74
     0
  7

 75
     0
147
1.0
148
2667.54428576817
149
0.0
100
AcDbLayout
  1
Model
 70
     1
 71
     0
 10
0.0
 20
0.0
 11
0.0
 21
0.0
 12
0.0
 22
0.0
 32
0.0
 14
0.0
 24
0.0
 34
0.0
 15
210.0
 25
297.0
 35
0.0
146
0.0
 13
0.0
 23
0.0
 33
0.0
 16
1.0
 26
0.0
 36
0.0
 17
0.0
 27
1.0
 37
0.0
 76
     0
330
A
331
15
  0
MATERIAL
  5
45A
102
{ACAD_REACTORS
330
458
102
}
102
{ACAD_XDICTIONARY
360
489
102
}
330
458
100
AcDbMaterial
  1
ByBlock
  0
MATERIAL
  5
459
102
{ACAD_REACTORS
330
458
102
}
102
{ACAD_XDICTIONARY
360
487
102
}
330
458
100
AcDbMaterial
  1
ByLayer
  0
MATERIAL
  5
45B
102
{ACAD_REACTORS
330
458
102
}
102
{ACAD_XDICTIONARY
360
48B
102
}
330
458
100
AcDbMaterial
  1
Global
  0
MLINESTYLE
  5
1C
102
{ACAD_REACTORS
330
1B
102
}
330
1B
100
AcDbMlineStyle
  2
STANDARD
 70
     0
  3

 62
     0
 51
90.0
 52
90.0
 71
     2
 49
0.5
 62
   256
  6
BYLAYER
 49
-0.5
 62
   256
  6
BYLAYER
  0
SCALE
  5
423
102
{ACAD_REACTORS
330
422
102
}
330
422
100
AcDbScale
 70
     0
300
1:1
140
1.0
141
1.0
290
     1
  0
SCALE
  5
424
102
{ACAD_REACTORS
330
422
102
}
330
422
100
AcDbScale
 70
     0
300
1:2
140
1.0
141
2.0
290
     0
  0
SCALE
  5
425
102
{ACAD_REACTORS
330
422
102
}
330
422
100
AcDbScale
 70
     0
300
1:4
140
1.0
141
4.0
290
     0
  0
SCALE
  5
426
102
{ACAD_REACTORS
330
422
102
}
330
422
100
AcDbScale
 70
     0
300
1:5
140
1.0
141
5.0
290
     0
  0
SCALE
  5
427
102
{ACAD_REACTORS
330
422
102
}
330
422
100
AcDbScale
 70
     0
300
1:8
140
1.0
141
8.0
290
     0
  0
SCALE
  5
428
102
{ACAD_REACTORS
330
422
102
}
330
422
100
AcDbScale
 70
     0
300
1:10
140
1.0
141
10.0
290
     0
  0
SCALE
  5
429
102
{ACAD_REACTORS
330
422
102
}
330
422
100
AcDbScale
 70
     0
300
1:16
140
1.0
141
16.0
290
     0
  0
SCALE
  5
42A
102
{ACAD_REACTORS
330
422
102
}
330
422
100
AcDbScale
 70
     0
300
1:20
140
1.0
141
20.0
290
     0
  0
SCALE
  5
42B
102
{ACAD_REACTORS
330
422
102
}
330
422
100
AcDbScale
 70
     0
300
1:30
140
1.0
141
30.0
290
     0
  0
SCALE
  5
42C
102
{ACAD_REACTORS
330
422
102
}
330
422
100
AcDbScale
 70
     0
300
1:40
140
1.0
141
40.0
290
     0
  0
SCALE
  5
42D
102
{ACAD_REACTORS
330
422
102
}
330
422
100
AcDbScale
 70
     0
300
1:50
140
1.0
141
50.0
290
     0
  0
SCALE
  5
42E
102
{ACAD_REACTORS
330
422
102
}
330
422
100
AcDbScale
 70
     0
300
1:100
140
1.0
141
100.0
290
     0
  0
SCALE
  5
42F
102
{ACAD_REACTORS
330
422
102
}
330
422
100
AcDbScale
 70
     0
300
2:1
140
2.0
141
1.0
290
     0
  0
SCALE
  5
430
102
{ACAD_REACTORS
330
422
102
}
330
422
100
AcDbScale
 70
     0
300
4:1
140
4.0
141
1.0
290
     0
  0
SCALE
  5
431
102
{ACAD_REACTORS
330
422
102
}
330
422
100
AcDbScale
 70
     0
300
8:1
140
8.0
141
1.0
290
     0
  0
SCALE
  5
432
102
{ACAD_REACTORS
330
422
102
}
330
422
100
AcDbScale
 70
     0
300
10:1
140
10.0
141
1.0
290
     0
  0
SCALE
  5
433
102
{ACAD_REACTORS
330
422
102
}
330
422
100
AcDbScale
 70
     0
300
100:1
140
100.0
141
1.0
290
     0
  0
SCALE
  5
434
102
{ACAD_REACTORS
330
422
102
}
330
422
100
AcDbScale
 70
     0
300
1/128" = 1'-0"
140
0.0078125
141
12.0
290
     0
  0
SCALE
  5
435
102
{ACAD_REACTORS
330
422
102
}
330
422
100
AcDbScale
 70
     0
300
1/64" = 1'-0"
140
0.015625
141
12.0
290
     0
  0
SCALE
  5
436
102
{ACAD_REACTORS
330
422
102
}
330
422
100
AcDbScale
 70
     0
300
1/32" = 1'-0"
140
0.03125
141
12.0
290
     0
  0
SCALE
  5
437
102
{ACAD_REACTORS
330
422
102
}
330
422
100
AcDbScale
 70
     0
300
1/16" = 1'-0"
140
0.0625
141
12.0
290
     0
  0
SCALE
  5
438
102
{ACAD_REACTORS
330
422
102
}
330
422
100
AcDbScale
 70
     0
300
3/32" = 1'-0"
140
0.09375
141
12.0
290
     0
  0
SCALE
  5
439
102
{ACAD_REACTORS
330
422
102
}
330
422
100
AcDbScale
 70
     0
300
1/8" = 1'-0"
140
0.125
141
12.0
290
     0
  0
SCALE
  5
43A
102
{ACAD_REACTORS
330
422
102
}
330
422
100
AcDbScale
 70
     0
300
3/16" = 1'-0"
140
0.1875
141
12.0
290
     0
  0
SCALE
  5
43B
102
{ACAD_REACTORS
330
422
102
}
330
422
100
AcDbScale
 70
     0
300
1/4" = 1'-0"
140
0.25
141
12.0
290
     0
  0
SCALE
  5
43C
102
{ACAD_REACTORS
330
422
102
}
330
422
100
AcDbScale
 70
     0
300
3/8" = 1'-0"
140
0.375
141
12.0
290
     0
  0
SCALE
  5
43D
102
{ACAD_REACTORS
330
422
102
}
330
422
100
AcDbScale
 70
     0
300
1/2" = 1'-0"
140
0.5
141
12.0
290
     0
  0
SCALE
  5
43E
102
{ACAD_REACTORS
330
422
102
}
330
422
100
AcDbScale
 70
     0
300
3/4" = 1'-0"
140
0.75
141
12.0
290
     0
  0
SCALE
  5
43F
102
{ACAD_REACTORS
330
422
102
}
330
422
100
AcDbScale
 70
     0
300
1" = 1'-0"
140
1.0
141
12.0
290
     0
  0
SCALE
  5
440
102
{ACAD_REACTORS
330
422
102
}
330
422
100
AcDbScale
 70
     0
300
1-1/2" = 1'-0"
140
1.5
141
12.0
290
     0
  0
SCALE
  5
441
102
{ACAD_REACTORS
330
422
102
}
330
422
100
AcDbScale
 70
     0
300
3" = 1'-0"
140
3.0
141
12.0
290
     0
  0
SCALE
  5
442
102
{ACAD_REACTORS
330
422
102
}
330
422
100
AcDbScale
 70
     0
300
6" = 1'-0"
140
6.0
141
12.0
290
     0
  0
SCALE
  5
443
102
{ACAD_REACTORS
330
422
102
}
330
422
100
AcDbScale
 70
     0
300
1'-0" = 1'-0"
140
12.0
141
12.0
290
     0
  0
VISUALSTYLE
  5
44C
102
{ACAD_REACTORS
330
447
102
}
102
{ACAD_XDICTIONARY
360
46F
102
}
330
447
100
AcDbVisualStyle
  2
2dWireframe
 70
     4
 71
     0
 72
     2
 73
     0
 90
        0
 40
-0.6
 41
-30.0
 62
     5
 63
     7
 74
     1
 91
        4
 64
     7
 65
   257
 75
     1
175
     1
 42
1.0
 92
        0
 66
   257
 43
1.0
 76
     1
 77
     6
 78
     2
 67
     7
 79
     5
170
     0
171
     0
290
     0
174
     0
 93
        1
 44
0.0
173
     0
291
     0
 45
0.0
1001
ACAD
1000
AcDbSavedByObjectVersion
1070
     0
  0
VISUALSTYLE
  5
44E
102
{ACAD_REACTORS
330
447
102
}
102
{ACAD_XDICTIONARY
360
473
102
}
330
447
100
AcDbVisualStyle
  2
3D Hidden
 70
     6
 71
     1
 72
     2
 73
     2
 90
        0
 40
-0.6
 41
-30.0
 62
     5
 63
     7
 74
     2
 91
        2
 64
     7
 65
   257
 75
     2
175
     1
 42
40.0
 92
        0
 66
   257
 43
1.0
 76
     1
 77
     6
 78
     2
 67
     7
 79
     3
170
     0
171
     0
290
     0
174
     0
 93
        1
 44
0.0
173
     0
291
     0
 45
0.0
1001
ACAD
1000
AcDbSavedByObjectVersion
1070
     0
  0
VISUALSTYLE
  5
44D
102
{ACAD_REACTORS
330
447
102
}
102
{ACAD_XDICTIONARY
360
471
102
}
330
447
100
AcDbVisualStyle
  2
3dWireframe
 70
     5
 71
     0
 72
     2
 73
     0
 90
        0
 40
-0.6
 41
-30.0
 62
     5
 63
     7
 74
     1
 91
        4
 64
     7
 65
   257
 75
     1
175
     1
 42
1.0
 92
        0
 66
   257
 43
1.0
 76
     1
 77
     6
 78
     2
 67
     7
 79
     5
170
     0
171
     0
290
     0
174
     0
 93
        1
 44
0.0
173
     0
291
     0
 45
0.0
1001
ACAD
1000
AcDbSavedByObjectVersion
1070
     0
  0
VISUALSTYLE
  5
44F
102
{ACAD_REACTORS
330
447
102
}
102
{ACAD_XDICTIONARY
360
475
102
}
330
447
100
AcDbVisualStyle
  2
Basic
 70
     7
 71
     1
 72
     0
 73
     1
 90
        0
 40
-0.6
 41
-30.0
 62
     5
 63
     7
 74
     0
 91
        4
 64
     7
 65
   257
 75
     1
175
     1
 42
1.0
 92
        8
 66
     7
 43
1.0
 76
     1
 77
     6
 78
     2
 67
     7
 79
     5
170
     0
171
     0
290
     0
174
     0
 93
        1
 44
0.0
173
     0
291
     1
 45
0.0
1001
ACAD
1000
AcDbSavedByObjectVersion
1070
     0
  0
VISUALSTYLE
  5
453
102
{ACAD_REACTORS
330
447
102
}
102
{ACAD_XDICTIONARY
360
47D
102
}
330
447
100
AcDbVisualStyle
  2
Brighten
 70
    12
 71
     2
 72
     2
 73
     0
 90
        0
 40
-0.6
 41
-30.0
 62
     5
 63
     7
 74
     1
 91
        4
 64
     7
 65
   257
 75
     1
175
     1
 42
1.0
 92
        8
 66
     7
 43
1.0
 76
     1
 77
     6
 78
     2
 67
     7
 79
     5
170
     0
171
     0
290
     0
174
     0
 93
        1
 44
50.0
173
     0
291
     1
 45
0.0
1001
ACAD
1000
AcDbSavedByObjectVersion
1070
     0
  0
VISUALSTYLE
  5
457
102
{ACAD_REACTORS
330
447
102
}
102
{ACAD_XDICTIONARY
360
485
102
}
330
447
100
AcDbVisualStyle
  2
ColorChange
 70
    16
 71
     2
 72
     2
 73
     3
 90
        0
 40
-0.6
 41
-30.0
 62
     5
 63
     8
 74
     1
 91
        4
 64
     7
 65
   257
 75
     1
175
     1
 42
1.0
 92
        8
 66
     8
 43
1.0
 76
     1
 77
     6
 78
     2
 67
     7
 79
     5
170
     0
171
     0
290
     0
174
     0
 93
        1
 44
0.0
173
     0
291
     1
 45
0.0
1001
ACAD
1000
AcDbSavedByObjectVersion
1070
     0
  0
VISUALSTYLE
  5
451
102
{ACAD_REACTORS
330
447
102
}
102
{ACAD_XDICTIONARY
360
479
102
}
330
447
100
AcDbVisualStyle
  2
Conceptual
 70
     9
 71
     3
 72
     2
 73
     0
 90
        0
 40
-0.6
 41
-30.0
 62
     5
 63
     7
 74
     2
 91
        2
 64
     7
 65
   257
 75
     1
175
     1
 42
40.0
 92
        8
 66
     7
 43
1.0
 76
     1
 77
     6
 78
     2
 67
     7
 79
     3
170
     0
171
     0
290
     0
174
     0
 93
        1
 44
0.0
173
     0
291
     0
 45
0.0
1001
ACAD
1000
AcDbSavedByObjectVersion
1070
     0
  0
VISUALSTYLE
  5
452
102
{ACAD_REACTORS
330
447
102
}
102
{ACAD_XDICTIONARY
360
47B
102
}
330
447
100
AcDbVisualStyle
  2
Dim
 70
    11
 71
     2
 72
     2
 73
     0
 90
        0
 40
-0.6
 41
-30.0
 62
     5
 63
     7
 74
     1
 91
        4
 64
     7
 65
   257
 75
     1
175
     1
 42
1.0
 92
        8
 66
     7
 43
1.0
 76
     1
 77
     6
 78
     2
 67
     7
 79
     5
170
     0
171
     0
290
     0
174
     0
 93
        1
 44
-50.0
173
     0
291
     1
 45
0.0
1001
ACAD
1000
AcDbSavedByObjectVersion
1070
     0
  0
VISUALSTYLE
  5
456
102
{ACAD_REACTORS
330
447
102
}
102
{ACAD_XDICTIONARY
360
483
102
}
330
447
100
AcDbVisualStyle
  2
Facepattern
 70
    15
 71
     2
 72
     2
 73
     0
 90
        0
 40
-0.6
 41
-30.0
 62
     5
 63
     7
 74
     1
 91
        4
 64
     7
 65
   257
 75
     1
175
     1
 42
1.0
 92
        8
 66
     7
 43
1.0
 76
     1
 77
     6
 78
     2
 67
     7
 79
     5
170
     0
171
     0
290
     0
174
     0
 93
        1
 44
0.0
173
     0
291
     1
 45
0.0
1001
ACAD
1000
AcDbSavedByObjectVersion
1070
     0
  0
VISUALSTYLE
  5
448
102
{ACAD_REACTORS
330
447
102
}
102
{ACAD_XDICTIONARY
360
467
102
}
330
447
100
AcDbVisualStyle
  2
Flat
 70
     0
 71
     2
 72
     1
 73
     1
 90
        2
 40
-0.6
 41
30.0
 62
     5
 63
     7
 74
     0
 91
        4
 64
     7
 65
   257
 75
     1
175
     1
 42
1.0
 92
        8
 66
     7
 43
1.0
 76
     1
 77
     6
 78
     2
 67
     7
 79
     5
170
     0
171
     0
290
     0
174
     0
 93
       13
 44
0.0
173
     0
291
     1
 45
0.0
1001
ACAD
1000
AcDbSavedByObjectVersion
1070
     0
  0
VISUALSTYLE
  5
449
102
{ACAD_REACTORS
330
447
102
}
102
{ACAD_XDICTIONARY
360
469
102
}
330
447
100
AcDbVisualStyle
  2
FlatWithEdges
 70
     1
 71
     2
 72
     1
 73
     1
 90
        2
 40
-0.6
 41
30.0
 62
     5
 63
     7
 74
     1
 91
        4
 64
     7
 65
   257
 75
     1
175
     1
 42
1.0
 92
        0
 66
   257
 43
1.0
 76
     1
 77
     6
 78
     2
 67
     7
 79
     5
170
     0
171
     0
290
     0
174
     0
 93
       13
 44
0.0
173
     0
291
     1
 45
0.0
1001
ACAD
1000
AcDbSavedByObjectVersion
1070
     0
  0
VISUALSTYLE
  5
44A
102
{ACAD_REACTORS
330
447
102
}
102
{ACAD_XDICTIONARY
360
46B
102
}
330
447
100
AcDbVisualStyle
  2
Gouraud
 70
     2
 71
     2
 72
     2
 73
     1
 90
        2
 40
-0.6
 41
30.0
 62
     5
 63
     7
 74
     0
 91
        4
 64
     7
 65
   257
 75
     1
175
     1
 42
1.0
 92
        0
 66
     7
 43
1.0
 76
     1
 77
     6
 78
     2
 67
     7
 79
     5
170
     0
171
     0
290
     0
174
     0
 93
       13
 44
0.0
173
     0
291
     1
 45
0.0
1001
ACAD
1000
AcDbSavedByObjectVersion
1070
     0
  0
VISUALSTYLE
  5
44B
102
{ACAD_REACTORS
330
447
102
}
102
{ACAD_XDICTIONARY
360
46D
102
}
330
447
100
AcDbVisualStyle
  2
GouraudWithEdges
 70
     3
 71
     2
 72
     2
 73
     1
 90
        2
 40
-0.6
 41
30.0
 62
     5
 63
     7
 74
     1
 91
        4
 64
     7
 65
   257
 75
     1
175
     1
 42
1.0
 92
        0
 66
   257
 43
1.0
 76
     1
 77
     6
 78
     2
 67
     7
 79
     5
170
     0
171
     0
290
     0
174
     0
 93
       13
 44
0.0
173
     0
291
     1
 45
0.0
1001
ACAD
1000
AcDbSavedByObjectVersion
1070
     0
  0
VISUALSTYLE
  5
455
102
{ACAD_REACTORS
330
447
102
}
102
{ACAD_XDICTIONARY
360
481
102
}
330
447
100
AcDbVisualStyle
  2
Linepattern
 70
    14
 71
     2
 72
     2
 73
     0
 90
        0
 40
-0.6
 41
-30.0
 62
     5
 63
     7
 74
     1
 91
        4
 64
     7
 65
   257
 75
     7
175
     7
 42
1.0
 92
        8
 66
     7
 43
1.0
 76
     1
 77
     6
 78
     2
 67
     7
 79
     5
170
     0
171
     0
290
     0
174
     0
 93
        1
 44
0.0
173
     0
291
     1
 45
0.0
1001
ACAD
1000
AcDbSavedByObjectVersion
1070
     0
  0
VISUALSTYLE
  5
450
102
{ACAD_REACTORS
330
447
102
}
102
{ACAD_XDICTIONARY
360
477
102
}
330
447
100
AcDbVisualStyle
  2
Realistic
 70
     8
 71
     2
 72
     2
 73
     0
 90
        0
 40
-0.6
 41
-30.0
 62
     5
 63
     7
 74
     1
 91
        0
 64
     7
 65
   257
 75
     1
175
     1
 42
1.0
 92
        8
 66
     8
 43
1.0
 76
     1
 77
     6
 78
     2
 67
     7
 79
     5
170
     0
171
     0
290
     0
174
     0
 93
       13
 44
0.0
173
     0
291
     0
 45
0.0
1001
ACAD
1000
AcDbSavedByObjectVersion
1070
     0
  0
VISUALSTYLE
  5
454
102
{ACAD_REACTORS
330
447
102
}
102
{ACAD_XDICTIONARY
360
47F
102
}
330
447
100
AcDbVisualStyle
  2
Thicken
 70
    13
 71
     2
 72
     2
 73
     0
 90
        0
 40
-0.6
 41
-30.0
 62
     5
 63
     7
 74
     1
 91
        4
 64
     7
 65
   257
 75
     1
175
     1
 42
1.0
 92
       12
 66
     7
 43
1.0
 76
     1
 77
     6
 78
     2
 67
     7
 79
     5
170
     0
171
     0
290
     0
174
     0
 93
        1
 44
0.0
173
     0
291
     1
 45
0.0
1001
ACAD
1000
AcDbSavedByObjectVersion
1070
     0
  0
DICTIONARYVAR
  5
466
102
{ACAD_REACTORS
330
45E
102
}
330
45E
100
DictionaryVariables
280
     0
  1
1:1
  0
DICTIONARYVAR
  5
462
102
{ACAD_REACTORS
330
45E
102
}
330
45E
100
DictionaryVariables
280
     0
  1
2
  0
DICTIONARYVAR
  5
463
102
{ACAD_REACTORS
330
45E
102
}
330
45E
100
DictionaryVariables
280
     0
  1
1
  0
DICTIONARYVAR
  5
461
102
{ACAD_REACTORS
330
45E
102
}
330
45E
100
DictionaryVariables
280
     0
  1
0
  0
DICTIONARY
  5
489
330
45A
100
AcDbDictionary
280
     1
281
     1
  3
ACAD_XREC_ROUNDTRIP
360
48A
  0
DICTIONARY
  5
487
330
459
100
AcDbDictionary
280
     1
281
     1
  3
ACAD_XREC_ROUNDTRIP
360
488
  0
DICTIONARY
  5
48B
330
45B
100
AcDbDictionary
280
     1
281
     1
  3
ACAD_XREC_ROUNDTRIP
360
48C
  0
DICTIONARY
  5
46F
330
44C
100
AcDbDictionary
280
     1
281
     1
  3
ACAD_XREC_ROUNDTRIP
360
470
  0
DICTIONARY
  5
473
330
44E
100
AcDbDictionary
280
     1
281
     1
  3
ACAD_XREC_ROUNDTRIP
360
474
  0
DICTIONARY
  5
471
330
44D
100
AcDbDictionary
280
     1
281
     1
  3
ACAD_XREC_ROUNDTRIP
360
472
  0
DICTIONARY
  5
475
330
44F
100
AcDbDictionary
280
     1
281
     1
  3
ACAD_XREC_ROUNDTRIP
360
476
  0
DICTIONARY
  5
47D
330
453
100
AcDbDictionary
280
     1
281
     1
  3
ACAD_XREC_ROUNDTRIP
360
47E
  0
DICTIONARY
  5
485
330
457
100
AcDbDictionary
280
     1
281
     1
  3
ACAD_XREC_ROUNDTRIP
360
486
  0
DICTIONARY
  5
479
330
451
100
AcDbDictionary
280
     1
281
     1
  3
ACAD_XREC_ROUNDTRIP
360
47A
  0
DICTIONARY
  5
47B
330
452
100
AcDbDictionary
280
     1
281
     1
  3
ACAD_XREC_ROUNDTRIP
360
47C
  0
DICTIONARY
  5
483
330
456
100
AcDbDictionary
280
     1
281
     1
  3
ACAD_XREC_ROUNDTRIP
360
484
  0
DICTIONARY
  5
467
330
448
100
AcDbDictionary
280
     1
281
     1
  3
ACAD_XREC_ROUNDTRIP
360
468
  0
DICTIONARY
  5
469
330
449
100
AcDbDictionary
280
     1
281
     1
  3
ACAD_XREC_ROUNDTRIP
360
46A
  0
DICTIONARY
  5
46B
330
44A
100
AcDbDictionary
280
     1
281
     1
  3
ACAD_XREC_ROUNDTRIP
360
46C
  0
DICTIONARY
  5
46D
330
44B
100
AcDbDictionary
280
     1
281
     1
  3
ACAD_XREC_ROUNDTRIP
360
46E
  0
DICTIONARY
  5
481
330
455
100
AcDbDictionary
280
     1
281
     1
  3
ACAD_XREC_ROUNDTRIP
360
482
  0
DICTIONARY
  5
477
330
450
100
AcDbDictionary
280
     1
281
     1
  3
ACAD_XREC_ROUNDTRIP
360
478
  0
DICTIONARY
  5
47F
330
454
100
AcDbDictionary
280
     1
281
     1
  3
ACAD_XREC_ROUNDTRIP
360
480
  0
XRECORD
  5
48A
102
{ACAD_REACTORS
330
489
102
}
330
489
100
AcDbXrecord
280
     1
102
MATERIAL
148
0.0
149
0.0
149
0.0
 93
        0
 94
      127
282
     0
 72
     1
 77
     1
171
     1
175
     1
179
     1
273
     0
  0
XRECORD
  5
488
102
{ACAD_REACTORS
330
487
102
}
330
487
100
AcDbXrecord
280
     1
102
MATERIAL
148
0.0
149
0.0
149
0.0
 93
        0
 94
      127
282
     0
 72
     1
 77
     1
171
     1
175
     1
179
     1
273
     0
  0
XRECORD
  5
48C
102
{ACAD_REACTORS
330
48B
102
}
330
48B
100
AcDbXrecord
280
     1
102
MATERIAL
148
0.0
149
0.0
149
0.0
 93
        0
 94
      127
282
     0
 72
     1
 77
     1
171
     1
175
     1
179
     1
273
     0
  0
XRECORD
  5
470
102
{ACAD_REACTORS
330
46F
102
}
330
46F
100
AcDbXrecord
280
     1
102
RTVSPropertyOp0
 70
     1
102
RTVSPropertyOp1
 70
     1
102
RTVSPropertyOp2
 70
     1
102
RTVSPropertyOp3
 70
     1
102
RTVSPropertyOp4
 70
     1
102
RTVSPropertyOp5
 70
     1
102
RTVSPropertyOp6
 70
     1
102
RTVSPropertyOp7
 70
     1
102
RTVSPropertyOp8
 70
     1
102
RTVSPropertyOp9
 70
     1
102
RTVSPropertyOp10
 70
     1
102
RTVSPropertyOp11
 70
     1
102
RTVSPropertyOp12
 70
     1
102
RTVSPropertyOp13
 70
     1
102
RTVSPropertyOp14
 70
     1
102
RTVSPropertyOp15
 70
     1
102
RTVSPropertyOp16
 70
     1
102
RTVSPropertyOp17
 70
     1
102
RTVSPropertyOp18
 70
     1
102
RTVSPropertyOp19
 70
     1
102
RTVSPropertyOp20
 70
     1
102
RTVSPropertyOp21
 70
     1
102
RTVSPropertyOp22
 70
     1
102
RTVSPropertyOp23
 70
     1
102
RTVSPropertyOp24
 70
     1
102
RTVSPropertyOp25
 70
     1
102
RTVSPropertyOp26
 70
     1
102
RTVSPropertyOp27
 70
     1
102
RTVSPropertyOp28
 70
     1
102
RTVSPropertyOp29
 70
     1
102
RTVSPropertyOp30
 70
     1
102
RTVSPropertyOp31
 70
     1
102
RTVSPropertyOp32
 70
     1
  0
XRECORD
  5
474
102
{ACAD_REACTORS
330
473
102
}
330
473
100
AcDbXrecord
280
     1
102
RTVSPropertyOp0
 70
     1
102
RTVSPropertyOp1
 70
     1
102
RTVSPropertyOp2
 70
     1
102
RTVSPropertyOp3
 70
     1
102
RTVSPropertyOp4
 70
     1
102
RTVSPropertyOp5
 70
     1
102
RTVSPropertyOp6
 70
     1
102
RTVSPropertyOp7
 70
     1
102
RTVSPropertyOp8
 70
     1
102
RTVSPropertyOp9
 70
     1
102
RTVSPropertyOp10
 70
     1
102
RTVSPropertyOp11
 70
     1
102
RTVSPropertyOp12
 70
     1
102
RTVSPropertyOp13
 70
     1
102
RTVSPropertyOp14
 70
     1
102
RTVSPropertyOp15
 70
     1
102
RTVSPropertyOp16
 70
     1
102
RTVSPropertyOp17
 70
     1
102
RTVSPropertyOp18
 70
     1
102
RTVSPropertyOp19
 70
     1
102
RTVSPropertyOp20
 70
     1
102
RTVSPropertyOp21
 70
     1
102
RTVSPropertyOp22
 70
     1
102
RTVSPropertyOp23
 70
     1
102
RTVSPropertyOp24
 70
     1
102
RTVSPropertyOp25
 70
     1
102
RTVSPropertyOp26
 70
     1
102
RTVSPropertyOp27
 70
     1
102
RTVSPropertyOp28
 70
     1
102
RTVSPropertyOp29
 70
     1
102
RTVSPropertyOp30
 70
     1
102
RTVSPropertyOp31
 70
     1
102
RTVSPropertyOp32
 70
     1
  0
XRECORD
  5
472
102
{ACAD_REACTORS
330
471
102
}
330
471
100
AcDbXrecord
280
     1
102
RTVSPropertyOp0
 70
     1
102
RTVSPropertyOp1
 70
     1
102
RTVSPropertyOp2
 70
     1
102
RTVSPropertyOp3
 70
     1
102
RTVSPropertyOp4
 70
     1
102
RTVSPropertyOp5
 70
     1
102
RTVSPropertyOp6
 70
     1
102
RTVSPropertyOp7
 70
     1
102
RTVSPropertyOp8
 70
     1
102
RTVSPropertyOp9
 70
     1
102
RTVSPropertyOp10
 70
     1
102
RTVSPropertyOp11
 70
     1
102
RTVSPropertyOp12
 70
     1
102
RTVSPropertyOp13
 70
     1
102
RTVSPropertyOp14
 70
     1
102
RTVSPropertyOp15
 70
     1
102
RTVSPropertyOp16
 70
     1
102
RTVSPropertyOp17
 70
     1
102
RTVSPropertyOp18
 70
     1
102
RTVSPropertyOp19
 70
     1
102
RTVSPropertyOp20
 70
     1
102
RTVSPropertyOp21
 70
     1
102
RTVSPropertyOp22
 70
     1
102
RTVSPropertyOp23
 70
     1
102
RTVSPropertyOp24
 70
     1
102
RTVSPropertyOp25
 70
     1
102
RTVSPropertyOp26
 70
     1
102
RTVSPropertyOp27
 70
     1
102
RTVSPropertyOp28
 70
     1
102
RTVSPropertyOp29
 70
     1
102
RTVSPropertyOp30
 70
     1
102
RTVSPropertyOp31
 70
     1
102
RTVSPropertyOp32
 70
     1
  0
XRECORD
  5
476
102
{ACAD_REACTORS
330
475
102
}
330
475
100
AcDbXrecord
280
     1
102
RTVSPropertyOp0
 70
     1
102
RTVSPropertyOp1
 70
     1
102
RTVSPropertyOp2
 70
     1
102
RTVSPropertyOp3
 70
     1
102
RTVSPropertyOp4
 70
     1
102
RTVSPropertyOp5
 70
     1
102
RTVSPropertyOp6
 70
     1
102
RTVSPropertyOp7
 70
     1
102
RTVSPropertyOp8
 70
     1
102
RTVSPropertyOp9
 70
     1
102
RTVSPropertyOp10
 70
     1
102
RTVSPropertyOp11
 70
     1
102
RTVSPropertyOp12
 70
     1
102
RTVSPropertyOp13
 70
     1
102
RTVSPropertyOp14
 70
     1
102
RTVSPropertyOp15
 70
     1
102
RTVSPropertyOp16
 70
     1
102
RTVSPropertyOp17
 70
     1
102
RTVSPropertyOp18
 70
     1
102
RTVSPropertyOp19
 70
     1
102
RTVSPropertyOp20
 70
     1
102
RTVSPropertyOp21
 70
     1
102
RTVSPropertyOp22
 70
     1
102
RTVSPropertyOp23
 70
     1
102
RTVSPropertyOp24
 70
     1
102
RTVSPropertyOp25
 70
     1
102
RTVSPropertyOp26
 70
     1
102
RTVSPropertyOp27
 70
     1
102
RTVSPropertyOp28
 70
     1
102
RTVSPropertyOp29
 70
     1
102
RTVSPropertyOp30
 70
     1
102
RTVSPropertyOp31
 70
     1
102
RTVSPropertyOp32
 70
     1
  0
XRECORD
  5
47E
102
{ACAD_REACTORS
330
47D
102
}
330
47D
100
AcDbXrecord
280
     1
102
RTVSPropertyOp0
 70
     1
102
RTVSPropertyOp1
 70
     1
102
RTVSPropertyOp2
 70
     1
102
RTVSPropertyOp3
 70
     1
102
RTVSPropertyOp4
 70
     1
102
RTVSPropertyOp5
 70
     1
102
RTVSPropertyOp6
 70
     1
102
RTVSPropertyOp7
 70
     1
102
RTVSPropertyOp8
 70
     1
102
RTVSPropertyOp9
 70
     1
102
RTVSPropertyOp10
 70
     1
102
RTVSPropertyOp11
 70
     1
102
RTVSPropertyOp12
 70
     1
102
RTVSPropertyOp13
 70
     1
102
RTVSPropertyOp14
 70
     1
102
RTVSPropertyOp15
 70
     1
102
RTVSPropertyOp16
 70
     1
102
RTVSPropertyOp17
 70
     1
102
RTVSPropertyOp18
 70
     1
102
RTVSPropertyOp19
 70
     1
102
RTVSPropertyOp20
 70
     1
102
RTVSPropertyOp21
 70
     1
102
RTVSPropertyOp22
 70
     1
102
RTVSPropertyOp23
 70
     1
102
RTVSPropertyOp24
 70
     1
102
RTVSPropertyOp25
 70
     1
102
RTVSPropertyOp26
 70
     1
102
RTVSPropertyOp27
 70
     1
102
RTVSPropertyOp28
 70
     1
102
RTVSPropertyOp29
 70
     1
102
RTVSPropertyOp30
 70
     1
102
RTVSPropertyOp31
 70
     1
102
RTVSPropertyOp32
 70
     1
  0
XRECORD
  5
486
102
{ACAD_REACTORS
330
485
102
}
330
485
100
AcDbXrecord
280
     1
102
RTVSPropertyOp0
 70
     1
102
RTVSPropertyOp1
 70
     1
102
RTVSPropertyOp2
 70
     1
102
RTVSPropertyOp3
 70
     1
102
RTVSPropertyOp4
 70
     1
102
RTVSPropertyOp5
 70
     1
102
RTVSPropertyOp6
 70
     1
102
RTVSPropertyOp7
 70
     1
102
RTVSPropertyOp8
 70
     1
102
RTVSPropertyOp9
 70
     1
102
RTVSPropertyOp10
 70
     1
102
RTVSPropertyOp11
 70
     1
102
RTVSPropertyOp12
 70
     1
102
RTVSPropertyOp13
 70
     1
102
RTVSPropertyOp14
 70
     1
102
RTVSPropertyOp15
 70
     1
102
RTVSPropertyOp16
 70
     1
102
RTVSPropertyOp17
 70
     1
102
RTVSPropertyOp18
 70
     1
102
RTVSPropertyOp19
 70
     1
102
RTVSPropertyOp20
 70
     1
102
RTVSPropertyOp21
 70
     1
102
RTVSPropertyOp22
 70
     1
102
RTVSPropertyOp23
 70
     1
102
RTVSPropertyOp24
 70
     1
102
RTVSPropertyOp25
 70
     1
102
RTVSPropertyOp26
 70
     1
102
RTVSPropertyOp27
 70
     1
102
RTVSPropertyOp28
 70
     1
102
RTVSPropertyOp29
 70
     1
102
RTVSPropertyOp30
 70
     1
102
RTVSPropertyOp31
 70
     1
102
RTVSPropertyOp32
 70
     1
  0
XRECORD
  5
47A
102
{ACAD_REACTORS
330
479
102
}
330
479
100
AcDbXrecord
280
     1
102
RTVSPropertyOp0
 70
     1
102
RTVSPropertyOp1
 70
     1
102
RTVSPropertyOp2
 70
     1
102
RTVSPropertyOp3
 70
     1
102
RTVSPropertyOp4
 70
     1
102
RTVSPropertyOp5
 70
     1
102
RTVSPropertyOp6
 70
     1
102
RTVSPropertyOp7
 70
     1
102
RTVSPropertyOp8
 70
     1
102
RTVSPropertyOp9
 70
     1
102
RTVSPropertyOp10
 70
     1
102
RTVSPropertyOp11
 70
     1
102
RTVSPropertyOp12
 70
     1
102
RTVSPropertyOp13
 70
     1
102
RTVSPropertyOp14
 70
     1
102
RTVSPropertyOp15
 70
     1
102
RTVSPropertyOp16
 70
     1
102
RTVSPropertyOp17
 70
     1
102
RTVSPropertyOp18
 70
     1
102
RTVSPropertyOp19
 70
     1
102
RTVSPropertyOp20
 70
     1
102
RTVSPropertyOp21
 70
     1
102
RTVSPropertyOp22
 70
     1
102
RTVSPropertyOp23
 70
     1
102
RTVSPropertyOp24
 70
     1
102
RTVSPropertyOp25
 70
     1
102
RTVSPropertyOp26
 70
     1
102
RTVSPropertyOp27
 70
     1
102
RTVSPropertyOp28
 70
     1
102
RTVSPropertyOp29
 70
     1
102
RTVSPropertyOp30
 70
     1
102
RTVSPropertyOp31
 70
     1
102
RTVSPropertyOp32
 70
     1
  0
XRECORD
  5
47C
102
{ACAD_REACTORS
330
47B
102
}
330
47B
100
AcDbXrecord
280
     1
102
RTVSPropertyOp0
 70
     1
102
RTVSPropertyOp1
 70
     1
102
RTVSPropertyOp2
 70
     1
102
RTVSPropertyOp3
 70
     1
102
RTVSPropertyOp4
 70
     1
102
RTVSPropertyOp5
 70
     1
102
RTVSPropertyOp6
 70
     1
102
RTVSPropertyOp7
 70
     1
102
RTVSPropertyOp8
 70
     1
102
RTVSPropertyOp9
 70
     1
102
RTVSPropertyOp10
 70
     1
102
RTVSPropertyOp11
 70
     1
102
RTVSPropertyOp12
 70
     1
102
RTVSPropertyOp13
 70
     1
102
RTVSPropertyOp14
 70
     1
102
RTVSPropertyOp15
 70
     1
102
RTVSPropertyOp16
 70
     1
102
RTVSPropertyOp17
 70
     1
102
RTVSPropertyOp18
 70
     1
102
RTVSPropertyOp19
 70
     1
102
RTVSPropertyOp20
 70
     1
102
RTVSPropertyOp21
 70
     1
102
RTVSPropertyOp22
 70
     1
102
RTVSPropertyOp23
 70
     1
102
RTVSPropertyOp24
 70
     1
102
RTVSPropertyOp25
 70
     1
102
RTVSPropertyOp26
 70
     1
102
RTVSPropertyOp27
 70
     1
102
RTVSPropertyOp28
 70
     1
102
RTVSPropertyOp29
 70
     1
102
RTVSPropertyOp30
 70
     1
102
RTVSPropertyOp31
 70
     1
102
RTVSPropertyOp32
 70
     1
  0
XRECORD
  5
484
102
{ACAD_REACTORS
330
483
102
}
330
483
100
AcDbXrecord
280
     1
102
RTVSPropertyOp0
 70
     1
102
RTVSPropertyOp1
 70
     1
102
RTVSPropertyOp2
 70
     1
102
RTVSPropertyOp3
 70
     1
102
RTVSPropertyOp4
 70
     1
102
RTVSPropertyOp5
 70
     1
102
RTVSPropertyOp6
 70
     1
102
RTVSPropertyOp7
 70
     1
102
RTVSPropertyOp8
 70
     1
102
RTVSPropertyOp9
 70
     1
102
RTVSPropertyOp10
 70
     1
102
RTVSPropertyOp11
 70
     1
102
RTVSPropertyOp12
 70
     1
102
RTVSPropertyOp13
 70
     1
102
RTVSPropertyOp14
 70
     1
102
RTVSPropertyOp15
 70
     1
102
RTVSPropertyOp16
 70
     1
102
RTVSPropertyOp17
 70
     1
102
RTVSPropertyOp18
 70
     1
102
RTVSPropertyOp19
 70
     1
102
RTVSPropertyOp20
 70
     1
102
RTVSPropertyOp21
 70
     1
102
RTVSPropertyOp22
 70
     1
102
RTVSPropertyOp23
 70
     1
102
RTVSPropertyOp24
 70
     1
102
RTVSPropertyOp25
 70
     1
102
RTVSPropertyOp26
 70
     1
102
RTVSPropertyOp27
 70
     1
102
RTVSPropertyOp28
 70
     1
102
RTVSPropertyOp29
 70
     1
102
RTVSPropertyOp30
 70
     1
102
RTVSPropertyOp31
 70
     1
102
RTVSPropertyOp32
 70
     1
  0
XRECORD
  5
468
102
{ACAD_REACTORS
330
467
102
}
330
467
100
AcDbXrecord
280
     1
102
RTVSPropertyOp0
 70
     1
102
RTVSPropertyOp1
 70
     1
102
RTVSPropertyOp2
 70
     1
102
RTVSPropertyOp3
 70
     1
102
RTVSPropertyOp4
 70
     1
102
RTVSPropertyOp5
 70
     1
102
RTVSPropertyOp6
 70
     1
102
RTVSPropertyOp7
 70
     1
102
RTVSPropertyOp8
 70
     1
102
RTVSPropertyOp9
 70
     1
102
RTVSPropertyOp10
 70
     1
102
RTVSPropertyOp11
 70
     1
102
RTVSPropertyOp12
 70
     1
102
RTVSPropertyOp13
 70
     1
102
RTVSPropertyOp14
 70
     1
102
RTVSPropertyOp15
 70
     1
102
RTVSPropertyOp16
 70
     1
102
RTVSPropertyOp17
 70
     1
102
RTVSPropertyOp18
 70
     1
102
RTVSPropertyOp19
 70
     1
102
RTVSPropertyOp20
 70
     1
102
RTVSPropertyOp21
 70
     1
102
RTVSPropertyOp22
 70
     1
102
RTVSPropertyOp23
 70
     1
102
RTVSPropertyOp24
 70
     1
102
RTVSPropertyOp25
 70
     1
102
RTVSPropertyOp26
 70
     1
102
RTVSPropertyOp27
 70
     1
102
RTVSPropertyOp28
 70
     1
102
RTVSPropertyOp29
 70
     1
102
RTVSPropertyOp30
 70
     1
102
RTVSPropertyOp31
 70
     1
102
RTVSPropertyOp32
 70
     1
  0
XRECORD
  5
46A
102
{ACAD_REACTORS
330
469
102
}
330
469
100
AcDbXrecord
280
     1
102
RTVSPropertyOp0
 70
     1
102
RTVSPropertyOp1
 70
     1
102
RTVSPropertyOp2
 70
     1
102
RTVSPropertyOp3
 70
     1
102
RTVSPropertyOp4
 70
     1
102
RTVSPropertyOp5
 70
     1
102
RTVSPropertyOp6
 70
     1
102
RTVSPropertyOp7
 70
     1
102
RTVSPropertyOp8
 70
     1
102
RTVSPropertyOp9
 70
     1
102
RTVSPropertyOp10
 70
     1
102
RTVSPropertyOp11
 70
     1
102
RTVSPropertyOp12
 70
     1
102
RTVSPropertyOp13
 70
     1
102
RTVSPropertyOp14
 70
     1
102
RTVSPropertyOp15
 70
     1
102
RTVSPropertyOp16
 70
     1
102
RTVSPropertyOp17
 70
     1
102
RTVSPropertyOp18
 70
     1
102
RTVSPropertyOp19
 70
     1
102
RTVSPropertyOp20
 70
     1
102
RTVSPropertyOp21
 70
     1
102
RTVSPropertyOp22
 70
     1
102
RTVSPropertyOp23
 70
     1
102
RTVSPropertyOp24
 70
     1
102
RTVSPropertyOp25
 70
     1
102
RTVSPropertyOp26
 70
     1
102
RTVSPropertyOp27
 70
     1
102
RTVSPropertyOp28
 70
     1
102
RTVSPropertyOp29
 70
     1
102
RTVSPropertyOp30
 70
     1
102
RTVSPropertyOp31
 70
     1
102
RTVSPropertyOp32
 70
     1
  0
XRECORD
  5
46C
102
{ACAD_REACTORS
330
46B
102
}
330
46B
100
AcDbXrecord
280
     1
102
RTVSPropertyOp0
 70
     1
102
RTVSPropertyOp1
 70
     1
102
RTVSPropertyOp2
 70
     1
102
RTVSPropertyOp3
 70
     1
102
RTVSPropertyOp4
 70
     1
102
RTVSPropertyOp5
 70
     1
102
RTVSPropertyOp6
 70
     1
102
RTVSPropertyOp7
 70
     1
102
RTVSPropertyOp8
 70
     1
102
RTVSPropertyOp9
 70
     1
102
RTVSPropertyOp10
 70
     1
102
RTVSPropertyOp11
 70
     1
102
RTVSPropertyOp12
 70
     1
102
RTVSPropertyOp13
 70
     1
102
RTVSPropertyOp14
 70
     1
102
RTVSPropertyOp15
 70
     1
102
RTVSPropertyOp16
 70
     1
102
RTVSPropertyOp17
 70
     1
102
RTVSPropertyOp18
 70
     1
102
RTVSPropertyOp19
 70
     1
102
RTVSPropertyOp20
 70
     1
102
RTVSPropertyOp21
 70
     1
102
RTVSPropertyOp22
 70
     1
102
RTVSPropertyOp23
 70
     1
102
RTVSPropertyOp24
 70
     1
102
RTVSPropertyOp25
 70
     1
102
RTVSPropertyOp26
 70
     1
102
RTVSPropertyOp27
 70
     1
102
RTVSPropertyOp28
 70
     1
102
RTVSPropertyOp29
 70
     1
102
RTVSPropertyOp30
 70
     1
102
RTVSPropertyOp31
 70
     1
102
RTVSPropertyOp32
 70
     1
  0
XRECORD
  5
46E
102
{ACAD_REACTORS
330
46D
102
}
330
46D
100
AcDbXrecord
280
     1
102
RTVSPropertyOp0
 70
     1
102
RTVSPropertyOp1
 70
     1
102
RTVSPropertyOp2
 70
     1
102
RTVSPropertyOp3
 70
     1
102
RTVSPropertyOp4
 70
     1
102
RTVSPropertyOp5
 70
     1
102
RTVSPropertyOp6
 70
     1
102
RTVSPropertyOp7
 70
     1
102
RTVSPropertyOp8
 70
     1
102
RTVSPropertyOp9
 70
     1
102
RTVSPropertyOp10
 70
     1
102
RTVSPropertyOp11
 70
     1
102
RTVSPropertyOp12
 70
     1
102
RTVSPropertyOp13
 70
     1
102
RTVSPropertyOp14
 70
     1
102
RTVSPropertyOp15
 70
     1
102
RTVSPropertyOp16
 70
     1
102
RTVSPropertyOp17
 70
     1
102
RTVSPropertyOp18
 70
     1
102
RTVSPropertyOp19
 70
     1
102
RTVSPropertyOp20
 70
     1
102
RTVSPropertyOp21
 70
     1
102
RTVSPropertyOp22
 70
     1
102
RTVSPropertyOp23
 70
     1
102
RTVSPropertyOp24
 70
     1
102
RTVSPropertyOp25
 70
     1
102
RTVSPropertyOp26
 70
     1
102
RTVSPropertyOp27
 70
     1
102
RTVSPropertyOp28
 70
     1
102
RTVSPropertyOp29
 70
     1
102
RTVSPropertyOp30
 70
     1
102
RTVSPropertyOp31
 70
     1
102
RTVSPropertyOp32
 70
     1
  0
XRECORD
  5
482
102
{ACAD_REACTORS
330
481
102
}
330
481
100
AcDbXrecord
280
     1
102
RTVSPropertyOp0
 70
     1
102
RTVSPropertyOp1
 70
     1
102
RTVSPropertyOp2
 70
     1
102
RTVSPropertyOp3
 70
     1
102
RTVSPropertyOp4
 70
     1
102
RTVSPropertyOp5
 70
     1
102
RTVSPropertyOp6
 70
     1
102
RTVSPropertyOp7
 70
     1
102
RTVSPropertyOp8
 70
     1
102
RTVSPropertyOp9
 70
     1
102
RTVSPropertyOp10
 70
     1
102
RTVSPropertyOp11
 70
     1
102
RTVSPropertyOp12
 70
     1
102
RTVSPropertyOp13
 70
     1
102
RTVSPropertyOp14
 70
     1
102
RTVSPropertyOp15
 70
     1
102
RTVSPropertyOp16
 70
     1
102
RTVSPropertyOp17
 70
     1
102
RTVSPropertyOp18
 70
     1
102
RTVSPropertyOp19
 70
     1
102
RTVSPropertyOp20
 70
     1
102
RTVSPropertyOp21
 70
     1
102
RTVSPropertyOp22
 70
     1
102
RTVSPropertyOp23
 70
     1
102
RTVSPropertyOp24
 70
     1
102
RTVSPropertyOp25
 70
     1
102
RTVSPropertyOp26
 70
     1
102
RTVSPropertyOp27
 70
     1
102
RTVSPropertyOp28
 70
     1
102
RTVSPropertyOp29
 70
     1
102
RTVSPropertyOp30
 70
     1
102
RTVSPropertyOp31
 70
     1
102
RTVSPropertyOp32
 70
     1
  0
XRECORD
  5
478
102
{ACAD_REACTORS
330
477
102
}
330
477
100
AcDbXrecord
280
     1
102
RTVSPropertyOp0
 70
     1
102
RTVSPropertyOp1
 70
     1
102
RTVSPropertyOp2
 70
     1
102
RTVSPropertyOp3
 70
     1
102
RTVSPropertyOp4
 70
     1
102
RTVSPropertyOp5
 70
     1
102
RTVSPropertyOp6
 70
     1
102
RTVSPropertyOp7
 70
     1
102
RTVSPropertyOp8
 70
     1
102
RTVSPropertyOp9
 70
     1
102
RTVSPropertyOp10
 70
     1
102
RTVSPropertyOp11
 70
     1
102
RTVSPropertyOp12
 70
     1
102
RTVSPropertyOp13
 70
     1
102
RTVSPropertyOp14
 70
     1
102
RTVSPropertyOp15
 70
     1
102
RTVSPropertyOp16
 70
     1
102
RTVSPropertyOp17
 70
     1
102
RTVSPropertyOp18
 70
     1
102
RTVSPropertyOp19
 70
     1
102
RTVSPropertyOp20
 70
     1
102
RTVSPropertyOp21
 70
     1
102
RTVSPropertyOp22
 70
     1
102
RTVSPropertyOp23
 70
     1
102
RTVSPropertyOp24
 70
     1
102
RTVSPropertyOp25
 70
     1
102
RTVSPropertyOp26
 70
     1
102
RTVSPropertyOp27
 70
     1
102
RTVSPropertyOp28
 70
     1
102
RTVSPropertyOp29
 70
     1
102
RTVSPropertyOp30
 70
     1
102
RTVSPropertyOp31
 70
     1
102
RTVSPropertyOp32
 70
     1
  0
XRECORD
  5
480
102
{ACAD_REACTORS
330
47F
102
}
330
47F
100
AcDbXrecord
280
     1
102
RTVSPropertyOp0
 70
     1
102
RTVSPropertyOp1
 70
     1
102
RTVSPropertyOp2
 70
     1
102
RTVSPropertyOp3
 70
     1
102
RTVSPropertyOp4
 70
     1
102
RTVSPropertyOp5
 70
     1
102
RTVSPropertyOp6
 70
     1
102
RTVSPropertyOp7
 70
     1
102
RTVSPropertyOp8
 70
     1
102
RTVSPropertyOp9
 70
     1
102
RTVSPropertyOp10
 70
     1
102
RTVSPropertyOp11
 70
     1
102
RTVSPropertyOp12
 70
     1
102
RTVSPropertyOp13
 70
     1
102
RTVSPropertyOp14
 70
     1
102
RTVSPropertyOp15
 70
     1
102
RTVSPropertyOp16
 70
     1
102
RTVSPropertyOp17
 70
     1
102
RTVSPropertyOp18
 70
     1
102
RTVSPropertyOp19
 70
     1
102
RTVSPropertyOp20
 70
     1
102
RTVSPropertyOp21
 70
     1
102
RTVSPropertyOp22
 70
     1
102
RTVSPropertyOp23
 70
     1
102
RTVSPropertyOp24
 70
     1
102
RTVSPropertyOp25
 70
     1
102
RTVSPropertyOp26
 70
     1
102
RTVSPropertyOp27
 70
     1
102
RTVSPropertyOp28
 70
     1
102
RTVSPropertyOp29
 70
     1
102
RTVSPropertyOp30
 70
     1
102
RTVSPropertyOp31
 70
     1
102
RTVSPropertyOp32
 70
     1
  0
ENDSEC
  0
EOF
