  0
SECTION
  2
HEADER
  9
$ACADVER
  1
AC1015
  9
$ACADMAINTVER
 70
     6
  9
$DWGCODEPAGE
  3
ANSI_1252
  9
$INSBASE
 10
0.0
 20
0.0
 30
0.0
  9
$EXTMIN
 10
0.0
 20
0.0
 30
0.0
  9
$EXTMAX
 10
210.0
 20
297.0
 30
0.0
  9
$LIMMIN
 10
0.0
 20
0.0
  9
$LIMMAX
 10
0.0
 20
0.0
  9
$ORTHOMODE
 70
     0
  9
$REGENMODE
 70
     1
  9
$FILLMODE
 70
     1
  9
$QTEXTMODE
 70
     0
  9
$MIRRTEXT
 70
     1
  9
$LTSCALE
 40
1.0
  9
$ATTMODE
 70
     1
  9
$TEXTSIZE
 40
0.0
  9
$TRACEWID
 40
0.05
  9
$TEXTSTYLE
  7
STANDARD
  9
$CLAYER
  8
0
  9
$CELTYPE
  6
CONTINUOUS
  9
$CECOLOR
 62
   256
  9
$CELTSCALE
 40
1.0
  9
$DISPSILH
 70
     0
  9
$DIMSCALE
 40
1.0
  9
$DIMASZ
 40
0.0
  9
$DIMEXO
 40
0.0
  9
$DIMDLI
 40
0.38
  9
$DIMRND
 40
0.0
  9
$DIMDLE
 40
1000.0
  9
$DIMEXE
 40
0.18
  9
$DIMTP
 40
0.0
  9
$DIMTM
 40
0.0
  9
$DIMTXT
 40
3.5
  9
$DIMCEN
 40
0.09
  9
$DIMTSZ
 40
0.0
  9
$DIMTOL
 70
     0
  9
$DIMLIM
 70
     0
  9
$DIMTIH
 70
     1
  9
$DIMTOH
 70
     1
  9
$DIMSE1
 70
     0
  9
$DIMSE2
 70
     0
  9
$DIMTAD
 70
     1
  9
$DIMZIN
 70
     0
  9
$DIMBLK
  1

  9
$DIMASO
 70
     1
  9
$DIMSHO
 70
     1
  9
$DIMPOST
  1

  9
$DIMAPOST
  1

  9
$DIMALT
 70
     0
  9
$DIMALTD
 70
     2
  9
$DIMALTF
 40
0.0394
  9
$DIMLFAC
 40
1.0
  9
$DIMTOFL
 70
     0
  9
$DIMTVP
 40
0.0
  9
$DIMTIX
 70
     0
  9
$DIMSOXD
 70
     0
  9
$DIMSAH
 70
     0
  9
$DIMBLK1
  1

  9
$DIMBLK2
  1

  9
$DIMSTYLE
  2
STANDARD
  9
$DIMCLRD
 70
     0
  9
$DIMCLRE
 70
     0
  9
$DIMCLRT
 70
     0
  9
$DIMTFAC
 40
1.0
  9
$DIMGAP
 40
0.0
  9
$DIMJUST
 70
     0
  9
$DIMSD1
 70
     0
  9
$DIMSD2
 70
     0
  9
$DIMTOLJ
 70
     1
  9
$DIMTZIN
 70
     0
  9
$DIMALTZ
 70
     0
  9
$DIMALTTZ
 70
     0
  9
$DIMUPT
 70
     0
  9
$DIMDEC
 70
     4
  9
$DIMTDEC
 70
     4
  9
$DIMALTU
 70
     2
  9
$DIMALTTD
 70
     2
  9
$DIMTXSTY
  7
STANDARD
  9
$DIMAUNIT
 70
     0
  9
$DIMADEC
 70
     0
  9
$DIMALTRND
 40
0.0
  9
$DIMAZIN
 70
     0
  9
$DIMDSEP
 70
    46
  9
$DIMATFIT
 70
     3
  9
$DIMFRAC
 70
     0
  9
$DIMLDRBLK
  1

  9
$DIMLUNIT
 70
     2
  9
$DIMLWD
 70
    -2
  9
$DIMLWE
 70
    -2
  9
$DIMTMOVE
 70
     2
  9
$LUNITS
 70
     2
  9
$LUPREC
 70
     2
  9
$SKETCHINC
 40
0.1
  9
$FILLETRAD
 40
0.0
  9
$AUNITS
 70
     0
  9
$AUPREC
 70
     2
  9
$MENU
  1
acad
  9
$ELEVATION
 40
0.0
  9
$PELEVATION
 40
0.0
  9
$THICKNESS
 40
0.0
  9
$LIMCHECK
 70
     0
  9
$CHAMFERA
 40
0.0
  9
$CHAMFERB
 40
0.0
  9
$CHAMFERC
 40
0.0
  9
$CHAMFERD
 40
0.0
  9
$SKPOLY
 70
     0
  9
$TDCREATE
 40
2447893.0
  9
$TDUCREATE
 40
2447892.916666667
  9
$TDUPDATE
 40
2458327.548781794
  9
$TDUUPDATE
 40
2458327.465448461
  9
$TDINDWG
 40
0.0
  9
$TDUSRTIMER
 40
0.0
  9
$USRTIMER
 70
     1
  9
$ANGBASE
 50
0.0
  9
$ANGDIR
 70
     0
  9
$PDMODE
 70
     0
  9
$PDSIZE
 40
-1.0
  9
$PLINEWID
 40
0.0
  9
$SPLFRAME
 70
     0
  9
$SPLINETYPE
 70
     6
  9
$SPLINESEGS
 70
     8
  9
$HANDSEED
  5
46B
  9
$SURFTAB1
 70
     6
  9
$SURFTAB2
 70
     6
  9
$SURFTYPE
 70
     6
  9
$SURFU
 70
     6
  9
$SURFV
 70
     6
  9
$UCSBASE
  2

  9
$UCSNAME
  2

  9
$UCSORG
 10
0.0
 20
0.0
 30
0.0
  9
$UCSXDIR
 10
1.0
 20
0.0
 30
0.0
  9
$UCSYDIR
 10
0.0
 20
1.0
 30
0.0
  9
$UCSORTHOREF
  2

  9
$UCSORTHOVIEW
 70
     0
  9
$UCSORGTOP
 10
0.0
 20
0.0
 30
0.0
  9
$UCSORGBOTTOM
 10
0.0
 20
0.0
 30
0.0
  9
$UCSORGLEFT
 10
0.0
 20
0.0
 30
0.0
  9
$UCSORGRIGHT
 10
0.0
 20
0.0
 30
0.0
  9
$UCSORGFRONT
 10
0.0
 20
0.0
 30
0.0
  9
$UCSORGBACK
 10
0.0
 20
0.0
 30
0.0
  9
$PUCSBASE
  2

  9
$PUCSNAME
  2

  9
$PUCSORG
 10
0.0
 20
0.0
 30
0.0
  9
$PUCSXDIR
 10
1.0
 20
0.0
 30
0.0
  9
$PUCSYDIR
 10
0.0
 20
1.0
 30
0.0
  9
$PUCSORTHOREF
  2

  9
$PUCSORTHOVIEW
 70
     0
  9
$PUCSORGTOP
 10
0.0
 20
0.0
 30
0.0
  9
$PUCSORGBOTTOM
 10
0.0
 20
0.0
 30
0.0
  9
$PUCSORGLEFT
 10
0.0
 20
0.0
 30
0.0
  9
$PUCSORGRIGHT
 10
0.0
 20
0.0
 30
0.0
  9
$PUCSORGFRONT
 10
0.0
 20
0.0
 30
0.0
  9
$PUCSORGBACK
 10
0.0
 20
0.0
 30
0.0
  9
$USERI1
 70
     0
  9
$USERI2
 70
     0
  9
$USERI3
 70
     0
  9
$USERI4
 70
     0
  9
$USERI5
 70
     0
  9
$USERR1
 40
0.0
  9
$USERR2
 40
0.0
  9
$USERR3
 40
0.0
  9
$USERR4
 40
0.0
  9
$USERR5
 40
0.0
  9
$WORLDVIEW
 70
     1
  9
$SHADEDGE
 70
     3
  9
$SHADEDIF
 70
    70
  9
$TILEMODE
 70
     1
  9
$MAXACTVP
 70
    16
  9
$PINSBASE
 10
0.0
 20
0.0
 30
0.0
  9
$PLIMCHECK
 70
     0
  9
$PEXTMIN
 10
1.000000000000000E+20
 20
1.000000000000000E+20
 30
1.000000000000000E+20
  9
$PEXTMAX
 10
-1.000000000000000E+20
 20
-1.000000000000000E+20
 30
-1.000000000000000E+20
  9
$PLIMMIN
 10
0.0
 20
0.0
  9
$PLIMMAX
 10
12.0
 20
9.0
  9
$UNITMODE
 70
     0
  9
$VISRETAIN
 70
     0
  9
$PLINEGEN
 70
     1
  9
$PSLTSCALE
 70
     1
  9
$TREEDEPTH
 70
  3020
  9
$CMLSTYLE
  2
STANDARD
  9
$CMLJUST
 70
     0
  9
$CMLSCALE
 40
1.0
  9
$PROXYGRAPHICS
 70
     1
  9
$MEASUREMENT
 70
     0
  9
$CELWEIGHT
370
    -1
  9
$ENDCAPS
280
     0
  9
$JOINSTYLE
280
     0
  9
$LWDISPLAY
290
     0
  9
$INSUNITS
 70
     0
  9
$HYPERLINKBASE
  1

  9
$STYLESHEET
  1

  9
$XEDIT
290
     1
  9
$CEPSNTYPE
380
     0
  9
$PSTYLEMODE
290
     1
  9
$FINGERPRINTGUID
  2
{99D078FF-FB42-4C67-9F32-0C61D37BF57E}
  9
$VERSIONGUID
  2
{FAEB1C32-E019-11D5-929B-00C0DF256EC4}
  9
$EXTNAMES
290
     1
  9
$PSVPSCALE
 40
0.0
  9
$OLESTARTUP
290
     0
  0
ENDSEC
  0
SECTION
  2
CLASSES
  0
CLASS
  1
LWPOLYLINE
  2
AcDbPolyline
  3
ObjectDBX Classes
 90
        0
280
     0
281
     1
  0
CLASS
  1
IMAGE
  2
AcDbRasterImage
  3
ISM
 90
      127
280
     0
281
     1
  0
CLASS
  1
OLE2FRAME
  2
AcDbOle2Frame
  3
ObjectDBX Classes
 90
        0
280
     0
281
     1
  0
CLASS
  1
HATCH
  2
AcDbHatch
  3
ObjectDBX Classes
 90
        0
280
     0
281
     1
  0
CLASS
  1
DICTIONARYVAR
  2
AcDbDictionaryVar
  3
ObjectDBX Classes
 90
        0
280
     0
281
     0
  0
CLASS
  1
RASTERVARIABLES
  2
AcDbRasterVariables
  3
ISM
 90
        0
280
     0
281
     0
  0
CLASS
  1
IMAGEDEF
  2
AcDbRasterImageDef
  3
ISM
 90
        0
280
     0
281
     0
  0
CLASS
  1
IMAGEDEF_REACTOR
  2
AcDbRasterImageDefReactor
  3
ISM
 90
        1
280
     0
281
     0
  0
CLASS
  1
IDBUFFER
  2
AcDbIdBuffer
  3
ObjectDBX Classes
 90
        0
280
     0
281
     0
  0
CLASS
  1
SPATIAL_FILTER
  2
AcDbSpatialFilter
  3
ObjectDBX Classes
 90
        0
280
     0
281
     0
  0
CLASS
  1
XRECORD
  2
AcDbXrecord
  3
ObjectDBX Classes
 90
        0
280
     0
281
     0
  0
CLASS
  1
SORTENTSTABLE
  2
AcDbSortentsTable
  3
ObjectDBX Classes
 90
        0
280
     0
281
     0
  0
CLASS
  1
LAYER_INDEX
  2
AcDbLayerIndex
  3
ObjectDBX Classes
 90
        0
280
     0
281
     0
  0
CLASS
  1
SPATIAL_INDEX
  2
AcDbSpatialIndex
  3
AutoCAD 2000
 90
        0
280
     0
281
     0
  0
CLASS
  1
OBJECT_PTR
  2
CAseDLPNTableRecord
  3
ASE-LPNTableRecord
 90
        1
280
     0
281
     0
  0
CLASS
  1
LAYOUT
  2
AcDbLayout
  3
ObjectDBX Classes
 90
        0
280
     0
281
     0
  0
CLASS
  1
PLOTSETTINGS
  2
AcDbPlotSettings
  3
ObjectDBX Classes
 90
        0
280
     0
281
     0
  0
CLASS
  1
ACDBDICTIONARYWDFLT
  2
AcDbDictionaryWithDefault
  3
ObjectDBX Classes
 90
        0
280
     0
281
     0
  0
CLASS
  1
ACDBPLACEHOLDER
  2
AcDbPlaceHolder
  3
ObjectDBX Classes
 90
        0
280
     0
281
     0
  0
CLASS
  1
VBA_PROJECT
  2
AcDbVbaProject
  3
ObjectDBX Classes
 90
        0
280
     0
281
     0
  0
CLASS
  1
WIPEOUT
  2
AcDbWipeout
  3
WipeOut|AutoCAD Express Tool|expresstools@autodesk.com
 90
      127
280
     0
281
     1
  0
CLASS
  1
WIPEOUTVARIABLES
  2
AcDbWipeoutVariables
  3
WipeOut|AutoCAD Express Tool|expresstools@autodesk.com
 90
        0
280
     0
281
     0
  0
CLASS
  1
RTEXT
  2
RText
  3
RText|AutoCAD Express Tool|expresstools@autodesk.com
 90
        0
280
     0
281
     1
  0
CLASS
  1
ARCALIGNEDTEXT
  2
AcDbArcAlignedText
  3
ATEXT|AutoCAD Express Tool|expresstools@autodesk.com
 90
        0
280
     0
281
     1
  0
CLASS
  1
SCALE
  2
AcDbScale
  3
ObjectDBX Classes
 90
     1153
280
     0
281
     0
  0
CLASS
  1
VISUALSTYLE
  2
AcDbVisualStyle
  3
ObjectDBX Classes
 90
     4095
280
     0
281
     0
  0
CLASS
  1
MATERIAL
  2
AcDbMaterial
  3
ObjectDBX Classes
 90
     1153
280
     0
281
     0
  0
ENDSEC
  0
SECTION
  2
TABLES
  0
TABLE
  2
VPORT
  5
7
102
{ACAD_XDICTIONARY
360
430
102
}
330
0
100
AcDbSymbolTable
 70
     1
  0
VPORT
  5
15
330
7
100
AcDbSymbolTableRecord
100
AcDbViewportTableRecord
  2
*ACTIVE
 70
     0
 10
0.0
 20
0.0
 11
1.0
 21
1.0
 12
105.0
 22
148.5
 13
0.0
 23
0.0
 14
1.0
 24
1.0
 15
0.0
 25
0.0
 16
0.0
 26
0.0
 36
1.0
 17
0.0
 27
0.0
 37
0.0
 40
297.0
 41
1.4142857143
 42
50.0
 43
0.0
 44
0.0
 50
0.0
 51
0.0
 71
     0
 72
  2000
 73
     1
 74
     1
 75
     0
 76
     0
 77
     0
 78
     0
281
     0
 65
     1
110
0.0
120
0.0
130
0.0
111
1.0
121
0.0
131
0.0
112
0.0
122
1.0
132
0.0
 79
     0
146
0.0
  0
ENDTAB
  0
TABLE
  2
LTYPE
  5
4
330
0
100
AcDbSymbolTable
 70
     6
  0
LTYPE
  5
11
330
4
100
AcDbSymbolTableRecord
100
AcDbLinetypeTableRecord
  2
BYBLOCK
 70
     0
  3

 72
    65
 73
     0
 40
0.0
  0
LTYPE
  5
12
330
4
100
AcDbSymbolTableRecord
100
AcDbLinetypeTableRecord
  2
BYLAYER
 70
     0
  3

 72
    65
 73
     0
 40
0.0
  0
LTYPE
  5
13
330
4
100
AcDbSymbolTableRecord
100
AcDbLinetypeTableRecord
  2
CONTINUOUS
 70
     0
  3
Solid line
 72
    65
 73
     0
 40
0.0
  0
LTYPE
  5
1D
330
4
100
AcDbSymbolTableRecord
100
AcDbLinetypeTableRecord
  2
HIDDEN
 70
     0
  3
Hidden __ __ __ __ __ __ __ __ __ __ __ __ __ __
 72
    65
 73
     2
 40
1.905
 49
1.27
 74
     0
 49
-0.635
 74
     0
  0
LTYPE
  5
1E
330
4
100
AcDbSymbolTableRecord
100
AcDbLinetypeTableRecord
  2
PHANTOM
 70
     0
  3
Phantom ______  __  __  ______  __  __  ______
 72
    65
 73
     6
 40
12.7
 49
6.35
 74
     0
 49
-1.27
 74
     0
 49
1.27
 74
     0
 49
-1.27
 74
     0
 49
1.27
 74
     0
 49
-1.27
 74
     0
  0
LTYPE
  5
1F
330
4
100
AcDbSymbolTableRecord
100
AcDbLinetypeTableRecord
  2
CENTER
 70
     0
  3
Center ____ _ ____ _ ____ _ ____ _ ____ _ ____
 72
    65
 73
     4
 40
10.16
 49
6.35
 74
     0
 49
-1.27
 74
     0
 49
1.27
 74
     0
 49
-1.27
 74
     0
  0
LTYPE
  5
20
330
4
100
AcDbSymbolTableRecord
100
AcDbLinetypeTableRecord
  2
CENTERX2
 70
     0
  3
Center (2x) ________  __  ________  __  _____
 72
    65
 73
     4
 40
20.32
 49
12.7
 74
     0
 49
-2.54
 74
     0
 49
2.54
 74
     0
 49
-2.54
 74
     0
  0
LTYPE
  5
21
330
4
100
AcDbSymbolTableRecord
100
AcDbLinetypeTableRecord
  2
DOT2
 70
     0
  3
Dot (.5x) ........................................
 72
    65
 73
     2
 40
0.635
 49
0.0
 74
     0
 49
-0.635
 74
     0
  0
LTYPE
  5
45A
330
5
100
AcDbSymbolTableRecord
100
AcDbLinetypeTableRecord
  2
DASH
 70
     0
  3
DASH _ _ _ _ _
 72
    65
 73
     2
 40
0.75
 49
0.40
 74
     0
 49
-0.35
 74
     0
  0
LTYPE
  5
45B
330
5
100
AcDbSymbolTableRecord
100
AcDbLinetypeTableRecord
  2
LONGDASH_DASH
 70
     0
  3
LONGDASH_DASH __ . __ . __
 72
    65
 73
     4
 40
0.85
 49
0.40
 74
     0
 49
-0.20
 74
     0
 49
0.05
 74
     0
 49
-0.20
 74
     0
  0
LTYPE
  5
45C
330
5
100
AcDbSymbolTableRecord
100
AcDbLinetypeTableRecord
  2
LONGDASH_DASH_DASH
 70
     0
  3
LONGDASH_DASH_DASH __ . . __ . . __
 72
    65
 73
     6
 40
1.10
 49
0.40
 74
     0
 49
-0.20
 74
     0
 49
0.05
 74
     0
 49
-0.20
 74
     0
 49
0.05
 74
     0
 49
-0.20
 74
     0
  0
ENDTAB
  0
TABLE
  2
LAYER
  5
2
330
0
100
AcDbSymbolTable
 70
     8
  0
LAYER
  5
23
330
2
100
AcDbSymbolTableRecord
100
AcDbLayerTableRecord
  2
DEFPOINTS
 70
     0
 62
     7
  6
CONTINUOUS
290
     0
370
    -3
390
0
  0
LAYER
  5
45D
330
2
100
AcDbSymbolTableRecord
100
AcDbLayerTableRecord
  2
0
 70
     0
 62
     -1
  6
CONTINUOUS
370
    -3
390
F
  0
LAYER
  5
45E
330
2
100
AcDbSymbolTableRecord
100
AcDbLayerTableRecord
  2
1
 70
     0
 62
     4
  6
CONTINUOUS
370
    50
390
F
  0
LAYER
  5
45F
330
2
100
AcDbSymbolTableRecord
100
AcDbLayerTableRecord
  2
2
 70
     0
 62
     7
  6
CONTINUOUS
370
    25
390
F
  0
LAYER
  5
460
330
2
100
AcDbSymbolTableRecord
100
AcDbLayerTableRecord
  2
3
 70
     0
 62
     1
  6
DASH
370
    35
390
F
  0
LAYER
  5
461
330
2
100
AcDbSymbolTableRecord
100
AcDbLayerTableRecord
  2
4
 70
     0
 62
     2
  6
LONGDASH_DASH
370
    25
390
F
  0
LAYER
  5
462
330
2
100
AcDbSymbolTableRecord
100
AcDbLayerTableRecord
  2
6
 70
     0
 62
     5
  6
CONTINUOUS
370
    -3
390
F
  0
LAYER
  5
463
330
2
100
AcDbSymbolTableRecord
100
AcDbLayerTableRecord
  2
CUT
 70
     0
 62
     1
  6
CONTINUOUS
370
    25
390
F
  0
LAYER
  5
464
330
2
100
AcDbSymbolTableRecord
100
AcDbLayerTableRecord
  2
NOCUT
 70
     0
 62
     7
  6
CONTINUOUS
370
    25
390
F
  0
LAYER
  5
465
330
2
100
AcDbSymbolTableRecord
100
AcDbLayerTableRecord
  2
SK1
 70
     0
 62
     4
  6
CONTINUOUS
370
    50
390
F
  0
LAYER
  5
466
330
2
100
AcDbSymbolTableRecord
100
AcDbLayerTableRecord
  2
SK2
 70
     0
 62
     7
  6
CONTINUOUS
370
    25
390
F
  0
LAYER
  5
467
330
2
100
AcDbSymbolTableRecord
100
AcDbLayerTableRecord
  2
SK3
 70
     0
 62
     1
  6
DASH
370
    35
390
F
  0
LAYER
  5
468
330
2
100
AcDbSymbolTableRecord
100
AcDbLayerTableRecord
  2
SK4
 70
     0
 62
     2
  6
LONGDASH_DASH
370
    25
390
F
  0
LAYER
  5
469
330
2
100
AcDbSymbolTableRecord
100
AcDbLayerTableRecord
  2
SK6
 70
     0
 62
     5
  6
CONTINUOUS
370
    -3
390
F
  0
LAYER
  5
46A
330
2
100
AcDbSymbolTableRecord
100
AcDbLayerTableRecord
  2
INFTOTAL
 70
     0
 62
     9
  6
CONTINUOUS
370
    18
390
F
  0
ENDTAB
  0
TABLE
  2
STYLE
  5
3
330
0
100
AcDbSymbolTable
 70
     2
  0
STYLE
  5
17
330
3
100
AcDbSymbolTableRecord
100
AcDbTextStyleTableRecord
  2
STANDARD
 70
     0
 40
0.0
 41
1.0
 50
0.0
 71
     0
 42
0.2
  3
txt
  4

  0
STYLE
  5
428
330
3
100
AcDbSymbolTableRecord
100
AcDbTextStyleTableRecord
  2
BMG_Text
 70
     0
 40
3.5
 41
1.0
 50
0.0
 71
     0
 42
0.0
  3
monos.ttf
  4

1001
ACAD
1000
Monospac821 BT
1071
       49
  0
ENDTAB
  0
TABLE
  2
VIEW
  5
5
330
0
100
AcDbSymbolTable
 70
     0
  0
ENDTAB
  0
TABLE
  2
UCS
  5
6
330
0
100
AcDbSymbolTable
 70
     0
  0
ENDTAB
  0
TABLE
  2
APPID
  5
8
330
0
100
AcDbSymbolTable
 70
     1
  0
APPID
  5
16
330
8
100
AcDbSymbolTableRecord
100
AcDbRegAppTableRecord
  2
ACAD
 70
     0
  0
ENDTAB
  0
TABLE
  2
DIMSTYLE
  5
9
330
0
100
AcDbSymbolTable
 70
     1
100
AcDbDimStyleTable
  0
DIMSTYLE
105
18
330
9
100
AcDbSymbolTableRecord
100
AcDbDimStyleTableRecord
  2
STANDARD
 70
     0
178
     0
340
17
  0
ENDTAB
  0
TABLE
  2
BLOCK_RECORD
  5
1
330
0
100
AcDbSymbolTable
 70
     0
  0
BLOCK_RECORD
  5
A
330
1
100
AcDbSymbolTableRecord
100
AcDbBlockTableRecord
  2
*MODEL_SPACE
340
411
  0
BLOCK_RECORD
  5
B
330
1
100
AcDbSymbolTableRecord
100
AcDbBlockTableRecord
  2
*PAPER_SPACE
340
412
  0
ENDTAB
  0
ENDSEC
  0
SECTION
  2
BLOCKS
  0
BLOCK
  5
D
330
A
100
AcDbEntity
  8
0
100
AcDbBlockBegin
  2
*MODEL_SPACE
 70
     0
 10
0.0
 20
0.0
 30
0.0
  3
*MODEL_SPACE
  1

  0
ENDBLK
  5
E
330
A
100
AcDbEntity
  8
0
100
AcDbBlockEnd
  0
BLOCK
  5
F
330
B
100
AcDbEntity
 67
     1
  8
0
100
AcDbBlockBegin
  2
*PAPER_SPACE
 70
     0
 10
0.0
 20
0.0
 30
0.0
  3
*PAPER_SPACE
  1

  0
ENDBLK
  5
10
330
B
100
AcDbEntity
 67
     1
  8
0
100
AcDbBlockEnd
  0
ENDSEC
  0
SECTION
  2
ENTITIES
  0
ARC
  5
29
330
A
100
AcDbEntity
  8
1
  6
CONTINUOUS
370
    50
100
AcDbCircle
 10
78.6033681338
 20
145.091307229
 30
0.0
 40
0.5
100
AcDbArc
 50
66.4218215218
 51
90.0
  0
ARC
  5
2A
330
A
100
AcDbEntity
  8
1
  6
CONTINUOUS
370
    50
100
AcDbCircle
 10
78.6033681338
 20
189.941307229
 30
0.0
 40
0.5
100
AcDbArc
 50
270.0
 51
293.5781784782001
  0
LINE
  5
2B
330
A
100
AcDbEntity
  8
1
  6
CONTINUOUS
370
    50
100
AcDbLine
 10
77.8033681338
 20
189.741307229
 30
0.0
 11
10.3358894923
 21
179.9022999269
 31
0.0
  0
LINE
  5
2C
330
A
100
AcDbEntity
  8
1
  6
CONTINUOUS
370
    50
100
AcDbLine
 10
10.3358894923
 20
155.1303145311
 30
0.0
 11
77.8033681338
 21
145.291307229
 31
0.0
  0
LINE
  5
2D
330
A
100
AcDbEntity
  8
1
  6
CONTINUOUS
370
    50
100
AcDbLine
 10
77.8033681338
 20
145.291307229
 30
0.0
 11
78.3462584104
 21
145.5444611225
 31
0.0
  0
LINE
  5
2E
330
A
100
AcDbEntity
  8
1
  6
CONTINUOUS
370
    50
100
AcDbLine
 10
78.3462584104
 20
189.4881533355
 30
0.0
 11
77.8033681338
 21
189.741307229
 31
0.0
  0
ARC
  5
2F
330
A
100
AcDbEntity
  8
1
  6
CONTINUOUS
370
    50
100
AcDbCircle
 10
78.5575675413
 20
145.091307229
 30
0.0
 40
0.5
100
AcDbArc
 50
90.0
 51
115.0
  0
ARC
  5
30
330
A
100
AcDbEntity
  8
1
  6
CONTINUOUS
370
    50
100
AcDbCircle
 10
78.5575675413
 20
189.941307229
 30
0.0
 40
0.5
100
AcDbArc
 50
245.0
 51
270.0
  0
ARC
  5
31
330
A
100
AcDbEntity
  8
1
  6
CONTINUOUS
370
    50
100
AcDbCircle
 10
101.8533681338
 20
149.066307229
 30
0.0
 40
5.0
100
AcDbArc
 50
81.890385544
 51
180.0
  0
ARC
  5
32
330
A
100
AcDbEntity
  8
1
  6
CONTINUOUS
370
    50
100
AcDbCircle
 10
101.8533681338
 20
185.966307229
 30
0.0
 40
5.0
100
AcDbArc
 50
180.0
 51
278.109614456
  0
LINE
  5
33
330
A
100
AcDbEntity
  8
1
  6
CONTINUOUS
370
    50
100
AcDbLine
 10
159.6847539253
 20
154.016307229
 30
0.0
 11
196.7702400298
 21
156.9349982839
 31
0.0
  0
LINE
  5
34
330
A
100
AcDbEntity
  8
1
  6
CONTINUOUS
370
    50
100
AcDbLine
 10
196.7702400298
 20
178.0976161742
 30
0.0
 11
159.6847539253
 21
181.016307229
 31
0.0
  0
LINE
  5
35
330
A
100
AcDbEntity
  8
1
  6
CONTINUOUS
370
    50
100
AcDbLine
 10
102.5587049328
 20
154.016307229
 30
0.0
 11
159.6847539253
 21
154.016307229
 31
0.0
  0
LINE
  5
36
330
A
100
AcDbEntity
  8
1
  6
CONTINUOUS
370
    50
100
AcDbLine
 10
159.6847539253
 20
181.016307229
 30
0.0
 11
102.5587049328
 21
181.016307229
 31
0.0
  0
ARC
  5
37
330
A
100
AcDbEntity
  8
1
  6
CONTINUOUS
370
    50
100
AcDbCircle
 10
10.5033681338
 20
156.065939412
 30
0.0
 40
0.95
100
AcDbArc
 50
180.0
 51
258.0
  0
ARC
  5
38
330
A
100
AcDbEntity
  8
1
  6
CONTINUOUS
370
    50
100
AcDbCircle
 10
10.5033681338
 20
178.966675046
 30
0.0
 40
0.95
100
AcDbArc
 50
102.0
 51
180.0
  0
ARC
  5
39
330
A
100
AcDbEntity
  8
1
  6
CONTINUOUS
370
    50
100
AcDbCircle
 10
195.8033681338
 20
158.6857577581
 30
0.0
 40
2.0
100
AcDbArc
 50
298.9100507073
 51
0.0
  0
ARC
  5
3A
330
A
100
AcDbEntity
  8
1
  6
CONTINUOUS
370
    50
100
AcDbCircle
 10
195.8033681338
 20
176.3468566999
 30
0.0
 40
2.0
100
AcDbArc
 50
0.0
 51
61.08994929269999
  0
LINE
  5
3B
330
A
100
AcDbEntity
  8
1
  6
CONTINUOUS
370
    50
100
AcDbLine
 10
96.8533681338
 20
185.866307229
 30
0.0
 11
96.8533681338
 21
137.4433520749
 31
0.0
  0
LINE
  5
3C
330
A
100
AcDbEntity
  8
1
  6
CONTINUOUS
370
    50
100
AcDbLine
 10
96.8533681338
 20
137.4433520749
 30
0.0
 11
96.3533681338
 21
137.0392256765
 31
0.0
  0
LINE
  5
3D
330
A
100
AcDbEntity
  8
1
  6
CONTINUOUS
370
    50
100
AcDbLine
 10
96.3533681338
 20
137.0392256765
 30
0.0
 11
96.3533681338
 21
185.866307229
 31
0.0
  0
LINE
  5
3E
330
A
100
AcDbEntity
  8
1
  6
CONTINUOUS
370
    50
100
AcDbLine
 10
96.3533681338
 20
185.866307229
 30
0.0
 11
96.8533681338
 21
185.866307229
 31
0.0
  0
LINE
  5
3F
330
A
100
AcDbEntity
  8
1
  6
CONTINUOUS
370
    50
100
AcDbLine
 10
79.3033681338
 20
185.866307229
 30
0.0
 11
79.3033681338
 21
137.4663488264
 31
0.0
  0
LINE
  5
40
330
A
100
AcDbEntity
  8
1
  6
CONTINUOUS
370
    50
100
AcDbLine
 10
79.3033681338
 20
137.4663488264
 30
0.0
 11
78.8033681338
 21
138.1735057268
 31
0.0
  0
LINE
  5
41
330
A
100
AcDbEntity
  8
1
  6
CONTINUOUS
370
    50
100
AcDbLine
 10
78.8033681338
 20
138.1735057268
 30
0.0
 11
78.8033681338
 21
185.866307229
 31
0.0
  0
LINE
  5
42
330
A
100
AcDbEntity
  8
1
  6
CONTINUOUS
370
    50
100
AcDbLine
 10
78.8033681338
 20
185.866307229
 30
0.0
 11
79.3033681338
 21
185.866307229
 31
0.0
  0
LINE
  5
43
330
A
100
AcDbEntity
  8
1
  6
CONTINUOUS
370
    50
100
AcDbLine
 10
92.4252047758
 20
137.0392256765
 30
0.0
 11
92.4252047758
 21
185.866307229
 31
0.0
  0
LINE
  5
44
330
A
100
AcDbEntity
  8
1
  6
CONTINUOUS
370
    50
100
AcDbLine
 10
96.3533681338
 20
185.866307229
 30
0.0
 11
92.4252047758
 21
185.866307229
 31
0.0
  0
LINE
  5
45
330
A
100
AcDbEntity
  8
1
  6
CONTINUOUS
370
    50
100
AcDbLine
 10
96.3533681338
 20
137.0392256765
 30
0.0
 11
92.4252047758
 21
137.0392256765
 31
0.0
  0
LINE
  5
46
330
A
100
AcDbEntity
  8
1
  6
CONTINUOUS
370
    50
100
AcDbLine
 10
92.4252047758
 20
137.0392256765
 30
0.0
 11
91.8197059506
 21
137.889225679
 31
0.0
  0
LWPOLYLINE
  5
47
330
A
100
AcDbEntity
  8
1
  6
CONTINUOUS
370
    50
100
AcDbPolyline
 90
        3
 70
   128
 43
0.0
 10
90.8283681338
 20
139.67243497
 10
91.4075335256
 20
138.6296639214
 10
91.8197059506
 20
137.889225679
  0
LINE
  5
4C
330
A
100
AcDbEntity
  8
1
  6
CONTINUOUS
370
    50
100
AcDbLine
 10
90.8283681338
 20
185.866307229
 30
0.0
 11
90.8283681338
 21
139.67243497
 31
0.0
  0
LINE
  5
4D
330
A
100
AcDbEntity
  8
1
  6
CONTINUOUS
370
    50
100
AcDbLine
 10
92.4252047758
 20
185.866307229
 30
0.0
 11
90.8283681338
 21
185.866307229
 31
0.0
  0
LINE
  5
4E
330
A
100
AcDbEntity
  8
1
  6
CONTINUOUS
370
    50
100
AcDbLine
 10
85.987030317
 20
137.889225679
 30
0.0
 11
85.3815314917
 21
137.0392256765
 31
0.0
  0
LINE
  5
4F
330
A
100
AcDbEntity
  8
1
  6
CONTINUOUS
370
    50
100
AcDbLine
 10
85.3815314917
 20
137.0392256765
 30
0.0
 11
85.3815314917
 21
185.866307229
 31
0.0
  0
LINE
  5
50
330
A
100
AcDbEntity
  8
1
  6
CONTINUOUS
370
    50
100
AcDbLine
 10
86.9783681338
 20
185.866307229
 30
0.0
 11
85.3815314917
 21
185.866307229
 31
0.0
  0
LINE
  5
51
330
A
100
AcDbEntity
  8
1
  6
CONTINUOUS
370
    50
100
AcDbLine
 10
86.9783681338
 20
139.67243497
 30
0.0
 11
86.9783681338
 21
185.866307229
 31
0.0
  0
LWPOLYLINE
  5
52
330
A
100
AcDbEntity
  8
1
  6
CONTINUOUS
370
    50
100
AcDbPolyline
 90
        3
 70
   128
 43
0.0
 10
85.987030317
 20
137.889225679
 10
86.399202742
 20
138.6296639214
 10
86.9783681338
 20
139.67243497
  0
LINE
  5
57
330
A
100
AcDbEntity
  8
1
  6
CONTINUOUS
370
    50
100
AcDbLine
 10
85.3815314917
 20
137.0392256765
 30
0.0
 11
80.6533681313
 21
137.0392256765
 31
0.0
  0
LWPOLYLINE
  5
58
330
A
100
AcDbEntity
  8
1
  6
CONTINUOUS
370
    50
100
AcDbPolyline
 90
        3
 70
   128
 43
0.0
 10
79.3033681338
 20
137.4663488264
 10
79.9759867814
 20
137.2452605601
 10
80.6533681313
 20
137.0392256765
  0
LINE
  5
5D
330
A
100
AcDbEntity
  8
1
  6
CONTINUOUS
370
    50
100
AcDbLine
 10
85.3815314917
 20
185.866307229
 30
0.0
 11
79.3033681338
 21
185.866307229
 31
0.0
  0
ARC
  5
5E
330
A
100
AcDbEntity
  8
1
  6
CONTINUOUS
370
    50
100
AcDbCircle
 10
90.3186656433
 20
140.1887007908
 30
0.0
 40
0.5098409115
100
AcDbArc
 50
358.6648465179001
 51
88.90957100250002
  0
LINE
  5
5F
330
A
100
AcDbEntity
  8
1
  6
CONTINUOUS
370
    50
100
AcDbLine
 10
90.3283681338
 20
185.866307229
 30
0.0
 11
90.3283681338
 21
140.6984493727
 31
0.0
  0
LINE
  5
60
330
A
100
AcDbEntity
  8
1
  6
CONTINUOUS
370
    50
100
AcDbLine
 10
90.3283681338
 20
185.866307229
 30
0.0
 11
90.8283681338
 21
185.866307229
 31
0.0
  0
ARC
  5
61
330
A
100
AcDbEntity
  8
1
  6
CONTINUOUS
370
    50
100
AcDbCircle
 10
87.4897640725
 20
140.1870775579
 30
0.0
 40
0.5114987785
100
AcDbArc
 50
91.27662714070001
 51
181.1489553389
  0
LINE
  5
62
330
A
100
AcDbEntity
  8
1
  6
CONTINUOUS
370
    50
100
AcDbLine
 10
86.9783681338
 20
185.866307229
 30
0.0
 11
87.4783681338
 21
185.866307229
 31
0.0
  0
LINE
  5
63
330
A
100
AcDbEntity
  8
1
  6
CONTINUOUS
370
    50
100
AcDbLine
 10
87.4783681338
 20
185.866307229
 30
0.0
 11
87.4783681338
 21
140.6984493727
 31
0.0
  0
LINE
  5
64
330
A
100
AcDbEntity
  8
1
  6
CONTINUOUS
370
    50
100
AcDbLine
 10
90.3283681338
 20
140.6984493727
 30
0.0
 11
87.4783681338
 21
140.6984493727
 31
0.0
  0
LINE
  5
65
330
A
100
AcDbEntity
  8
1
  6
CONTINUOUS
370
    50
100
AcDbLine
 10
87.4783681338
 20
185.866307229
 30
0.0
 11
90.3283681338
 21
185.866307229
 31
0.0
  0
LINE
  5
66
330
A
100
AcDbEntity
  8
1
  6
CONTINUOUS
370
    50
100
AcDbLine
 10
10.3358894923
 20
179.9022999269
 30
0.0
 11
10.3358894923
 21
155.1303145311
 31
0.0
  0
LINE
  5
67
330
A
100
AcDbEntity
  8
1
  6
CONTINUOUS
370
    50
100
AcDbLine
 10
77.8033681338
 20
145.291307229
 30
0.0
 11
77.8033681338
 21
189.741307229
 31
0.0
  0
LINE
  5
68
330
A
100
AcDbEntity
  8
1
  6
CONTINUOUS
370
    50
100
AcDbLine
 10
102.5587049328
 20
154.016307229
 30
0.0
 11
102.5587049328
 21
181.016307229
 31
0.0
  0
LINE
  5
69
330
A
100
AcDbEntity
  8
1
  6
CONTINUOUS
370
    50
100
AcDbLine
 10
79.3033681338
 20
193.4265368691
 30
0.0
 11
78.8033681338
 21
192.811366035
 31
0.0
  0
LINE
  5
6A
330
A
100
AcDbEntity
  8
1
  6
CONTINUOUS
370
    50
100
AcDbLine
 10
79.3033681338
 20
193.4265368691
 30
0.0
 11
85.3815314917
 21
193.4265368691
 31
0.0
  0
LINE
  5
6B
330
A
100
AcDbEntity
  8
1
  6
CONTINUOUS
370
    50
100
AcDbLine
 10
85.3815314917
 20
193.4265368691
 30
0.0
 11
86.9783681338
 21
189.9520203305
 31
0.0
  0
LINE
  5
6C
330
A
100
AcDbEntity
  8
1
  6
CONTINUOUS
370
    50
100
AcDbLine
 10
86.9783681338
 20
189.3229002687
 30
0.0
 11
86.9783681338
 21
189.9520203305
 31
0.0
  0
ARC
  5
6D
330
A
100
AcDbEntity
  8
1
  6
CONTINUOUS
370
    50
100
AcDbCircle
 10
87.5520884446
 20
189.2401882323
 30
0.0
 40
0.5796518576
100
AcDbArc
 50
171.7963139138
 51
262.6933157892
  0
LINE
  5
6E
330
A
100
AcDbEntity
  8
1
  6
CONTINUOUS
370
    50
100
AcDbLine
 10
90.3283681338
 20
188.6652433725
 30
0.0
 11
87.4783681338
 21
188.6652433725
 31
0.0
  0
LWPOLYLINE
  5
6F
330
A
100
AcDbEntity
  8
1
  6
CONTINUOUS
370
    50
100
AcDbPolyline
 90
        7
 70
   128
 43
0.0
 10
90.8283681338
 20
189.3229002687
 10
90.7838596055
 20
189.0526804775
 10
90.67897485
 20
188.8548980813
 10
90.5570672309
 20
188.7384944378
 10
90.4860637177
 20
188.6990176776
 10
90.3595854588
 20
188.6665348267
 10
90.3283681338
 20
188.6652433725
  0
LINE
  5
78
330
A
100
AcDbEntity
  8
1
  6
CONTINUOUS
370
    50
100
AcDbLine
 10
90.8283681338
 20
189.9520203305
 30
0.0
 11
90.8283681338
 21
189.3229002687
 31
0.0
  0
LINE
  5
79
330
A
100
AcDbEntity
  8
1
  6
CONTINUOUS
370
    50
100
AcDbLine
 10
90.8283681338
 20
189.9520203305
 30
0.0
 11
92.4252047758
 21
193.4265368691
 31
0.0
  0
LINE
  5
7A
330
A
100
AcDbEntity
  8
1
  6
CONTINUOUS
370
    50
100
AcDbLine
 10
92.4252047758
 20
193.4265368691
 30
0.0
 11
96.3533681338
 21
193.4265368691
 31
0.0
  0
LINE
  5
7B
330
A
100
AcDbEntity
  8
1
  6
CONTINUOUS
370
    50
100
AcDbLine
 10
96.8533681338
 20
192.811366035
 30
0.0
 11
96.3533681338
 21
193.4265368691
 31
0.0
  0
LINE
  5
7C
330
A
100
AcDbEntity
  8
1
  6
CONTINUOUS
370
    50
100
AcDbLine
 10
78.8033681338
 20
192.811366035
 30
0.0
 11
78.8033681338
 21
185.866307229
 31
0.0
  0
LINE
  5
7D
330
A
100
AcDbEntity
  8
1
  6
CONTINUOUS
370
    50
100
AcDbLine
 10
96.8533681338
 20
192.811366035
 30
0.0
 11
96.8533681338
 21
185.866307229
 31
0.0
  0
LINE
  5
7E
330
A
100
AcDbEntity
  8
1
  6
CONTINUOUS
370
    50
100
AcDbLine
 10
87.4783681338
 20
194.3341650853
 30
0.0
 11
87.4783681338
 21
188.6652433725
 31
0.0
  0
ARC
  5
7F
330
A
100
AcDbEntity
  8
1
  6
CONTINUOUS
370
    50
100
AcDbCircle
 10
87.4906617875
 20
194.8463973931
 30
0.0
 40
0.5123798114
100
AcDbArc
 50
178.9492610515
 51
268.6251564689
  0
LINE
  5
80
330
A
100
AcDbEntity
  8
1
  6
CONTINUOUS
370
    50
100
AcDbLine
 10
90.3283681338
 20
194.3341650853
 30
0.0
 11
90.3283681338
 21
188.6652433725
 31
0.0
  0
LINE
  5
81
330
A
100
AcDbEntity
  8
1
  6
CONTINUOUS
370
    50
100
AcDbLine
 10
90.3283681338
 20
194.3341650853
 30
0.0
 11
87.4783681338
 21
194.3341650853
 31
0.0
  0
ARC
  5
82
330
A
100
AcDbEntity
  8
1
  6
CONTINUOUS
370
    50
100
AcDbCircle
 10
90.3177347255
 20
194.8448059864
 30
0.0
 40
0.5107516023
100
AcDbArc
 50
271.1929349489
 51
1.2326475307
  0
LINE
  5
83
330
A
100
AcDbEntity
  8
1
  6
CONTINUOUS
370
    50
100
AcDbLine
 10
85.3815314917
 20
197.9933887815
 30
0.0
 11
85.987030317
 21
197.143388779
 31
0.0
  0
LINE
  5
84
330
A
100
AcDbEntity
  8
1
  6
CONTINUOUS
370
    50
100
AcDbLine
 10
85.987030317
 20
197.143388779
 30
0.0
 11
86.9783681338
 21
195.360179488
 31
0.0
  0
LINE
  5
85
330
A
100
AcDbEntity
  8
1
  6
CONTINUOUS
370
    50
100
AcDbLine
 10
85.3815314917
 20
193.4265368691
 30
0.0
 11
85.3815314917
 21
197.9933887815
 31
0.0
  0
LINE
  5
86
330
A
100
AcDbEntity
  8
1
  6
CONTINUOUS
370
    50
100
AcDbLine
 10
86.9783681338
 20
189.9520203305
 30
0.0
 11
86.9783681338
 21
195.360179488
 31
0.0
  0
LINE
  5
87
330
A
100
AcDbEntity
  8
1
  6
CONTINUOUS
370
    50
100
AcDbLine
 10
91.8197059506
 20
197.143388779
 30
0.0
 11
92.4252047758
 21
197.9933887815
 31
0.0
  0
LINE
  5
88
330
A
100
AcDbEntity
  8
1
  6
CONTINUOUS
370
    50
100
AcDbLine
 10
92.4252047758
 20
193.4265368691
 30
0.0
 11
92.4252047758
 21
197.9933887815
 31
0.0
  0
LINE
  5
89
330
A
100
AcDbEntity
  8
1
  6
CONTINUOUS
370
    50
100
AcDbLine
 10
90.8283681338
 20
195.360179488
 30
0.0
 11
91.8197059506
 21
197.143388779
 31
0.0
  0
LINE
  5
8A
330
A
100
AcDbEntity
  8
1
  6
CONTINUOUS
370
    50
100
AcDbLine
 10
90.8283681338
 20
195.360179488
 30
0.0
 11
90.8283681338
 21
189.9520203305
 31
0.0
  0
LINE
  5
8B
330
A
100
AcDbEntity
  8
1
  6
CONTINUOUS
370
    50
100
AcDbLine
 10
79.3033681338
 20
197.5662656316
 30
0.0
 11
79.3033681338
 21
193.4265368691
 31
0.0
  0
LINE
  5
8C
330
A
100
AcDbEntity
  8
1
  6
CONTINUOUS
370
    50
100
AcDbLine
 10
78.8033681338
 20
196.8591087313
 30
0.0
 11
79.3033681338
 21
197.5662656316
 31
0.0
  0
LINE
  5
8D
330
A
100
AcDbEntity
  8
1
  6
CONTINUOUS
370
    50
100
AcDbLine
 10
78.8033681338
 20
192.811366035
 30
0.0
 11
78.8033681338
 21
196.8591087313
 31
0.0
  0
LINE
  5
8E
330
A
100
AcDbEntity
  8
1
  6
CONTINUOUS
370
    50
100
AcDbLine
 10
96.3533681338
 20
193.4265368691
 30
0.0
 11
96.3533681338
 21
197.9933887815
 31
0.0
  0
LINE
  5
8F
330
A
100
AcDbEntity
  8
1
  6
CONTINUOUS
370
    50
100
AcDbLine
 10
96.3533681338
 20
197.9933887815
 30
0.0
 11
96.8533681338
 21
197.5892623831
 31
0.0
  0
LINE
  5
90
330
A
100
AcDbEntity
  8
1
  6
CONTINUOUS
370
    50
100
AcDbLine
 10
96.8533681338
 20
197.5892623831
 30
0.0
 11
96.8533681338
 21
192.811366035
 31
0.0
  0
LINE
  5
91
330
A
100
AcDbEntity
  8
1
  6
CONTINUOUS
370
    50
100
AcDbLine
 10
92.4252047758
 20
197.9933887815
 30
0.0
 11
96.3533681338
 21
197.9933887815
 31
0.0
  0
LINE
  5
92
330
A
100
AcDbEntity
  8
1
  6
CONTINUOUS
370
    50
100
AcDbLine
 10
80.6533681313
 20
197.9933887815
 30
0.0
 11
85.3815314917
 21
197.9933887815
 31
0.0
  0
LWPOLYLINE
  5
93
330
A
100
AcDbEntity
  8
1
  6
CONTINUOUS
370
    50
100
AcDbPolyline
 90
        3
 70
   128
 43
0.0
 10
79.3033681338
 20
197.5662656316
 10
79.9759867814
 20
197.7873538979
 10
80.6533681313
 20
197.9933887815
  0
LINE
  5
98
330
A
100
AcDbEntity
  8
1
  6
CONTINUOUS
370
    50
100
AcDbLine
 10
196.7702400298
 20
178.0976161742
 30
0.0
 11
196.7702400298
 21
156.9349982839
 31
0.0
  0
LINE
  5
99
330
A
100
AcDbEntity
  8
1
  6
CONTINUOUS
370
    50
100
AcDbLine
 10
159.6847539253
 20
154.016307229
 30
0.0
 11
159.6847539253
 21
181.016307229
 31
0.0
  0
LINE
  5
9A
330
A
100
AcDbEntity
  8
1
  6
CONTINUOUS
370
    50
100
AcDbLine
 10
9.5533681338
 20
156.0659394393
 30
0.0
 11
9.5533681338
 21
178.966675046
 31
0.0
  0
LINE
  5
9B
330
A
100
AcDbEntity
  8
1
  6
CONTINUOUS
370
    50
100
AcDbLine
 10
197.8033681338
 20
158.685757782
 30
0.0
 11
197.8033681338
 21
176.3468566999
 31
0.0
  0
LINE
  5
9C
330
A
100
AcDbEntity
  8
1
  6
CONTINUOUS
370
    50
100
AcDbLine
 10
78.6033681338
 20
145.591307229
 30
0.0
 11
78.6033681338
 21
189.441307229
 31
0.0
  0
LINE
  5
9D
330
A
100
AcDbEntity
  8
1
  6
CONTINUOUS
370
    50
100
AcDbLine
 10
78.3462584104
 20
145.5444611225
 30
0.0
 11
78.3462584104
 21
189.4881533355
 31
0.0
  0
LINE
  5
9E
330
A
100
AcDbEntity
  8
1
  6
CONTINUOUS
370
    50
100
AcDbLine
 10
78.5575675413
 20
145.591307229
 30
0.0
 11
78.5575675413
 21
189.441307229
 31
0.0
  0
LINE
  5
9F
330
A
100
AcDbEntity
  8
1
  6
CONTINUOUS
370
    50
100
AcDbLine
 10
10.3058520275
 20
155.1366991913
 30
0.0
 11
10.3058520275
 21
179.8959152667
 31
0.0
  0
LWPOLYLINE
  5
A0
330
A
100
AcDbEntity
  8
1
  6
CONTINUOUS
370
    50
100
AcDbPolyline
 90
       25
 70
   128
 43
0.0
 10
93.4541470675
 20
158.8841422497
 10
93.4046213962
 20
158.3539197325
 10
93.4470813396
 20
157.8598310036
 10
93.5786333226
 20
157.4355473934
 10
93.790312295
 20
157.1099831288
 10
94.0676926847
 20
156.9053248763
 10
94.3918714765
 20
156.8355197576
 10
94.7407564214
 20
156.9053248763
 10
95.0905715871
 20
157.1099831288
 10
95.4174776481
 20
157.4355473934
 10
95.6991964965
 20
157.8598310036
 10
95.9165294585
 20
158.3539197325
 10
96.0546656518
 20
158.8841422497
 10
96.104191323
 20
159.4143647669
 10
96.0617313797
 20
159.9084534957
 10
95.9301793967
 20
160.332737106
 10
95.7185004243
 20
160.6583013706
 10
95.4411200346
 20
160.8629596231
 10
95.1169412428
 20
160.9327647418
 10
94.7680562979
 20
160.8629596231
 10
94.4182411322
 20
160.6583013706
 10
94.0913350712
 20
160.332737106
 10
93.8096162228
 20
159.9084534957
 10
93.5922832608
 20
159.4143647669
 10
93.4541470675
 20
158.8841422497
  0
LWPOLYLINE
  5
BB
330
A
100
AcDbEntity
  8
1
  6
CONTINUOUS
370
    50
100
AcDbPolyline
 90
       18
 70
   128
 43
0.0
 10
88.6426962705
 20
159.0876428462
 10
88.6260267518
 20
158.9834614389
 10
88.6099248936
 20
158.935627978
 10
88.5949390254
 20
158.9457713746
 10
88.5815794728
 20
159.0135462075
 10
88.5703011795
 20
159.1366444861
 10
88.5614882142
 20
159.3108742462
 10
88.5554406919
 20
159.5303023022
 10
88.5523645536
 20
159.7874562948
 10
88.5523645536
 20
160.0735791534
 10
88.5554406919
 20
160.3789273069
 10
88.5614882142
 20
160.6931024905
 10
88.5703011795
 20
161.0054058449
 10
88.5815794728
 20
161.305202254
 10
88.5949390254
 20
161.5822825107
 10
88.6099248936
 20
161.8272109791
 10
88.6260267518
 20
162.031646914
 10
88.6426962705
 20
162.1886284948
  0
LWPOLYLINE
  5
CF
330
A
100
AcDbEntity
  8
1
  6
CONTINUOUS
370
    50
100
AcDbPolyline
 90
       18
 70
   128
 43
0.0
 10
88.6426962705
 20
162.1886284948
 10
88.145131669
 20
162.1696585014
 10
87.6645110332
 20
162.0985343349
 10
87.2172013225
 20
161.9776780434
 10
86.8184351325
 20
161.811205243
 10
86.4817919677
 20
161.6047849652
 10
86.2187358071
 20
161.3654466051
 10
86.038224713
 20
161.1013405434
 10
85.9464057739
 20
160.8214605953
 10
85.9464057739
 20
160.5353377368
 10
86.038224713
 20
160.2527155386
 10
86.2187358071
 20
159.9832183608
 10
86.4817919677
 20
159.7360236064
 10
86.8184351325
 20
159.5195491965
 10
87.2172013225
 20
159.3411669073
 10
87.6645110332
 20
159.2069513338
 10
88.145131669
 20
159.1214730264
 10
88.6426962705
 20
159.0876428462
  0
LWPOLYLINE
  5
E3
330
A
100
AcDbEntity
  8
1
  6
CONTINUOUS
370
    50
100
AcDbPolyline
 90
       25
 70
   128
 43
0.0
 10
93.4555725217
 20
158.885165062
 10
93.5931786543
 20
159.4133529922
 10
93.8096776592
 20
159.9055457879
 10
94.090315487
 20
160.3282013234
 10
94.4159671335
 20
160.6525163224
 10
94.7644399772
 20
160.8563892536
 10
95.1119861696
 20
160.9259265139
 10
95.4349210121
 20
160.8563892536
 10
95.7112370288
 20
160.6525163224
 10
95.9221037398
 20
160.3282013234
 10
96.0531509273
 20
159.9055457879
 10
96.095447942
 20
159.4133529922
 10
96.0461123122
 20
158.885165062
 10
95.9085061796
 20
158.3569771317
 10
95.6920071747
 20
157.864784336
 10
95.4113693469
 20
157.4421288005
 10
95.0857177003
 20
157.1178138016
 10
94.7372448567
 20
156.9139408703
 10
94.3896986643
 20
156.8444036101
 10
94.0667638218
 20
156.9139408703
 10
93.7904478051
 20
157.1178138016
 10
93.579581094
 20
157.4421288005
 10
93.4485339065
 20
157.864784336
 10
93.4062368919
 20
158.3569771317
 10
93.4555725217
 20
158.885165062
  0
LWPOLYLINE
  5
FE
330
A
100
AcDbEntity
  8
1
  6
CONTINUOUS
370
    50
100
AcDbPolyline
 90
       22
 70
   128
 43
0.0
 10
95.4883999967
 20
158.9666913753
 10
95.3590510715
 20
158.4922440268
 10
95.1504188526
 20
158.0599534073
 10
94.8810412283
 20
157.7082304353
 10
94.5748535826
 20
157.4683272406
 10
94.2590620315
 20
157.3615602747
 10
93.9617260402
 20
157.3974162511
 10
93.7092652164
 20
157.5727092089
 10
93.524111812
 20
157.8718635996
 10
93.4227175198
 20
158.2682982428
 10
93.4140916673
 20
158.7267881806
 10
93.4990006997
 20
159.2065945701
 10
93.6699000765
 20
159.6650845079
 10
93.9116046384
 20
160.0615191511
 10
94.2026378742
 20
160.3606735418
 10
94.5171402037
 20
160.5359664996
 10
94.8271667149
 20
160.571822476
 10
95.1051701916
 20
160.4650555101
 10
95.326448805
 20
160.2251523154
 10
95.4713409792
 20
159.8734293434
 10
95.5269724086
 20
159.4411387239
 10
95.4883999967
 20
158.9666913753
  0
ARC
  5
116
330
A
100
AcDbEntity
  8
1
  6
CONTINUOUS
370
    50
100
AcDbCircle
 10
90.2147150256
 20
161.9936079401
 30
0.0
 40
1.5840694376
100
AcDbArc
 50
169.5837820598
 51
172.9281661011
  0
ARC
  5
117
330
A
100
AcDbEntity
  8
1
  6
CONTINUOUS
370
    50
100
AcDbCircle
 10
84.4166789147
 20
152.2335905621
 30
0.0
 40
10.9045232025
100
AcDbArc
 50
65.78271100279999
 51
67.1179062879
  0
ARC
  5
118
330
A
100
AcDbEntity
  8
1
  6
CONTINUOUS
370
    50
100
AcDbCircle
 10
88.5723068622
 20
157.4663331793
 30
0.0
 40
4.7228198903
100
AcDbArc
 50
86.14663913299998
 51
89.14602601050001
  0
ARC
  5
119
330
A
100
AcDbEntity
  8
1
  6
CONTINUOUS
370
    50
100
AcDbCircle
 10
88.7132238276
 20
163.8032921332
 30
0.0
 40
4.7161766648
100
AcDbArc
 50
269.1431444836
 51
272.144412243
  0
ARC
  5
11A
330
A
100
AcDbEntity
  8
1
  6
CONTINUOUS
370
    50
100
AcDbCircle
 10
94.6630914186
 20
170.0390971131
 30
0.0
 40
12.3776278977
100
AcDbArc
 50
240.9706336713
 51
242.1966722694
  0
ARC
  5
11B
330
A
100
AcDbEntity
  8
1
  6
CONTINUOUS
370
    50
100
AcDbCircle
 10
84.3874009945
 20
159.6170904246
 30
0.0
 40
4.2881059483
100
AcDbArc
 50
352.9076566898
 51
354.6390928980001
  0
LWPOLYLINE
  5
11C
330
A
100
AcDbEntity
  8
1
  6
CONTINUOUS
370
    50
100
AcDbPolyline
 90
       22
 70
   128
 43
0.0
 10
85.3062851844
 20
161.302451664
 10
85.2677127725
 20
160.8280043155
 10
85.3233442019
 20
160.3957136959
 10
85.4682363761
 20
160.043990724
 10
85.6895149895
 20
159.8040875293
 10
85.9675184662
 20
159.6973205634
 10
86.2775449774
 20
159.7331765397
 10
86.5920473069
 20
159.9084694976
 10
86.8830805427
 20
160.2076238883
 10
87.1247851045
 20
160.6040585314
 10
87.2956844814
 20
161.0625484693
 10
87.3805935137
 20
161.5423548588
 10
87.3719676613
 20
162.0008447966
 10
87.270573369
 20
162.3972794398
 10
87.0854199647
 20
162.6964338305
 10
86.8329591408
 20
162.8717267883
 10
86.5356231495
 20
162.9075827647
 10
86.2198315985
 20
162.8008157988
 10
85.9136439528
 20
162.560912604
 10
85.6442663285
 20
162.2091896321
 10
85.4356341096
 20
161.7768990126
 10
85.3062851844
 20
161.302451664
  0
LINE
  5
134
330
A
100
AcDbEntity
  8
1
  6
CONTINUOUS
370
    50
100
AcDbLine
 10
79.0565220273
 20
144.916307229
 30
0.0
 11
79.0565220273
 21
190.4911037977
 31
0.0
  0
LINE
  5
135
330
A
100
AcDbEntity
  8
1
  6
CONTINUOUS
370
    50
100
AcDbLine
 10
79.1033681338
 20
144.916307229
 30
0.0
 11
79.1033681338
 21
190.2976571295
 31
0.0
  0
LWPOLYLINE
  5
136
330
A
100
AcDbEntity
  8
1
  6
CONTINUOUS
370
    50
100
AcDbPolyline
 90
        9
 70
   128
 43
0.0
 10
88.8896952206
 20
162.1784762529
 10
88.8605732707
 20
162.1963298292
 10
88.8313968416
 20
162.2127361079
 10
88.8021937195
 20
162.2276794645
 10
88.7729917158
 20
162.2411456676
 10
88.743818641
 20
162.2531218928
 10
88.714702278
 20
162.2635967346
 10
88.6856703558
 20
162.2725602172
 10
88.6567505227
 20
162.2800038043
  0
LWPOLYLINE
  5
141
330
A
100
AcDbEntity
  8
1
  6
CONTINUOUS
370
    50
100
AcDbPolyline
 90
       24
 70
   128
 43
0.0
 10
85.0819148579
 20
161.3046501271
 10
85.0346828587
 20
160.7782579998
 10
85.0827960154
 20
160.2909059685
 10
85.2226859954
 20
159.8787387038
 10
85.4439777988
 20
159.5723247663
 10
85.7302592248
 20
159.394389476
 10
86.0602980898
 20
159.3581294793
 10
86.409616921
 20
159.4662340143
 10
86.7523083387
 20
159.7106854622
 10
87.0629564881
 20
160.0733539774
 10
87.3185220171
 20
160.5273420952
 10
87.5000507996
 20
161.0389795938
 10
87.5940796763
 20
161.5703206605
 10
87.5936349554
 20
162.0819581591
 10
87.4987496199
 20
162.5359462769
 10
87.316460881
 20
162.8986147921
 10
87.0602882607
 20
163.14306624
 10
86.7492309102
 20
163.251170775
 10
86.4063585303
 20
163.2149107783
 10
86.0571003968
 20
163.0369754879
 10
85.7273593877
 20
162.7305615504
 10
85.4415908852
 20
162.3183942858
 10
85.2209890319
 20
161.8310422544
 10
85.0819148579
 20
161.3046501271
  0
LWPOLYLINE
  5
15B
330
A
100
AcDbEntity
  8
1
  6
CONTINUOUS
370
    50
100
AcDbPolyline
 90
       24
 70
   128
 43
0.0
 10
85.0895753024
 20
161.302451664
 10
85.0423433031
 20
160.7760595367
 10
85.0904564599
 20
160.2887075054
 10
85.2303464398
 20
159.8765402407
 10
85.4516382432
 20
159.5701263032
 10
85.7379196693
 20
159.3921910129
 10
86.0679585343
 20
159.3559310162
 10
86.4172773655
 20
159.4640355512
 10
86.7599687831
 20
159.7084869991
 10
87.0706169325
 20
160.0711555143
 10
87.3261824616
 20
160.5251436321
 10
87.5077112441
 20
161.0367811307
 10
87.6017401207
 20
161.5681221974
 10
87.6012953998
 20
162.079759696
 10
87.5064100643
 20
162.5337478138
 10
87.3241213255
 20
162.896416329
 10
87.0679487051
 20
163.1408677769
 10
86.7568913547
 20
163.2489723119
 10
86.4140189747
 20
163.2127123151
 10
86.0647608412
 20
163.0347770248
 10
85.7350198321
 20
162.7283630873
 10
85.4492513296
 20
162.3161958227
 10
85.2286494763
 20
161.8288437913
 10
85.0895753024
 20
161.302451664
  0
LWPOLYLINE
  5
175
330
A
100
AcDbEntity
  8
1
  6
CONTINUOUS
370
    50
100
AcDbPolyline
 90
       22
 70
   128
 43
0.0
 10
85.29862474
 20
161.3046501271
 10
85.260052328
 20
160.8302027786
 10
85.3156837575
 20
160.397912159
 10
85.4605759317
 20
160.0461891871
 10
85.681854545
 20
159.8062859924
 10
85.9598580218
 20
159.6995190265
 10
86.2698845329
 20
159.7353750029
 10
86.5843868625
 20
159.9106679607
 10
86.8754200983
 20
160.2098223514
 10
87.1171246601
 20
160.6062569945
 10
87.288024037
 20
161.0647469324
 10
87.3729330693
 20
161.5445533219
 10
87.3643072169
 20
162.0030432597
 10
87.2629129246
 20
162.3994779029
 10
87.0777595203
 20
162.6986322936
 10
86.8252986964
 20
162.8739252514
 10
86.5279627051
 20
162.9097812278
 10
86.2121711541
 20
162.8030142619
 10
85.9059835084
 20
162.5631110671
 10
85.6366058841
 20
162.2113880952
 10
85.4279736652
 20
161.7790974757
 10
85.29862474
 20
161.3046501271
  0
LWPOLYLINE
  5
18D
330
A
100
AcDbEntity
  8
1
  6
CONTINUOUS
370
    50
100
AcDbPolyline
 90
       21
 70
   128
 43
0.0
 10
70.5587834613
 20
165.5348220839
 10
70.4812396053
 20
165.1282582347
 10
70.5487195966
 20
164.7287319174
 10
70.7467858863
 20
164.379725068
 10
71.0766294579
 20
164.0774681023
 10
71.7128142214
 20
163.7805746563
 10
72.7278873094
 20
163.6311358641
 10
74.0881376294
 20
163.8015078646
 10
74.9208189895
 20
164.145892555
 10
75.3284364087
 20
164.4651480473
 10
75.5401316126
 20
164.7738720443
 10
75.613218391
 20
165.0600096905
 10
75.5777355538
 20
165.35792771
 10
75.4512356129
 20
165.6245706268
 10
75.1100093613
 20
165.9962523883
 10
74.3660029566
 20
166.4277780544
 10
73.0536068183
 20
166.7240771456
 10
71.9313665792
 20
166.621453822
 10
71.2422404375
 20
166.328658485
 10
70.803561361
 20
165.9508992224
 10
70.5587834613
 20
165.5348220839
  0
LWPOLYLINE
  5
1A4
330
A
100
AcDbEntity
  8
1
  6
CONTINUOUS
370
    50
100
AcDbPolyline
 90
        9
 70
   128
 43
0.0
 10
88.6567505227
 20
159.2164568892
 10
88.6856703558
 20
159.1956483799
 10
88.714702278
 20
159.176250265
 10
88.743818641
 20
159.1582810181
 10
88.7729917158
 20
159.1417577523
 10
88.8021937195
 20
159.1266962035
 10
88.8313968416
 20
159.1131107154
 10
88.8605732707
 20
159.1010142263
 10
88.8896952206
 20
159.0904182561
  0
LINE
  5
1AF
330
A
100
AcDbEntity
  8
1
  6
CONTINUOUS
370
    50
100
AcDbLine
 10
78.8033681338
 20
144.166307229
 30
0.0
 11
81.5033681338
 21
144.166307229
 31
0.0
  0
LINE
  5
1B0
330
A
100
AcDbEntity
  8
1
  6
CONTINUOUS
370
    50
100
AcDbLine
 10
81.5033681338
 20
193.066307229
 30
0.0
 11
78.8033681338
 21
193.066307229
 31
0.0
  0
LINE
  5
1B1
330
A
100
AcDbEntity
  8
1
  6
CONTINUOUS
370
    50
100
AcDbLine
 10
81.192707962
 20
144.916307229
 30
0.0
 11
78.8033681338
 21
144.916307229
 31
0.0
  0
LINE
  5
1B2
330
A
100
AcDbEntity
  8
1
  6
CONTINUOUS
370
    50
100
AcDbLine
 10
78.8033681338
 20
192.316307229
 30
0.0
 11
81.192707962
 21
192.316307229
 31
0.0
  0
LINE
  5
1B3
330
A
100
AcDbEntity
  8
1
  6
CONTINUOUS
370
    50
100
AcDbLine
 10
9.8246545799
 20
158.7011258593
 30
0.0
 11
9.8246545799
 21
176.3314885987
 31
0.0
  0
LINE
  5
1B4
330
A
100
AcDbEntity
  8
1
  6
CONTINUOUS
370
    50
100
AcDbLine
 10
80.6533681313
 20
137.0392256765
 30
0.0
 11
81.5033681338
 21
137.889225679
 31
0.0
  0
LINE
  5
1B5
330
A
100
AcDbEntity
  8
1
  6
CONTINUOUS
370
    50
100
AcDbLine
 10
80.6533681313
 20
197.9933887815
 30
0.0
 11
81.5033681338
 21
197.143388779
 31
0.0
  0
LINE
  5
1B6
330
A
100
AcDbEntity
  8
1
  6
CONTINUOUS
370
    50
100
AcDbLine
 10
10.3246545799
 20
158.9898009939
 30
0.0
 11
10.3246545799
 21
176.0428134641
 31
0.0
  0
LINE
  5
1B7
330
A
100
AcDbEntity
  8
1
  6
CONTINUOUS
370
    50
100
AcDbLine
 10
15.4832719444
 20
176.016307229
 30
0.0
 11
15.4832719444
 21
159.016307229
 31
0.0
  0
LINE
  5
1B8
330
A
100
AcDbEntity
  8
1
  6
CONTINUOUS
370
    50
100
AcDbLine
 10
15.7430795655
 20
176.166307229
 30
0.0
 11
15.7430795655
 21
158.866307229
 31
0.0
  0
LINE
  5
1B9
330
A
100
AcDbEntity
  8
1
  6
CONTINUOUS
370
    50
100
AcDbLine
 10
18.9626948078
 20
174.591307229
 30
0.0
 11
18.9626948078
 21
160.441307229
 31
0.0
  0
LINE
  5
1BA
330
A
100
AcDbEntity
  8
1
  6
CONTINUOUS
370
    50
100
AcDbLine
 10
18.0533681338
 20
176.166307229
 30
0.0
 11
18.0533681338
 21
158.866307229
 31
0.0
  0
LINE
  5
1BB
330
A
100
AcDbEntity
  8
1
  6
CONTINUOUS
370
    50
100
AcDbLine
 10
10.5533681338
 20
176.016307229
 30
0.0
 11
10.5533681338
 21
159.016307229
 31
0.0
  0
LINE
  5
1BC
330
A
100
AcDbEntity
  8
1
  6
CONTINUOUS
370
    50
100
AcDbLine
 10
91.8197059506
 20
137.889225679
 30
0.0
 11
96.8533681338
 21
137.889225679
 31
0.0
  0
LINE
  5
1BD
330
A
100
AcDbEntity
  8
1
  6
CONTINUOUS
370
    50
100
AcDbLine
 10
81.5033681338
 20
137.889225679
 30
0.0
 11
85.987030317
 21
137.889225679
 31
0.0
  0
LINE
  5
1BE
330
A
100
AcDbEntity
  8
1
  6
CONTINUOUS
370
    50
100
AcDbLine
 10
81.5033681338
 20
137.889225679
 30
0.0
 11
81.5033681338
 21
144.166307229
 31
0.0
  0
LINE
  5
1BF
330
A
100
AcDbEntity
  8
1
  6
CONTINUOUS
370
    50
100
AcDbLine
 10
81.5033681338
 20
144.166307229
 30
0.0
 11
96.8533681338
 21
144.166307229
 31
0.0
  0
LINE
  5
1C0
330
A
100
AcDbEntity
  8
1
  6
CONTINUOUS
370
    50
100
AcDbLine
 10
96.8533681338
 20
144.916307229
 30
0.0
 11
81.192707962
 21
144.916307229
 31
0.0
  0
LINE
  5
1C1
330
A
100
AcDbEntity
  8
1
  6
CONTINUOUS
370
    50
100
AcDbLine
 10
81.5033681338
 20
144.166307229
 30
0.0
 11
81.192707962
 21
144.916307229
 31
0.0
  0
LINE
  5
1C2
330
A
100
AcDbEntity
  8
1
  6
CONTINUOUS
370
    50
100
AcDbLine
 10
81.192707962
 20
192.316307229
 30
0.0
 11
96.8533681338
 21
192.316307229
 31
0.0
  0
LINE
  5
1C3
330
A
100
AcDbEntity
  8
1
  6
CONTINUOUS
370
    50
100
AcDbLine
 10
81.5033681338
 20
193.066307229
 30
0.0
 11
81.192707962
 21
192.316307229
 31
0.0
  0
LINE
  5
1C4
330
A
100
AcDbEntity
  8
1
  6
CONTINUOUS
370
    50
100
AcDbLine
 10
96.8533681338
 20
193.066307229
 30
0.0
 11
81.5033681338
 21
193.066307229
 31
0.0
  0
LINE
  5
1C5
330
A
100
AcDbEntity
  8
1
  6
CONTINUOUS
370
    50
100
AcDbLine
 10
91.8197059506
 20
197.143388779
 30
0.0
 11
96.8533681338
 21
197.143388779
 31
0.0
  0
LINE
  5
1C6
330
A
100
AcDbEntity
  8
1
  6
CONTINUOUS
370
    50
100
AcDbLine
 10
81.5033681338
 20
197.143388779
 30
0.0
 11
85.987030317
 21
197.143388779
 31
0.0
  0
LINE
  5
1C7
330
A
100
AcDbEntity
  8
1
  6
CONTINUOUS
370
    50
100
AcDbLine
 10
81.5033681338
 20
197.143388779
 30
0.0
 11
81.5033681338
 21
193.066307229
 31
0.0
  0
LINE
  5
1C8
330
A
100
AcDbEntity
  8
1
  6
CONTINUOUS
370
    50
100
AcDbLine
 10
43.5433681338
 20
175.516307229
 30
0.0
 11
43.5433681338
 21
159.516307229
 31
0.0
  0
LINE
  5
1C9
330
A
100
AcDbEntity
  8
1
  6
CONTINUOUS
370
    50
100
AcDbLine
 10
43.5533681338
 20
175.516307229
 30
0.0
 11
43.5533681338
 21
159.516307229
 31
0.0
  0
LINE
  5
1CA
330
A
100
AcDbEntity
  8
1
  6
CONTINUOUS
370
    50
100
AcDbLine
 10
54.5533681338
 20
174.591307229
 30
0.0
 11
54.5533681338
 21
160.441307229
 31
0.0
  0
LINE
  5
1CB
330
A
100
AcDbEntity
  8
1
  6
CONTINUOUS
370
    50
100
AcDbLine
 10
54.5715666455
 20
174.541307229
 30
0.0
 11
54.5715666455
 21
160.491307229
 31
0.0
  0
LINE
  5
1CC
330
A
100
AcDbEntity
  8
1
  6
CONTINUOUS
370
    50
100
AcDbLine
 10
89.7225024289
 20
162.516307229
 30
0.0
 11
89.7225024289
 21
172.516307229
 31
0.0
  0
LINE
  5
1CD
330
A
100
AcDbEntity
  8
1
  6
CONTINUOUS
370
    50
100
AcDbLine
 10
88.5533681338
 20
174.541307229
 30
0.0
 11
88.5533681338
 21
160.491307229
 31
0.0
  0
LWPOLYLINE
  5
1CE
330
A
100
AcDbEntity
  8
1
  6
CONTINUOUS
370
    50
100
AcDbPolyline
 90
       21
 70
   128
 43
0.0
 10
70.5587834613
 20
169.4977923742
 10
70.4812396053
 20
169.9043562233
 10
70.5487195966
 20
170.3038825406
 10
70.7467858863
 20
170.65288939
 10
71.0766294579
 20
170.9551463557
 10
71.7128142214
 20
171.2520398017
 10
72.7278873094
 20
171.4014785939
 10
74.0881376294
 20
171.2311065935
 10
74.9208189895
 20
170.8867219031
 10
75.3284364087
 20
170.5674664107
 10
75.5401316126
 20
170.2587424137
 10
75.613218391
 20
169.9726047676
 10
75.5777355538
 20
169.674686748
 10
75.4512356129
 20
169.4080438312
 10
75.1100093613
 20
169.0363620697
 10
74.3660029566
 20
168.6048364037
 10
73.0536068183
 20
168.3085373125
 10
71.9313665792
 20
168.4111606361
 10
71.2422404375
 20
168.7039559731
 10
70.803561361
 20
169.0817152356
 10
70.5587834613
 20
169.4977923742
  0
LINE
  5
1E5
330
A
100
AcDbEntity
  8
1
  6
CONTINUOUS
370
    50
100
AcDbLine
 10
196.6680255072
 20
163.516307229
 30
0.0
 11
196.6680255072
 21
171.516307229
 31
0.0
  0
LINE
  5
1E6
330
A
100
AcDbEntity
  8
1
  6
CONTINUOUS
370
    50
100
AcDbLine
 10
83.9033681338
 20
192.116307229
 30
0.0
 11
93.9033681338
 21
192.116307229
 31
0.0
  0
LINE
  5
1E7
330
A
100
AcDbEntity
  8
1
  6
CONTINUOUS
370
    50
100
AcDbLine
 10
147.5533681338
 20
162.516307229
 30
0.0
 11
147.5533681338
 21
172.516307229
 31
0.0
  0
LINE
  5
1E8
330
A
100
AcDbEntity
  8
1
  6
CONTINUOUS
370
    50
100
AcDbLine
 10
148.9967438068
 20
165.016307229
 30
0.0
 11
148.9967438068
 21
170.016307229
 31
0.0
  0
LINE
  5
1E9
330
A
100
AcDbEntity
  8
1
  6
CONTINUOUS
370
    50
100
AcDbLine
 10
93.6033681338
 20
187.616307229
 30
0.0
 11
84.2033681338
 21
187.616307229
 31
0.0
  0
LINE
  5
1EA
330
A
100
AcDbEntity
  8
1
  6
CONTINUOUS
370
    50
100
AcDbLine
 10
93.9033681338
 20
187.916307229
 30
0.0
 11
83.9213806911
 21
187.916307229
 31
0.0
  0
LINE
  5
1EB
330
A
100
AcDbEntity
  8
1
  6
CONTINUOUS
370
    50
100
AcDbLine
 10
162.3033681338
 20
171.716307229
 30
0.0
 11
162.3033681338
 21
163.316307229
 31
0.0
  0
LINE
  5
1EC
330
A
100
AcDbEntity
  8
1
  6
CONTINUOUS
370
    50
100
AcDbLine
 10
161.8033681338
 20
163.8163072335
 30
0.0
 11
161.8033681338
 21
171.216307229
 31
0.0
  0
LINE
  5
1ED
330
A
100
AcDbEntity
  8
1
  6
CONTINUOUS
370
    50
100
AcDbLine
 10
171.8033681376
 20
171.516307229
 30
0.0
 11
171.8033681376
 21
163.516307229
 31
0.0
  0
LINE
  5
1EE
330
A
100
AcDbEntity
  8
1
  6
CONTINUOUS
370
    50
100
AcDbLine
 10
171.6878980838
 20
163.316307229
 30
0.0
 11
171.6878980838
 21
171.716307229
 31
0.0
  0
LINE
  5
1EF
330
A
100
AcDbEntity
  8
1
  6
CONTINUOUS
370
    50
100
AcDbLine
 10
87.8033681338
 20
187.216307229
 30
0.0
 11
90.0033681338
 21
187.216307229
 31
0.0
  0
LINE
  5
1F0
330
A
100
AcDbEntity
  8
1
  6
CONTINUOUS
370
    50
100
AcDbLine
 10
87.6533681338
 20
183.816307229
 30
0.0
 11
90.1533681338
 21
183.816307229
 31
0.0
  0
LINE
  5
1F1
330
A
100
AcDbEntity
  8
1
  6
CONTINUOUS
370
    50
100
AcDbLine
 10
87.6533681338
 20
183.806307229
 30
0.0
 11
90.1533681338
 21
183.806307229
 31
0.0
  0
LINE
  5
1F2
330
A
100
AcDbEntity
  8
1
  6
CONTINUOUS
370
    50
100
AcDbLine
 10
87.8033681338
 20
181.216307229
 30
0.0
 11
90.0033681338
 21
181.216307229
 31
0.0
  0
LWPOLYLINE
  5
1F3
330
A
100
AcDbEntity
  8
1
  6
CONTINUOUS
370
    50
100
AcDbPolyline
 90
       22
 70
   128
 43
0.0
 10
85.29862474
 20
173.7279643309
 10
85.260052328
 20
174.2024116794
 10
85.3156837575
 20
174.634702299
 10
85.4605759317
 20
174.9864252709
 10
85.681854545
 20
175.2263284657
 10
85.9598580218
 20
175.3330954316
 10
86.2698845329
 20
175.2972394552
 10
86.5843868625
 20
175.1219464973
 10
86.8754200983
 20
174.8227921066
 10
87.1171246601
 20
174.4263574635
 10
87.288024037
 20
173.9678675256
 10
87.3729330693
 20
173.4880611362
 10
87.3643072169
 20
173.0295711983
 10
87.2629129246
 20
172.6331365552
 10
87.0777595203
 20
172.3339821645
 10
86.8252986964
 20
172.1586892066
 10
86.5279627051
 20
172.1228332302
 10
86.2121711541
 20
172.2296001961
 10
85.9059835084
 20
172.4695033909
 10
85.6366058841
 20
172.8212263628
 10
85.4279736652
 20
173.2535169824
 10
85.29862474
 20
173.7279643309
  0
LINE
  5
20B
330
A
100
AcDbEntity
  8
1
  6
CONTINUOUS
370
    50
100
AcDbLine
 10
90.3283681338
 20
140.6984493727
 30
0.0
 11
90.3283681338
 21
194.3341650853
 31
0.0
  0
LINE
  5
20C
330
A
100
AcDbEntity
  8
1
  6
CONTINUOUS
370
    50
100
AcDbLine
 10
90.8283681338
 20
185.866307229
 30
0.0
 11
90.8283681338
 21
189.3229002687
 31
0.0
  0
LINE
  5
20D
330
A
100
AcDbEntity
  8
1
  6
CONTINUOUS
370
    50
100
AcDbLine
 10
87.4783681338
 20
140.6984493727
 30
0.0
 11
87.4783681338
 21
194.3341650853
 31
0.0
  0
LINE
  5
20E
330
A
100
AcDbEntity
  8
1
  6
CONTINUOUS
370
    50
100
AcDbLine
 10
86.9783681338
 20
185.866307229
 30
0.0
 11
86.9783681338
 21
189.3229002687
 31
0.0
  0
LINE
  5
20F
330
A
100
AcDbEntity
  8
1
  6
CONTINUOUS
370
    50
100
AcDbLine
 10
85.3815314917
 20
193.4265368691
 30
0.0
 11
85.3815314917
 21
185.866307229
 31
0.0
  0
LINE
  5
210
330
A
100
AcDbEntity
  8
1
  6
CONTINUOUS
370
    50
100
AcDbLine
 10
96.3533681338
 20
193.4265368691
 30
0.0
 11
96.3533681338
 21
185.866307229
 31
0.0
  0
LINE
  5
211
330
A
100
AcDbEntity
  8
1
  6
CONTINUOUS
370
    50
100
AcDbLine
 10
92.4252047758
 20
193.4265368691
 30
0.0
 11
92.4252047758
 21
185.866307229
 31
0.0
  0
LINE
  5
212
330
A
100
AcDbEntity
  8
1
  6
CONTINUOUS
370
    50
100
AcDbLine
 10
79.3033681338
 20
185.866307229
 30
0.0
 11
79.3033681338
 21
193.4265368691
 31
0.0
  0
LWPOLYLINE
  5
213
330
A
100
AcDbEntity
  8
1
  6
CONTINUOUS
370
    50
100
AcDbPolyline
 90
       24
 70
   128
 43
0.0
 10
85.0819148579
 20
173.7279643309
 10
85.0346828587
 20
174.2543564582
 10
85.0827960154
 20
174.7417084895
 10
85.2226859954
 20
175.1538757542
 10
85.4439777988
 20
175.4602896917
 10
85.7302592248
 20
175.638224982
 10
86.0602980898
 20
175.6744849787
 10
86.409616921
 20
175.5663804437
 10
86.7523083387
 20
175.3219289958
 10
87.0629564881
 20
174.9592604807
 10
87.3185220171
 20
174.5052723628
 10
87.5000507996
 20
173.9936348642
 10
87.5940796763
 20
173.4622937976
 10
87.5936349554
 20
172.950656299
 10
87.4987496199
 20
172.4966681811
 10
87.316460881
 20
172.133999666
 10
87.0602882607
 20
171.8895482181
 10
86.7492309102
 20
171.7814436831
 10
86.4063585303
 20
171.8177036798
 10
86.0571003968
 20
171.9956389701
 10
85.7273593877
 20
172.3020529076
 10
85.4415908852
 20
172.7142201723
 10
85.2209890319
 20
173.2015722036
 10
85.0819148579
 20
173.7279643309
  0
LWPOLYLINE
  5
22D
330
A
100
AcDbEntity
  8
1
  6
CONTINUOUS
370
    50
100
AcDbPolyline
 90
       24
 70
   128
 43
0.0
 10
85.0895753024
 20
173.730162794
 10
85.0423433031
 20
174.2565549213
 10
85.0904564599
 20
174.7439069527
 10
85.2303464398
 20
175.1560742173
 10
85.4516382432
 20
175.4624881548
 10
85.7379196693
 20
175.6404234451
 10
86.0679585343
 20
175.6766834418
 10
86.4172773655
 20
175.5685789068
 10
86.7599687831
 20
175.324127459
 10
87.0706169325
 20
174.9614589438
 10
87.3261824616
 20
174.5074708259
 10
87.5077112441
 20
173.9958333274
 10
87.6017401207
 20
173.4644922607
 10
87.6012953998
 20
172.9528547621
 10
87.5064100643
 20
172.4988666443
 10
87.3241213255
 20
172.1361981291
 10
87.0679487051
 20
171.8917466812
 10
86.7568913547
 20
171.7836421462
 10
86.4140189747
 20
171.8199021429
 10
86.0647608412
 20
171.9978374332
 10
85.7350198321
 20
172.3042513707
 10
85.4492513296
 20
172.7164186354
 10
85.2286494763
 20
173.2037706667
 10
85.0895753024
 20
173.730162794
  0
LWPOLYLINE
  5
247
330
A
100
AcDbEntity
  8
1
  6
CONTINUOUS
370
    50
100
AcDbPolyline
 90
       22
 70
   128
 43
0.0
 10
85.3062851844
 20
173.730162794
 10
85.2677127725
 20
174.2046101425
 10
85.3233442019
 20
174.6369007621
 10
85.4682363761
 20
174.988623734
 10
85.6895149895
 20
175.2285269288
 10
85.9675184662
 20
175.3352938947
 10
86.2775449774
 20
175.2994379183
 10
86.5920473069
 20
175.1241449604
 10
86.8830805427
 20
174.8249905697
 10
87.1247851045
 20
174.4285559266
 10
87.2956844814
 20
173.9700659887
 10
87.3805935137
 20
173.4902595993
 10
87.3719676613
 20
173.0317696614
 10
87.270573369
 20
172.6353350183
 10
87.0854199647
 20
172.3361806276
 10
86.8329591408
 20
172.1608876697
 10
86.5356231495
 20
172.1250316933
 10
86.2198315985
 20
172.2317986593
 10
85.9136439528
 20
172.471701854
 10
85.6442663285
 20
172.8234248259
 10
85.4356341096
 20
173.2557154455
 10
85.3062851844
 20
173.730162794
  0
LWPOLYLINE
  5
25F
330
A
100
AcDbEntity
  8
1
  6
CONTINUOUS
370
    50
100
AcDbPolyline
 90
       22
 70
   128
 43
0.0
 10
95.4883999967
 20
176.0659230827
 10
95.3590510715
 20
176.5403704312
 10
95.1504188526
 20
176.9726610508
 10
94.8810412283
 20
177.3243840227
 10
94.5748535826
 20
177.5642872174
 10
94.2590620315
 20
177.6710541833
 10
93.9617260402
 20
177.635198207
 10
93.7092652164
 20
177.4599052491
 10
93.524111812
 20
177.1607508584
 10
93.4227175198
 20
176.7643162153
 10
93.4140916673
 20
176.3058262774
 10
93.4990006997
 20
175.8260198879
 10
93.6699000765
 20
175.3675299501
 10
93.9116046384
 20
174.971095307
 10
94.2026378742
 20
174.6719409162
 10
94.5171402037
 20
174.4966479584
 10
94.8271667149
 20
174.460791982
 10
95.1051701916
 20
174.5675589479
 10
95.326448805
 20
174.8074621427
 10
95.4713409792
 20
175.1591851146
 10
95.5269724086
 20
175.5914757341
 10
95.4883999967
 20
176.0659230827
  0
ARC
  5
277
330
A
100
AcDbEntity
  8
1
  6
CONTINUOUS
370
    50
100
AcDbCircle
 10
90.2147150265
 20
173.0390065181
 30
0.0
 40
1.5840694386
100
AcDbArc
 50
187.0718338999
 51
190.4162179391
  0
ARC
  5
278
330
A
100
AcDbEntity
  8
1
  6
CONTINUOUS
370
    50
100
AcDbCircle
 10
84.4166789143
 20
182.7990238967
 30
0.0
 40
10.9045232035
100
AcDbArc
 50
292.8820937122
 51
294.2172889971
  0
ARC
  5
279
330
A
100
AcDbEntity
  8
1
  6
CONTINUOUS
370
    50
100
AcDbCircle
 10
88.5723068621
 20
177.5662812797
 30
0.0
 40
4.7228198913
100
AcDbArc
 50
270.8539739898
 51
273.8533608667
  0
LWPOLYLINE
  5
27A
330
A
100
AcDbEntity
  8
1
  6
CONTINUOUS
370
    50
100
AcDbPolyline
 90
       18
 70
   128
 43
0.0
 10
88.6426962705
 20
175.9449716118
 10
88.6260267518
 20
176.0491530191
 10
88.6099248936
 20
176.0969864801
 10
88.5949390254
 20
176.0868430835
 10
88.5815794728
 20
176.0190682505
 10
88.5703011795
 20
175.8959699719
 10
88.5614882142
 20
175.7217402118
 10
88.5554406919
 20
175.5023121558
 10
88.5523645536
 20
175.2451581632
 10
88.5523645536
 20
174.9590353047
 10
88.5554406919
 20
174.6536871511
 10
88.5614882142
 20
174.3395119675
 10
88.5703011795
 20
174.0272086131
 10
88.5815794728
 20
173.727412204
 10
88.5949390254
 20
173.4503319474
 10
88.6099248936
 20
173.205403479
 10
88.6260267518
 20
173.0009675441
 10
88.6426962705
 20
172.8439859632
  0
ARC
  5
28E
330
A
100
AcDbEntity
  8
1
  6
CONTINUOUS
370
    50
100
AcDbCircle
 10
88.7132238276
 20
171.2293223249
 30
0.0
 40
4.7161766648
100
AcDbArc
 50
87.85558775700001
 51
90.85685551649999
  0
ARC
  5
28F
330
A
100
AcDbEntity
  8
1
  6
CONTINUOUS
370
    50
100
AcDbCircle
 10
94.6630914183
 20
164.9935173454
 30
0.0
 40
12.3776278971
100
AcDbArc
 50
117.8033277306
 51
119.0293663287
  0
ARC
  5
290
330
A
100
AcDbEntity
  8
1
  6
CONTINUOUS
370
    50
100
AcDbCircle
 10
84.3874009903
 20
175.415524033
 30
0.0
 40
4.2881059526
100
AcDbArc
 50
5.3609071029
 51
7.092343309300001
  0
LWPOLYLINE
  5
291
330
A
100
AcDbEntity
  8
1
  6
CONTINUOUS
370
    50
100
AcDbPolyline
 90
       18
 70
   128
 43
0.0
 10
88.6426962705
 20
172.8439859632
 10
88.145131669
 20
172.8629559566
 10
87.6645110332
 20
172.9340801231
 10
87.2172013225
 20
173.0549364147
 10
86.8184351325
 20
173.2214092151
 10
86.4817919677
 20
173.4278294928
 10
86.2187358071
 20
173.6671678529
 10
86.038224713
 20
173.9312739146
 10
85.9464057739
 20
174.2111538627
 10
85.9464057739
 20
174.4972767212
 10
86.038224713
 20
174.7798989194
 10
86.2187358071
 20
175.0493960972
 10
86.4817919677
 20
175.2965908516
 10
86.8184351325
 20
175.5130652615
 10
87.2172013225
 20
175.6914475507
 10
87.6645110332
 20
175.8256631242
 10
88.145131669
 20
175.9111414317
 10
88.6426962705
 20
175.9449716118
  0
LWPOLYLINE
  5
2A5
330
A
100
AcDbEntity
  8
1
  6
CONTINUOUS
370
    50
100
AcDbPolyline
 90
        9
 70
   128
 43
0.0
 10
88.6567505227
 20
175.8161575688
 10
88.6856703558
 20
175.8369660781
 10
88.714702278
 20
175.8563641931
 10
88.743818641
 20
175.8743334399
 10
88.7729917158
 20
175.8908567057
 10
88.8021937195
 20
175.9059182545
 10
88.8313968416
 20
175.9195037426
 10
88.8605732707
 20
175.9316002317
 10
88.8896952206
 20
175.9421962019
  0
LWPOLYLINE
  5
2B0
330
A
100
AcDbEntity
  8
1
  6
CONTINUOUS
370
    50
100
AcDbPolyline
 90
       17
 70
   128
 43
0.0
 10
96.8533681338
 20
153.5941525896
 10
95.8144225297
 20
154.4389037465
 10
94.8835074549
 20
155.3957950871
 10
94.073290492
 20
156.4518055527
 10
93.3947968037
 20
157.5925653042
 10
92.8572591064
 20
158.8025512628
 10
92.467992034
 20
160.0652983421
 10
92.2322926033
 20
161.3636235003
 10
92.1533681338
 20
162.6798595606
 10
92.2322926033
 20
163.996095621
 10
92.467992034
 20
165.2944207791
 10
92.8572591064
 20
166.5571678585
 10
93.3947968037
 20
167.767153817
 10
94.073290492
 20
168.9079135686
 10
94.8835074549
 20
169.9639240341
 10
95.8144225297
 20
170.9208153748
 10
96.8533681338
 20
171.7655665316
  0
LWPOLYLINE
  5
2C3
330
A
100
AcDbEntity
  8
1
  6
CONTINUOUS
370
    50
100
AcDbPolyline
 90
       17
 70
   128
 43
0.0
 10
96.8533681338
 20
152.2444462636
 10
95.8144225297
 20
153.0891974204
 10
94.8835074549
 20
154.0460887611
 10
94.073290492
 20
155.1020992266
 10
93.3947968037
 20
156.2428589782
 10
92.8572591064
 20
157.4528449367
 10
92.467992034
 20
158.715592016
 10
92.2322926033
 20
160.0139171742
 10
92.1533681338
 20
161.3301532346
 10
92.2322926033
 20
162.6463892949
 10
92.467992034
 20
163.9447144531
 10
92.8572591064
 20
165.2074615324
 10
93.3947968037
 20
166.4174474909
 10
94.073290492
 20
167.5582072425
 10
94.8835074549
 20
168.6142177081
 10
95.8144225297
 20
169.5711090487
 10
96.8533681338
 20
170.4158602056
  0
LWPOLYLINE
  5
2D6
330
A
100
AcDbEntity
  8
1
  6
CONTINUOUS
370
    50
100
AcDbPolyline
 90
        9
 70
   128
 43
0.0
 10
88.8896952206
 20
172.8541382052
 10
88.8605732707
 20
172.8362846288
 10
88.8313968416
 20
172.8198783501
 10
88.8021937195
 20
172.8049349935
 10
88.7729917158
 20
172.7914687904
 10
88.743818641
 20
172.7794925652
 10
88.714702278
 20
172.7690177234
 10
88.6856703558
 20
172.7600542408
 10
88.6567505227
 20
172.7526106537
  0
LWPOLYLINE
  5
2E1
330
A
100
AcDbEntity
  8
1
  6
CONTINUOUS
370
    50
100
AcDbPolyline
 90
       25
 70
   128
 43
0.0
 10
93.4541470675
 20
176.1484722083
 10
93.4046213962
 20
176.6786947255
 10
93.4470813396
 20
177.1727834544
 10
93.5786333226
 20
177.5970670646
 10
93.790312295
 20
177.9226313293
 10
94.0676926847
 20
178.1272895818
 10
94.3918714765
 20
178.1970947004
 10
94.7407564214
 20
178.1272895818
 10
95.0905715871
 20
177.9226313293
 10
95.4174776481
 20
177.5970670646
 10
95.6991964965
 20
177.1727834544
 10
95.9165294585
 20
176.6786947255
 10
96.0546656518
 20
176.1484722083
 10
96.104191323
 20
175.6182496911
 10
96.0617313797
 20
175.1241609623
 10
95.9301793967
 20
174.6998773521
 10
95.7185004243
 20
174.3743130874
 10
95.4411200346
 20
174.1696548349
 10
95.1169412428
 20
174.0998497162
 10
94.7680562979
 20
174.1696548349
 10
94.4182411322
 20
174.3743130874
 10
94.0913350712
 20
174.6998773521
 10
93.8096162228
 20
175.1241609623
 10
93.5922832608
 20
175.6182496911
 10
93.4541470675
 20
176.1484722083
  0
LWPOLYLINE
  5
2FC
330
A
100
AcDbEntity
  8
1
  6
CONTINUOUS
370
    50
100
AcDbPolyline
 90
       25
 70
   128
 43
0.0
 10
96.0461123122
 20
176.1474493961
 10
95.9085061796
 20
176.6756373263
 10
95.6920071747
 20
177.167830122
 10
95.4113693469
 20
177.5904856575
 10
95.0857177003
 20
177.9148006565
 10
94.7372448567
 20
178.1186735877
 10
94.3896986643
 20
178.188210848
 10
94.0667638218
 20
178.1186735877
 10
93.7904478051
 20
177.9148006565
 10
93.579581094
 20
177.5904856575
 10
93.4485339065
 20
177.167830122
 10
93.4062368919
 20
176.6756373263
 10
93.4555725217
 20
176.1474493961
 10
93.5931786543
 20
175.6192614658
 10
93.8096776592
 20
175.1270686701
 10
94.090315487
 20
174.7044131346
 10
94.4159671335
 20
174.3800981357
 10
94.7644399772
 20
174.1762252044
 10
95.1119861696
 20
174.1066879442
 10
95.4349210121
 20
174.1762252044
 10
95.7112370288
 20
174.3800981357
 10
95.9221037398
 20
174.7044131346
 10
96.0531509273
 20
175.1270686701
 10
96.095447942
 20
175.6192614658
 10
96.0461123122
 20
176.1474493961
  0
LINE
  5
317
330
A
100
AcDbEntity
  8
1
  6
CONTINUOUS
370
    50
100
AcDbLine
 10
93.4033681338
 20
187.516307229
 30
0.0
 11
93.4033681338
 21
147.516307229
 31
0.0
  0
LINE
  5
318
330
A
100
AcDbEntity
  8
1
  6
CONTINUOUS
370
    50
100
AcDbLine
 10
95.4033681338
 20
147.516307229
 30
0.0
 11
95.4033681338
 21
187.516307229
 31
0.0
  0
LINE
  5
319
330
A
100
AcDbEntity
  8
1
  6
CONTINUOUS
370
    50
100
AcDbLine
 10
93.4033681338
 20
147.516307229
 30
0.0
 11
95.4033681338
 21
147.516307229
 31
0.0
  0
LINE
  5
31A
330
A
100
AcDbEntity
  8
1
  6
CONTINUOUS
370
    50
100
AcDbLine
 10
84.6033681338
 20
147.516307229
 30
0.0
 11
84.6033681338
 21
187.516307229
 31
0.0
  0
LINE
  5
31B
330
A
100
AcDbEntity
  8
1
  6
CONTINUOUS
370
    50
100
AcDbLine
 10
80.0033681338
 20
187.516307229
 30
0.0
 11
80.0033681338
 21
147.516307229
 31
0.0
  0
LINE
  5
31C
330
A
100
AcDbEntity
  8
1
  6
CONTINUOUS
370
    50
100
AcDbLine
 10
80.0033681338
 20
147.516307229
 30
0.0
 11
84.6033681338
 21
147.516307229
 31
0.0
  0
LINE
  5
31D
330
A
100
AcDbEntity
  8
1
  6
CONTINUOUS
370
    50
100
AcDbLine
 10
84.6033681338
 20
187.516307229
 30
0.0
 11
80.0033681338
 21
187.516307229
 31
0.0
  0
LINE
  5
31E
330
A
100
AcDbEntity
  8
1
  6
CONTINUOUS
370
    50
100
AcDbLine
 10
95.4033681338
 20
187.516307229
 30
0.0
 11
93.4033681338
 21
187.516307229
 31
0.0
  0
LINE
  5
31F
330
A
100
AcDbEntity
  8
1
  6
CONTINUOUS
370
    50
100
AcDbLine
 10
96.8533681338
 20
160.4665332293
 30
0.0
 11
95.3336991273
 21
160.9026614816
 31
0.0
  0
LINE
  5
320
330
A
100
AcDbEntity
  8
1
  6
CONTINUOUS
370
    50
100
AcDbLine
 10
94.175113592
 20
156.8656230178
 30
0.0
 11
96.8533681338
 21
156.0969934891
 31
0.0
  0
LINE
  5
321
330
A
100
AcDbEntity
  8
1
  6
CONTINUOUS
370
    50
100
AcDbLine
 10
78.8033681338
 20
156.5851066975
 30
0.0
 11
88.6058601407
 21
158.9326573052
 31
0.0
  0
LINE
  5
322
330
A
100
AcDbEntity
  8
1
  6
CONTINUOUS
370
    50
100
AcDbLine
 10
87.543183165
 20
162.0714753454
 30
0.0
 11
78.8033681338
 21
159.9784200209
 31
0.0
  0
LINE
  5
323
330
A
100
AcDbEntity
  8
1
  6
CONTINUOUS
370
    50
100
AcDbLine
 10
93.9014697304
 20
160.0629266108
 30
0.0
 11
93.7968327461
 21
159.8956400411
 31
0.0
  0
LINE
  5
324
330
A
100
AcDbEntity
  8
1
  6
CONTINUOUS
370
    50
100
AcDbLine
 10
93.4061681398
 20
158.5343870355
 30
0.0
 11
93.4061681398
 21
158.3370708048
 31
0.0
  0
LINE
  5
325
330
A
100
AcDbEntity
  8
1
  6
CONTINUOUS
370
    50
100
AcDbLine
 10
94.9219262989
 20
160.5526707718
 30
0.0
 11
86.7830760885
 21
162.8884310605
 31
0.0
  0
LINE
  5
326
330
A
100
AcDbEntity
  8
1
  6
CONTINUOUS
370
    50
100
AcDbLine
 10
88.6037641404
 20
158.9327038647
 30
0.0
 11
94.0116090926
 21
157.3807119789
 31
0.0
  0
LINE
  5
327
330
A
100
AcDbEntity
  8
1
  6
CONTINUOUS
370
    50
100
AcDbLine
 10
85.8727588822
 20
159.7164722676
 30
0.0
 11
87.4806201355
 21
159.2550338127
 31
0.0
  0
LINE
  5
328
330
A
100
AcDbEntity
  8
1
  6
CONTINUOUS
370
    50
100
AcDbLine
 10
79.0565220273
 20
190.5089662604
 30
0.0
 11
78.8033681338
 21
191.051856537
 31
0.0
  0
ARC
  5
329
330
A
100
AcDbEntity
  8
1
  6
CONTINUOUS
370
    50
100
AcDbCircle
 10
78.6033681338
 20
190.2976571295
 30
0.0
 40
0.5
100
AcDbArc
 50
0.0
 51
25.0
  0
ARC
  5
32A
330
A
100
AcDbEntity
  8
1
  6
CONTINUOUS
370
    50
100
AcDbCircle
 10
78.6033681338
 20
145.091307229
 30
0.0
 40
0.5
100
AcDbArc
 50
0.0
 51
66.4218215218
  0
ARC
  5
32B
330
A
100
AcDbEntity
  8
1
  6
CONTINUOUS
370
    50
100
AcDbCircle
 10
78.6033681338
 20
189.941307229
 30
0.0
 40
0.5
100
AcDbArc
 50
293.5781784782001
 51
0.0
  0
LINE
  5
32C
330
A
100
AcDbEntity
  8
1
  6
CONTINUOUS
370
    50
100
AcDbLine
 10
86.775415644
 20
162.8906295236
 30
0.0
 11
73.9537649841
 21
166.5703019186
 31
0.0
  0
LINE
  5
32D
330
A
100
AcDbEntity
  8
1
  6
CONTINUOUS
370
    50
100
AcDbLine
 10
71.7590321501
 20
163.7669562516
 30
0.0
 11
85.8650984378
 21
159.7186707307
 31
0.0
  0
ARC
  5
32E
330
A
100
AcDbEntity
  8
1
  6
CONTINUOUS
370
    50
100
AcDbCircle
 10
10.5533681338
 20
158.016307229
 30
0.0
 40
1.0
100
AcDbArc
 50
136.778654881
 51
180.0
  0
ARC
  5
32F
330
A
100
AcDbEntity
  8
1
  6
CONTINUOUS
370
    50
100
AcDbCircle
 10
10.5533681338
 20
177.016307229
 30
0.0
 40
1.0
100
AcDbArc
 50
180.0
 51
223.221345119
  0
LINE
  5
330
330
A
100
AcDbEntity
  8
1
  6
CONTINUOUS
370
    50
100
AcDbLine
 10
9.8246545799
 20
158.7011258593
 30
0.0
 11
10.3246545799
 21
158.9898009939
 31
0.0
  0
LINE
  5
331
330
A
100
AcDbEntity
  8
1
  6
CONTINUOUS
370
    50
100
AcDbLine
 10
10.3246545799
 20
176.0428134641
 30
0.0
 11
9.8246545799
 21
176.3314885987
 31
0.0
  0
LINE
  5
332
330
A
100
AcDbEntity
  8
1
  6
CONTINUOUS
370
    50
100
AcDbLine
 10
15.7430795655
 20
176.166307229
 30
0.0
 11
15.4832719444
 21
176.016307229
 31
0.0
  0
LINE
  5
333
330
A
100
AcDbEntity
  8
1
  6
CONTINUOUS
370
    50
100
AcDbLine
 10
15.4832719444
 20
159.016307229
 30
0.0
 11
15.7430795655
 21
158.866307229
 31
0.0
  0
LINE
  5
334
330
A
100
AcDbEntity
  8
1
  6
CONTINUOUS
370
    50
100
AcDbLine
 10
18.0533681338
 20
158.866307229
 30
0.0
 11
18.9626948078
 21
160.441307229
 31
0.0
  0
LINE
  5
335
330
A
100
AcDbEntity
  8
1
  6
CONTINUOUS
370
    50
100
AcDbLine
 10
18.9626948078
 20
174.591307229
 30
0.0
 11
18.0533681338
 21
176.166307229
 31
0.0
  0
LINE
  5
336
330
A
100
AcDbEntity
  8
1
  6
CONTINUOUS
370
    50
100
AcDbLine
 10
18.0533681338
 20
176.166307229
 30
0.0
 11
15.7430795655
 21
176.166307229
 31
0.0
  0
LINE
  5
337
330
A
100
AcDbEntity
  8
1
  6
CONTINUOUS
370
    50
100
AcDbLine
 10
15.7430795655
 20
158.866307229
 30
0.0
 11
18.0533681338
 21
158.866307229
 31
0.0
  0
ARC
  5
338
330
A
100
AcDbEntity
  8
1
  6
CONTINUOUS
370
    50
100
AcDbCircle
 10
10.5533681338
 20
158.016307229
 30
0.0
 40
1.0
100
AcDbArc
 50
90.0
 51
103.221345119
  0
ARC
  5
339
330
A
100
AcDbEntity
  8
1
  6
CONTINUOUS
370
    50
100
AcDbCircle
 10
10.5533681338
 20
177.016307229
 30
0.0
 40
1.0
100
AcDbArc
 50
256.778654881
 51
270.0
  0
LINE
  5
33A
330
A
100
AcDbEntity
  8
1
  6
CONTINUOUS
370
    50
100
AcDbLine
 10
10.5533681338
 20
159.016307229
 30
0.0
 11
15.4832719444
 21
159.016307229
 31
0.0
  0
LINE
  5
33B
330
A
100
AcDbEntity
  8
1
  6
CONTINUOUS
370
    50
100
AcDbLine
 10
15.4832719444
 20
176.016307229
 30
0.0
 11
10.5533681338
 21
176.016307229
 31
0.0
  0
LINE
  5
33C
330
A
100
AcDbEntity
  8
1
  6
CONTINUOUS
370
    50
100
AcDbLine
 10
43.5433681338
 20
174.591307229
 30
0.0
 11
18.9626948078
 21
174.591307229
 31
0.0
  0
LINE
  5
33D
330
A
100
AcDbEntity
  8
1
  6
CONTINUOUS
370
    50
100
AcDbLine
 10
18.9626948078
 20
160.441307229
 30
0.0
 11
43.5433681338
 21
160.441307229
 31
0.0
  0
LINE
  5
33E
330
A
100
AcDbEntity
  8
1
  6
CONTINUOUS
370
    50
100
AcDbLine
 10
54.5533681338
 20
174.591307229
 30
0.0
 11
43.5533681338
 21
174.591307229
 31
0.0
  0
LINE
  5
33F
330
A
100
AcDbEntity
  8
1
  6
CONTINUOUS
370
    50
100
AcDbLine
 10
43.5533681338
 20
160.441307229
 30
0.0
 11
54.5533681338
 21
160.441307229
 31
0.0
  0
LINE
  5
340
330
A
100
AcDbEntity
  8
1
  6
CONTINUOUS
370
    50
100
AcDbLine
 10
88.5533681338
 20
160.491307229
 30
0.0
 11
89.7225024289
 21
162.516307229
 31
0.0
  0
LINE
  5
341
330
A
100
AcDbEntity
  8
1
  6
CONTINUOUS
370
    50
100
AcDbLine
 10
89.7225024289
 20
172.516307229
 30
0.0
 11
88.5533681338
 21
174.541307229
 31
0.0
  0
LINE
  5
342
330
A
100
AcDbEntity
  8
1
  6
CONTINUOUS
370
    50
100
AcDbLine
 10
88.5533681338
 20
174.541307229
 30
0.0
 11
54.5715666455
 21
174.541307229
 31
0.0
  0
LINE
  5
343
330
A
100
AcDbEntity
  8
1
  6
CONTINUOUS
370
    50
100
AcDbLine
 10
54.5715666455
 20
160.491307229
 30
0.0
 11
88.5533681338
 21
160.491307229
 31
0.0
  0
ARC
  5
344
330
A
100
AcDbEntity
  8
1
  6
CONTINUOUS
370
    50
100
AcDbCircle
 10
196.3033681338
 20
162.061307229
 30
0.0
 40
1.5
100
AcDbArc
 50
0.0
 51
75.9301322524
  0
ARC
  5
345
330
A
100
AcDbEntity
  8
1
  6
CONTINUOUS
370
    50
100
AcDbCircle
 10
196.3033681338
 20
172.971307229
 30
0.0
 40
1.5
100
AcDbArc
 50
284.0698677476
 51
0.0
  0
LINE
  5
346
330
A
100
AcDbEntity
  8
1
  6
CONTINUOUS
370
    50
100
AcDbLine
 10
83.7033681338
 20
192.316307229
 30
0.0
 11
83.9033681338
 21
192.116307229
 31
0.0
  0
LINE
  5
347
330
A
100
AcDbEntity
  8
1
  6
CONTINUOUS
370
    50
100
AcDbLine
 10
93.9033681338
 20
192.116307229
 30
0.0
 11
94.1033681338
 21
192.316307229
 31
0.0
  0
LINE
  5
348
330
A
100
AcDbEntity
  8
1
  6
CONTINUOUS
370
    50
100
AcDbLine
 10
89.7225024289
 20
162.516307229
 30
0.0
 11
147.5533681338
 21
162.516307229
 31
0.0
  0
LINE
  5
349
330
A
100
AcDbEntity
  8
1
  6
CONTINUOUS
370
    50
100
AcDbLine
 10
147.5533681338
 20
172.516307229
 30
0.0
 11
89.7225024289
 21
172.516307229
 31
0.0
  0
LINE
  5
34A
330
A
100
AcDbEntity
  8
1
  6
CONTINUOUS
370
    50
100
AcDbLine
 10
147.5533681338
 20
162.516307229
 30
0.0
 11
148.9967438068
 21
165.016307229
 31
0.0
  0
LINE
  5
34B
330
A
100
AcDbEntity
  8
1
  6
CONTINUOUS
370
    50
100
AcDbLine
 10
148.9967438068
 20
170.016307229
 30
0.0
 11
147.5533681338
 21
172.516307229
 31
0.0
  0
ARC
  5
34C
330
A
100
AcDbEntity
  8
1
  6
CONTINUOUS
370
    50
100
AcDbCircle
 10
84.2033681338
 20
187.916307229
 30
0.0
 40
0.3
100
AcDbArc
 50
180.0
 51
270.0
  0
ARC
  5
34D
330
A
100
AcDbEntity
  8
1
  6
CONTINUOUS
370
    50
100
AcDbCircle
 10
93.6033681338
 20
187.916307229
 30
0.0
 40
0.3
100
AcDbArc
 50
270.0
 51
0.0
  0
LINE
  5
34E
330
A
100
AcDbEntity
  8
1
  6
CONTINUOUS
370
    50
100
AcDbLine
 10
83.9033681338
 20
192.116307229
 30
0.0
 11
83.9033681338
 21
187.916307229
 31
0.0
  0
LINE
  5
34F
330
A
100
AcDbEntity
  8
1
  6
CONTINUOUS
370
    50
100
AcDbLine
 10
93.9033681338
 20
187.916307229
 30
0.0
 11
93.9033681338
 21
192.116307229
 31
0.0
  0
ARC
  5
350
330
A
100
AcDbEntity
  8
1
  6
CONTINUOUS
370
    50
100
AcDbCircle
 10
162.3033681338
 20
163.816307229
 30
0.0
 40
0.5
100
AcDbArc
 50
180.0
 51
270.0
  0
ARC
  5
351
330
A
100
AcDbEntity
  8
1
  6
CONTINUOUS
370
    50
100
AcDbCircle
 10
162.3033681338
 20
171.216307229
 30
0.0
 40
0.5
100
AcDbArc
 50
90.0
 51
180.0
  0
LINE
  5
352
330
A
100
AcDbEntity
  8
1
  6
CONTINUOUS
370
    50
100
AcDbLine
 10
171.6878980838
 20
163.316307229
 30
0.0
 11
171.8033681376
 21
163.516307229
 31
0.0
  0
LINE
  5
353
330
A
100
AcDbEntity
  8
1
  6
CONTINUOUS
370
    50
100
AcDbLine
 10
171.8033681376
 20
171.516307229
 30
0.0
 11
171.6878980838
 21
171.716307229
 31
0.0
  0
LINE
  5
354
330
A
100
AcDbEntity
  8
1
  6
CONTINUOUS
370
    50
100
AcDbLine
 10
162.3033681338
 20
163.316307229
 30
0.0
 11
171.6878980838
 21
163.316307229
 31
0.0
  0
LINE
  5
355
330
A
100
AcDbEntity
  8
1
  6
CONTINUOUS
370
    50
100
AcDbLine
 10
171.6878980838
 20
171.716307229
 30
0.0
 11
162.3033681338
 21
171.716307229
 31
0.0
  0
LINE
  5
356
330
A
100
AcDbEntity
  8
1
  6
CONTINUOUS
370
    50
100
AcDbLine
 10
171.8033681376
 20
163.516307229
 30
0.0
 11
196.6680255072
 21
163.516307229
 31
0.0
  0
LINE
  5
357
330
A
100
AcDbEntity
  8
1
  6
CONTINUOUS
370
    50
100
AcDbLine
 10
196.6680255072
 20
171.516307229
 30
0.0
 11
171.8033681376
 21
171.516307229
 31
0.0
  0
LINE
  5
358
330
A
100
AcDbEntity
  8
1
  6
CONTINUOUS
370
    50
100
AcDbLine
 10
148.9967438068
 20
165.016307229
 30
0.0
 11
161.8033681338
 21
165.016307229
 31
0.0
  0
LINE
  5
359
330
A
100
AcDbEntity
  8
1
  6
CONTINUOUS
370
    50
100
AcDbLine
 10
161.8033681338
 20
170.016307229
 30
0.0
 11
148.9967438068
 21
170.016307229
 31
0.0
  0
LINE
  5
35A
330
A
100
AcDbEntity
  8
1
  6
CONTINUOUS
370
    50
100
AcDbLine
 10
87.4033681338
 20
187.616307229
 30
0.0
 11
87.8033681338
 21
187.216307229
 31
0.0
  0
LINE
  5
35B
330
A
100
AcDbEntity
  8
1
  6
CONTINUOUS
370
    50
100
AcDbLine
 10
90.0033681338
 20
187.216307229
 30
0.0
 11
90.4033681338
 21
187.616307229
 31
0.0
  0
LINE
  5
35C
330
A
100
AcDbEntity
  8
1
  6
CONTINUOUS
370
    50
100
AcDbLine
 10
87.8033681338
 20
181.216307229
 30
0.0
 11
88.9033681338
 21
180.8159399713
 31
0.0
  0
LINE
  5
35D
330
A
100
AcDbEntity
  8
1
  6
CONTINUOUS
370
    50
100
AcDbLine
 10
88.9033681338
 20
180.8159399713
 30
0.0
 11
90.0033681338
 21
181.216307229
 31
0.0
  0
LINE
  5
35E
330
A
100
AcDbEntity
  8
1
  6
CONTINUOUS
370
    50
100
AcDbLine
 10
87.8033681338
 20
183.806307229
 30
0.0
 11
87.8033681338
 21
181.216307229
 31
0.0
  0
LINE
  5
35F
330
A
100
AcDbEntity
  8
1
  6
CONTINUOUS
370
    50
100
AcDbLine
 10
90.0033681338
 20
181.216307229
 30
0.0
 11
90.0033681338
 21
183.806307229
 31
0.0
  0
LINE
  5
360
330
A
100
AcDbEntity
  8
1
  6
CONTINUOUS
370
    50
100
AcDbLine
 10
87.8033681338
 20
187.216307229
 30
0.0
 11
87.8033681338
 21
183.816307229
 31
0.0
  0
LINE
  5
361
330
A
100
AcDbEntity
  8
1
  6
CONTINUOUS
370
    50
100
AcDbLine
 10
90.0033681338
 20
183.816307229
 30
0.0
 11
90.0033681338
 21
187.216307229
 31
0.0
  0
LINE
  5
362
330
A
100
AcDbEntity
  8
1
  6
CONTINUOUS
370
    50
100
AcDbLine
 10
85.8650984378
 20
175.3139437274
 30
0.0
 11
71.7590321501
 21
171.2656582064
 31
0.0
  0
LINE
  5
363
330
A
100
AcDbEntity
  8
1
  6
CONTINUOUS
370
    50
100
AcDbLine
 10
73.9537649841
 20
168.4623125394
 30
0.0
 11
86.775415644
 21
172.1419849344
 31
0.0
  0
LINE
  5
364
330
A
100
AcDbEntity
  8
1
  6
CONTINUOUS
370
    50
100
AcDbLine
 10
87.4806201355
 20
175.7775806453
 30
0.0
 11
85.8727588822
 21
175.3161421905
 31
0.0
  0
LINE
  5
365
330
A
100
AcDbEntity
  8
1
  6
CONTINUOUS
370
    50
100
AcDbLine
 10
94.0116090926
 20
177.6519024791
 30
0.0
 11
88.6037641404
 21
176.0999105933
 31
0.0
  0
LINE
  5
366
330
A
100
AcDbEntity
  8
1
  6
CONTINUOUS
370
    50
100
AcDbLine
 10
86.7830760885
 20
172.1441833975
 30
0.0
 11
94.9219262989
 21
174.4799436862
 31
0.0
  0
LINE
  5
367
330
A
100
AcDbEntity
  8
1
  6
CONTINUOUS
370
    50
100
AcDbLine
 10
78.8033681338
 20
175.0541944371
 30
0.0
 11
87.543183165
 21
172.9611391126
 31
0.0
  0
LINE
  5
368
330
A
100
AcDbEntity
  8
1
  6
CONTINUOUS
370
    50
100
AcDbLine
 10
88.6058601407
 20
176.0999571528
 30
0.0
 11
78.8033681338
 21
178.4475077605
 31
0.0
  0
LINE
  5
369
330
A
100
AcDbEntity
  8
1
  6
CONTINUOUS
370
    50
100
AcDbLine
 10
92.1533681338
 20
162.6798595606
 30
0.0
 11
92.1533681338
 21
161.3301532346
 31
0.0
  0
LINE
  5
36A
330
A
100
AcDbEntity
  8
1
  6
CONTINUOUS
370
    50
100
AcDbLine
 10
96.8533681338
 20
178.9356209689
 30
0.0
 11
94.175113592
 21
178.1669914402
 31
0.0
  0
LINE
  5
36B
330
A
100
AcDbEntity
  8
1
  6
CONTINUOUS
370
    50
100
AcDbLine
 10
95.3336991273
 20
174.1299529765
 30
0.0
 11
96.8533681338
 21
174.5660812287
 31
0.0
  0
LINE
  5
36C
330
A
100
AcDbEntity
  8
1
  6
CONTINUOUS
370
    50
100
AcDbLine
 10
93.4061681398
 20
176.6955436532
 30
0.0
 11
93.4061681398
 21
176.4982274226
 31
0.0
  0
LINE
  5
36D
330
A
100
AcDbEntity
  8
1
  6
CONTINUOUS
370
    50
100
AcDbLine
 10
93.7968327461
 20
175.1369744169
 30
0.0
 11
93.9014697304
 21
174.9696878473
 31
0.0
  0
LINE
  5
36E
330
A
100
AcDbEntity
  8
1
  6
CONTINUOUS
370
    50
100
AcDbLine
 10
78.6033681338
 20
189.441307229
 30
0.0
 11
78.6033681338
 21
145.591307229
 31
0.0
  0
LINE
  5
36F
330
A
100
AcDbEntity
  8
1
  6
CONTINUOUS
370
    50
100
AcDbLine
 10
78.3462584104
 20
189.4881533355
 30
0.0
 11
78.3462584104
 21
145.5444611225
 31
0.0
  0
LINE
  5
370
330
A
100
AcDbEntity
  8
1
  6
CONTINUOUS
370
    50
100
AcDbLine
 10
78.5575675413
 20
189.441307229
 30
0.0
 11
78.5575675413
 21
145.591307229
 31
0.0
  0
LINE
  5
371
330
A
100
AcDbEntity
  8
1
  6
CONTINUOUS
370
    50
100
AcDbLine
 10
10.3058520275
 20
179.8959152667
 30
0.0
 11
10.3058520275
 21
155.1366991913
 31
0.0
  0
LINE
  5
372
330
A
100
AcDbEntity
  8
1
  6
CONTINUOUS
370
    50
100
AcDbLine
 10
85.0819148579
 20
173.7279643309
 30
0.0
 11
85.0369022397
 21
174.3614754126
 31
0.0
  0
LINE
  5
373
330
A
100
AcDbEntity
  8
1
  6
CONTINUOUS
370
    50
100
AcDbLine
 10
85.0369022397
 20
174.3614754126
 30
0.0
 11
85.1309610274
 21
174.9263357387
 31
0.0
  0
LINE
  5
374
330
A
100
AcDbEntity
  8
1
  6
CONTINUOUS
370
    50
100
AcDbLine
 10
85.1309610274
 20
174.9263357387
 30
0.0
 11
85.353898492
 21
175.361333928
 31
0.0
  0
LINE
  5
375
330
A
100
AcDbEntity
  8
1
  6
CONTINUOUS
370
    50
100
AcDbLine
 10
85.353898492
 20
175.361333928
 30
0.0
 11
85.6815559
 21
175.6193311772
 31
0.0
  0
LINE
  5
376
330
A
100
AcDbEntity
  8
1
  6
CONTINUOUS
370
    50
100
AcDbLine
 10
85.6815559
 20
175.6193311772
 30
0.0
 11
86.0784264871
 21
175.672369481
 31
0.0
  0
LINE
  5
377
330
A
100
AcDbEntity
  8
1
  6
CONTINUOUS
370
    50
100
AcDbLine
 10
86.0784264871
 20
175.672369481
 30
0.0
 11
86.5015031671
 21
175.5147013163
 31
0.0
  0
LINE
  5
378
330
A
100
AcDbEntity
  8
1
  6
CONTINUOUS
370
    50
100
AcDbLine
 10
86.5015031671
 20
175.5147013163
 30
0.0
 11
86.904939017
 21
175.1634124751
 31
0.0
  0
LINE
  5
379
330
A
100
AcDbEntity
  8
1
  6
CONTINUOUS
370
    50
100
AcDbLine
 10
86.904939017
 20
175.1634124751
 30
0.0
 11
87.2450155025
 21
174.6565705542
 31
0.0
  0
LINE
  5
37A
330
A
100
AcDbEntity
  8
1
  6
CONTINUOUS
370
    50
100
AcDbLine
 10
87.2450155025
 20
174.6565705542
 30
0.0
 11
87.4848800595
 21
174.0490997402
 31
0.0
  0
LINE
  5
37B
330
A
100
AcDbEntity
  8
1
  6
CONTINUOUS
370
    50
100
AcDbLine
 10
87.4848800595
 20
174.0490997402
 30
0.0
 11
87.5985396416
 21
173.4068289216
 31
0.0
  0
LINE
  5
37C
330
A
100
AcDbEntity
  8
1
  6
CONTINUOUS
370
    50
100
AcDbLine
 10
87.5985396416
 20
173.4068289216
 30
0.0
 11
87.5736774692
 21
172.7993581076
 31
0.0
  0
LINE
  5
37D
330
A
100
AcDbEntity
  8
1
  6
CONTINUOUS
370
    50
100
AcDbLine
 10
87.5736774692
 20
172.7993581076
 30
0.0
 11
87.4129877446
 21
172.2925161867
 31
0.0
  0
LINE
  5
37E
330
A
100
AcDbEntity
  8
1
  6
CONTINUOUS
370
    50
100
AcDbLine
 10
87.4129877446
 20
172.2925161867
 30
0.0
 11
87.1338836928
 21
171.9412273455
 31
0.0
  0
LINE
  5
37F
330
A
100
AcDbEntity
  8
1
  6
CONTINUOUS
370
    50
100
AcDbLine
 10
87.1338836928
 20
171.9412273455
 30
0.0
 11
86.7666105686
 21
171.7835591808
 31
0.0
  0
LINE
  5
380
330
A
100
AcDbEntity
  8
1
  6
CONTINUOUS
370
    50
100
AcDbLine
 10
86.7666105686
 20
171.7835591808
 30
0.0
 11
86.3509681137
 21
171.8365974846
 31
0.0
  0
LINE
  5
381
330
A
100
AcDbEntity
  8
1
  6
CONTINUOUS
370
    50
100
AcDbLine
 10
86.3509681137
 20
171.8365974846
 30
0.0
 11
85.9319976376
 21
172.0945947338
 31
0.0
  0
LINE
  5
382
330
A
100
AcDbEntity
  8
1
  6
CONTINUOUS
370
    50
100
AcDbLine
 10
85.9319976376
 20
172.0945947338
 30
0.0
 11
85.5551010923
 21
172.5295929231
 31
0.0
  0
LINE
  5
383
330
A
100
AcDbEntity
  8
1
  6
CONTINUOUS
370
    50
100
AcDbLine
 10
85.5551010923
 20
172.5295929231
 30
0.0
 11
85.2611210666
 21
173.0944532492
 31
0.0
  0
LINE
  5
384
330
A
100
AcDbEntity
  8
1
  6
CONTINUOUS
370
    50
100
AcDbLine
 10
85.2611210666
 20
173.0944532492
 30
0.0
 11
85.0819148579
 21
173.7279643309
 31
0.0
  0
LINE
  5
385
330
A
100
AcDbEntity
  8
1
  6
CONTINUOUS
370
    50
100
AcDbLine
 10
93.256114297
 20
177.1916047313
 30
0.0
 11
93.1812911769
 21
176.6131761873
 31
0.0
  0
LINE
  5
386
330
A
100
AcDbEntity
  8
1
  6
CONTINUOUS
370
    50
100
AcDbLine
 10
93.1812911769
 20
176.6131761873
 30
0.0
 11
93.245769384
 21
175.9754442779
 31
0.0
  0
LINE
  5
387
330
A
100
AcDbEntity
  8
1
  6
CONTINUOUS
370
    50
100
AcDbLine
 10
93.245769384
 20
175.9754442779
 30
0.0
 11
93.4425617038
 21
175.3475171509
 31
0.0
  0
LINE
  5
388
330
A
100
AcDbEntity
  8
1
  6
CONTINUOUS
370
    50
100
AcDbLine
 10
93.4425617038
 20
175.3475171509
 30
0.0
 11
93.750342635
 21
174.7974404539
 31
0.0
  0
LINE
  5
389
330
A
100
AcDbEntity
  8
1
  6
CONTINUOUS
370
    50
100
AcDbLine
 10
93.750342635
 20
174.7974404539
 30
0.0
 11
94.1357593381
 21
174.3848235322
 31
0.0
  0
LINE
  5
38A
330
A
100
AcDbEntity
  8
1
  6
CONTINUOUS
370
    50
100
AcDbLine
 10
94.1357593381
 20
174.3848235322
 30
0.0
 11
94.5570459328
 21
174.1543798318
 31
0.0
  0
LINE
  5
38B
330
A
100
AcDbEntity
  8
1
  6
CONTINUOUS
370
    50
100
AcDbLine
 10
94.5570459328
 20
174.1543798318
 30
0.0
 11
94.9685494798
 21
174.1310815032
 31
0.0
  0
LINE
  5
38C
330
A
100
AcDbEntity
  8
1
  6
CONTINUOUS
370
    50
100
AcDbLine
 10
94.9685494798
 20
174.1310815032
 30
0.0
 11
95.3256771844
 21
174.3174532819
 31
0.0
  0
LINE
  5
38D
330
A
100
AcDbEntity
  8
1
  6
CONTINUOUS
370
    50
100
AcDbLine
 10
95.3256771844
 20
174.3174532819
 30
0.0
 11
95.5897287187
 21
174.6932988939
 31
0.0
  0
LINE
  5
38E
330
A
100
AcDbEntity
  8
1
  6
CONTINUOUS
370
    50
100
AcDbLine
 10
95.5897287187
 20
174.6932988939
 30
0.0
 11
95.7320900015
 21
175.2178896352
 31
0.0
  0
LINE
  5
38F
330
A
100
AcDbEntity
  8
1
  6
CONTINUOUS
370
    50
100
AcDbLine
 10
95.7320900015
 20
175.2178896352
 30
0.0
 11
95.7373339791
 21
175.8343779591
 31
0.0
  0
LINE
  5
390
330
A
100
AcDbEntity
  8
1
  6
CONTINUOUS
370
    50
100
AcDbLine
 10
95.7373339791
 20
175.8343779591
 30
0.0
 11
95.6048923849
 21
176.4759577899
 31
0.0
  0
LINE
  5
391
330
A
100
AcDbEntity
  8
1
  6
CONTINUOUS
370
    50
100
AcDbLine
 10
95.6048923849
 20
176.4759577899
 30
0.0
 11
95.3491173209
 21
177.0731039979
 31
0.0
  0
LINE
  5
392
330
A
100
AcDbEntity
  8
1
  6
CONTINUOUS
370
    50
100
AcDbLine
 10
95.3491173209
 20
177.0731039979
 30
0.0
 11
94.9977259839
 21
177.5611065257
 31
0.0
  0
LINE
  5
393
330
A
100
AcDbEntity
  8
1
  6
CONTINUOUS
370
    50
100
AcDbLine
 10
94.9977259839
 20
177.5611065257
 30
0.0
 11
94.5887970777
 21
177.8870827272
 31
0.0
  0
LINE
  5
394
330
A
100
AcDbEntity
  8
1
  6
CONTINUOUS
370
    50
100
AcDbLine
 10
94.5887970777
 20
177.8870827272
 30
0.0
 11
94.1666443945
 21
178.0157080231
 31
0.0
  0
LINE
  5
395
330
A
100
AcDbEntity
  8
1
  6
CONTINUOUS
370
    50
100
AcDbLine
 10
94.1666443945
 20
178.0157080231
 30
0.0
 11
93.7770147279
 21
177.9330438667
 31
0.0
  0
LINE
  5
396
330
A
100
AcDbEntity
  8
1
  6
CONTINUOUS
370
    50
100
AcDbLine
 10
93.7770147279
 20
177.9330438667
 30
0.0
 11
93.462130498
 21
177.6480482019
 31
0.0
  0
LINE
  5
397
330
A
100
AcDbEntity
  8
1
  6
CONTINUOUS
370
    50
100
AcDbLine
 10
93.462130498
 20
177.6480482019
 30
0.0
 11
93.256114297
 21
177.1916047313
 31
0.0
  0
LINE
  5
398
330
A
100
AcDbEntity
  8
1
  6
CONTINUOUS
370
    50
100
AcDbLine
 10
87.5662596683
 20
173.730162794
 30
0.0
 11
87.6112722866
 21
173.0966517123
 31
0.0
  0
LINE
  5
399
330
A
100
AcDbEntity
  8
1
  6
CONTINUOUS
370
    50
100
AcDbLine
 10
87.6112722866
 20
173.0966517123
 30
0.0
 11
87.5172134988
 21
172.5317913862
 31
0.0
  0
LINE
  5
39A
330
A
100
AcDbEntity
  8
1
  6
CONTINUOUS
370
    50
100
AcDbLine
 10
87.5172134988
 20
172.5317913862
 30
0.0
 11
87.2942760342
 21
172.0967931969
 31
0.0
  0
LINE
  5
39B
330
A
100
AcDbEntity
  8
1
  6
CONTINUOUS
370
    50
100
AcDbLine
 10
87.2942760342
 20
172.0967931969
 30
0.0
 11
86.9666186262
 21
171.8387959477
 31
0.0
  0
LINE
  5
39C
330
A
100
AcDbEntity
  8
1
  6
CONTINUOUS
370
    50
100
AcDbLine
 10
86.9666186262
 20
171.8387959477
 30
0.0
 11
86.5697480391
 21
171.7857576439
 31
0.0
  0
LINE
  5
39D
330
A
100
AcDbEntity
  8
1
  6
CONTINUOUS
370
    50
100
AcDbLine
 10
86.5697480391
 20
171.7857576439
 30
0.0
 11
86.1466713592
 21
171.9434258086
 31
0.0
  0
LINE
  5
39E
330
A
100
AcDbEntity
  8
1
  6
CONTINUOUS
370
    50
100
AcDbLine
 10
86.1466713592
 20
171.9434258086
 30
0.0
 11
85.7432355093
 21
172.2947146498
 31
0.0
  0
LINE
  5
39F
330
A
100
AcDbEntity
  8
1
  6
CONTINUOUS
370
    50
100
AcDbLine
 10
85.7432355093
 20
172.2947146498
 30
0.0
 11
85.4031590238
 21
172.8015565707
 31
0.0
  0
LINE
  5
3A0
330
A
100
AcDbEntity
  8
1
  6
CONTINUOUS
370
    50
100
AcDbLine
 10
85.4031590238
 20
172.8015565707
 30
0.0
 11
85.1632944667
 21
173.4090273847
 31
0.0
  0
LINE
  5
3A1
330
A
100
AcDbEntity
  8
1
  6
CONTINUOUS
370
    50
100
AcDbLine
 10
85.1632944667
 20
173.4090273847
 30
0.0
 11
85.0496348847
 21
174.0512982033
 31
0.0
  0
LINE
  5
3A2
330
A
100
AcDbEntity
  8
1
  6
CONTINUOUS
370
    50
100
AcDbLine
 10
85.0496348847
 20
174.0512982033
 30
0.0
 11
85.074497057
 21
174.6587690173
 31
0.0
  0
LINE
  5
3A3
330
A
100
AcDbEntity
  8
1
  6
CONTINUOUS
370
    50
100
AcDbLine
 10
85.074497057
 20
174.6587690173
 30
0.0
 11
85.2351867816
 21
175.1656109382
 31
0.0
  0
LINE
  5
3A4
330
A
100
AcDbEntity
  8
1
  6
CONTINUOUS
370
    50
100
AcDbLine
 10
85.2351867816
 20
175.1656109382
 30
0.0
 11
85.5142908334
 21
175.5168997794
 31
0.0
  0
LINE
  5
3A5
330
A
100
AcDbEntity
  8
1
  6
CONTINUOUS
370
    50
100
AcDbLine
 10
85.5142908334
 20
175.5168997794
 30
0.0
 11
85.8815639577
 21
175.6745679442
 31
0.0
  0
LINE
  5
3A6
330
A
100
AcDbEntity
  8
1
  6
CONTINUOUS
370
    50
100
AcDbLine
 10
85.8815639577
 20
175.6745679442
 30
0.0
 11
86.2972064125
 21
175.6215296403
 31
0.0
  0
LINE
  5
3A7
330
A
100
AcDbEntity
  8
1
  6
CONTINUOUS
370
    50
100
AcDbLine
 10
86.2972064125
 20
175.6215296403
 30
0.0
 11
86.7161768887
 21
175.3635323912
 31
0.0
  0
LINE
  5
3A8
330
A
100
AcDbEntity
  8
1
  6
CONTINUOUS
370
    50
100
AcDbLine
 10
86.7161768887
 20
175.3635323912
 30
0.0
 11
87.093073434
 21
174.9285342018
 31
0.0
  0
LINE
  5
3A9
330
A
100
AcDbEntity
  8
1
  6
CONTINUOUS
370
    50
100
AcDbLine
 10
87.093073434
 20
174.9285342018
 30
0.0
 11
87.3870534596
 21
174.3636738757
 31
0.0
  0
LINE
  5
3AA
330
A
100
AcDbEntity
  8
1
  6
CONTINUOUS
370
    50
100
AcDbLine
 10
87.3870534596
 20
174.3636738757
 30
0.0
 11
87.5662596683
 21
173.730162794
 31
0.0
  0
LINE
  5
3AB
330
A
100
AcDbEntity
  8
1
  6
CONTINUOUS
370
    50
100
AcDbLine
 10
85.0819148579
 20
161.3046501271
 30
0.0
 11
85.0369022397
 21
160.6711390454
 31
0.0
  0
LINE
  5
3AC
330
A
100
AcDbEntity
  8
1
  6
CONTINUOUS
370
    50
100
AcDbLine
 10
85.0369022397
 20
160.6711390454
 30
0.0
 11
85.1309610274
 21
160.1062787194
 31
0.0
  0
LINE
  5
3AD
330
A
100
AcDbEntity
  8
1
  6
CONTINUOUS
370
    50
100
AcDbLine
 10
85.1309610274
 20
160.1062787194
 30
0.0
 11
85.353898492
 21
159.67128053
 31
0.0
  0
LINE
  5
3AE
330
A
100
AcDbEntity
  8
1
  6
CONTINUOUS
370
    50
100
AcDbLine
 10
85.353898492
 20
159.67128053
 30
0.0
 11
85.6815559
 21
159.4132832808
 31
0.0
  0
LINE
  5
3AF
330
A
100
AcDbEntity
  8
1
  6
CONTINUOUS
370
    50
100
AcDbLine
 10
85.6815559
 20
159.4132832808
 30
0.0
 11
86.0784264871
 21
159.360244977
 31
0.0
  0
LINE
  5
3B0
330
A
100
AcDbEntity
  8
1
  6
CONTINUOUS
370
    50
100
AcDbLine
 10
86.0784264871
 20
159.360244977
 30
0.0
 11
86.5015031671
 21
159.5179131417
 31
0.0
  0
LINE
  5
3B1
330
A
100
AcDbEntity
  8
1
  6
CONTINUOUS
370
    50
100
AcDbLine
 10
86.5015031671
 20
159.5179131417
 30
0.0
 11
86.904939017
 21
159.8692019829
 31
0.0
  0
LINE
  5
3B2
330
A
100
AcDbEntity
  8
1
  6
CONTINUOUS
370
    50
100
AcDbLine
 10
86.904939017
 20
159.8692019829
 30
0.0
 11
87.2450155025
 21
160.3760439039
 31
0.0
  0
LINE
  5
3B3
330
A
100
AcDbEntity
  8
1
  6
CONTINUOUS
370
    50
100
AcDbLine
 10
87.2450155025
 20
160.3760439039
 30
0.0
 11
87.4848800595
 21
160.9835147179
 31
0.0
  0
LINE
  5
3B4
330
A
100
AcDbEntity
  8
1
  6
CONTINUOUS
370
    50
100
AcDbLine
 10
87.4848800595
 20
160.9835147179
 30
0.0
 11
87.5985396416
 21
161.6257855364
 31
0.0
  0
LINE
  5
3B5
330
A
100
AcDbEntity
  8
1
  6
CONTINUOUS
370
    50
100
AcDbLine
 10
87.5985396416
 20
161.6257855364
 30
0.0
 11
87.5736774692
 21
162.2332563504
 31
0.0
  0
LINE
  5
3B6
330
A
100
AcDbEntity
  8
1
  6
CONTINUOUS
370
    50
100
AcDbLine
 10
87.5736774692
 20
162.2332563504
 30
0.0
 11
87.4129877446
 21
162.7400982713
 31
0.0
  0
LINE
  5
3B7
330
A
100
AcDbEntity
  8
1
  6
CONTINUOUS
370
    50
100
AcDbLine
 10
87.4129877446
 20
162.7400982713
 30
0.0
 11
87.1338836928
 21
163.0913871125
 31
0.0
  0
LINE
  5
3B8
330
A
100
AcDbEntity
  8
1
  6
CONTINUOUS
370
    50
100
AcDbLine
 10
87.1338836928
 20
163.0913871125
 30
0.0
 11
86.7666105686
 21
163.2490552773
 31
0.0
  0
LINE
  5
3B9
330
A
100
AcDbEntity
  8
1
  6
CONTINUOUS
370
    50
100
AcDbLine
 10
86.7666105686
 20
163.2490552773
 30
0.0
 11
86.3509681137
 21
163.1960169735
 31
0.0
  0
LINE
  5
3BA
330
A
100
AcDbEntity
  8
1
  6
CONTINUOUS
370
    50
100
AcDbLine
 10
86.3509681137
 20
163.1960169735
 30
0.0
 11
85.9319976376
 21
162.9380197243
 31
0.0
  0
LINE
  5
3BB
330
A
100
AcDbEntity
  8
1
  6
CONTINUOUS
370
    50
100
AcDbLine
 10
85.9319976376
 20
162.9380197243
 30
0.0
 11
85.5551010923
 21
162.5030215349
 31
0.0
  0
LINE
  5
3BC
330
A
100
AcDbEntity
  8
1
  6
CONTINUOUS
370
    50
100
AcDbLine
 10
85.5551010923
 20
162.5030215349
 30
0.0
 11
85.2611210666
 21
161.9381612088
 31
0.0
  0
LINE
  5
3BD
330
A
100
AcDbEntity
  8
1
  6
CONTINUOUS
370
    50
100
AcDbLine
 10
85.2611210666
 20
161.9381612088
 30
0.0
 11
85.0819148579
 21
161.3046501271
 31
0.0
  0
LINE
  5
3BE
330
A
100
AcDbEntity
  8
1
  6
CONTINUOUS
370
    50
100
AcDbLine
 10
93.256114297
 20
157.8410097267
 30
0.0
 11
93.1812911769
 21
158.4194382707
 31
0.0
  0
LINE
  5
3BF
330
A
100
AcDbEntity
  8
1
  6
CONTINUOUS
370
    50
100
AcDbLine
 10
93.1812911769
 20
158.4194382707
 30
0.0
 11
93.245769384
 21
159.0571701801
 31
0.0
  0
LINE
  5
3C0
330
A
100
AcDbEntity
  8
1
  6
CONTINUOUS
370
    50
100
AcDbLine
 10
93.245769384
 20
159.0571701801
 30
0.0
 11
93.4425617038
 21
159.6850973071
 31
0.0
  0
LINE
  5
3C1
330
A
100
AcDbEntity
  8
1
  6
CONTINUOUS
370
    50
100
AcDbLine
 10
93.4425617038
 20
159.6850973071
 30
0.0
 11
93.750342635
 21
160.2351740041
 31
0.0
  0
LINE
  5
3C2
330
A
100
AcDbEntity
  8
1
  6
CONTINUOUS
370
    50
100
AcDbLine
 10
93.750342635
 20
160.2351740041
 30
0.0
 11
94.1357593381
 21
160.6477909258
 31
0.0
  0
LINE
  5
3C3
330
A
100
AcDbEntity
  8
1
  6
CONTINUOUS
370
    50
100
AcDbLine
 10
94.1357593381
 20
160.6477909258
 30
0.0
 11
94.5570459328
 21
160.8782346263
 31
0.0
  0
LINE
  5
3C4
330
A
100
AcDbEntity
  8
1
  6
CONTINUOUS
370
    50
100
AcDbLine
 10
94.5570459328
 20
160.8782346263
 30
0.0
 11
94.9685494798
 21
160.9015329548
 31
0.0
  0
LINE
  5
3C5
330
A
100
AcDbEntity
  8
1
  6
CONTINUOUS
370
    50
100
AcDbLine
 10
94.9685494798
 20
160.9015329548
 30
0.0
 11
95.3256771844
 21
160.7151611761
 31
0.0
  0
LINE
  5
3C6
330
A
100
AcDbEntity
  8
1
  6
CONTINUOUS
370
    50
100
AcDbLine
 10
95.3256771844
 20
160.7151611761
 30
0.0
 11
95.5897287187
 21
160.3393155641
 31
0.0
  0
LINE
  5
3C7
330
A
100
AcDbEntity
  8
1
  6
CONTINUOUS
370
    50
100
AcDbLine
 10
95.5897287187
 20
160.3393155641
 30
0.0
 11
95.7320900015
 21
159.8147248229
 31
0.0
  0
LINE
  5
3C8
330
A
100
AcDbEntity
  8
1
  6
CONTINUOUS
370
    50
100
AcDbLine
 10
95.7320900015
 20
159.8147248229
 30
0.0
 11
95.7373339791
 21
159.198236499
 31
0.0
  0
LINE
  5
3C9
330
A
100
AcDbEntity
  8
1
  6
CONTINUOUS
370
    50
100
AcDbLine
 10
95.7373339791
 20
159.198236499
 30
0.0
 11
95.6048923849
 21
158.5566566681
 31
0.0
  0
LINE
  5
3CA
330
A
100
AcDbEntity
  8
1
  6
CONTINUOUS
370
    50
100
AcDbLine
 10
95.6048923849
 20
158.5566566681
 30
0.0
 11
95.3491173209
 21
157.9595104601
 31
0.0
  0
LINE
  5
3CB
330
A
100
AcDbEntity
  8
1
  6
CONTINUOUS
370
    50
100
AcDbLine
 10
95.3491173209
 20
157.9595104601
 30
0.0
 11
94.9977259839
 21
157.4715079324
 31
0.0
  0
LINE
  5
3CC
330
A
100
AcDbEntity
  8
1
  6
CONTINUOUS
370
    50
100
AcDbLine
 10
94.9977259839
 20
157.4715079324
 30
0.0
 11
94.5887970777
 21
157.1455317308
 31
0.0
  0
LINE
  5
3CD
330
A
100
AcDbEntity
  8
1
  6
CONTINUOUS
370
    50
100
AcDbLine
 10
94.5887970777
 20
157.1455317308
 30
0.0
 11
94.1666443945
 21
157.0169064349
 31
0.0
  0
LINE
  5
3CE
330
A
100
AcDbEntity
  8
1
  6
CONTINUOUS
370
    50
100
AcDbLine
 10
94.1666443945
 20
157.0169064349
 30
0.0
 11
93.7770147279
 21
157.0995705914
 31
0.0
  0
LINE
  5
3CF
330
A
100
AcDbEntity
  8
1
  6
CONTINUOUS
370
    50
100
AcDbLine
 10
93.7770147279
 20
157.0995705914
 30
0.0
 11
93.462130498
 21
157.3845662561
 31
0.0
  0
LINE
  5
3D0
330
A
100
AcDbEntity
  8
1
  6
CONTINUOUS
370
    50
100
AcDbLine
 10
93.462130498
 20
157.3845662561
 30
0.0
 11
93.256114297
 21
157.8410097267
 31
0.0
  0
LINE
  5
3D1
330
A
100
AcDbEntity
  8
1
  6
CONTINUOUS
370
    50
100
AcDbLine
 10
85.0895753024
 20
161.302451664
 30
0.0
 11
85.0445626841
 21
160.6689405823
 31
0.0
  0
LINE
  5
3D2
330
A
100
AcDbEntity
  8
1
  6
CONTINUOUS
370
    50
100
AcDbLine
 10
85.0445626841
 20
160.6689405823
 30
0.0
 11
85.1386214718
 21
160.1040802563
 31
0.0
  0
LINE
  5
3D3
330
A
100
AcDbEntity
  8
1
  6
CONTINUOUS
370
    50
100
AcDbLine
 10
85.1386214718
 20
160.1040802563
 30
0.0
 11
85.3615589365
 21
159.6690820669
 31
0.0
  0
LINE
  5
3D4
330
A
100
AcDbEntity
  8
1
  6
CONTINUOUS
370
    50
100
AcDbLine
 10
85.3615589365
 20
159.6690820669
 30
0.0
 11
85.6892163445
 21
159.4110848177
 31
0.0
  0
LINE
  5
3D5
330
A
100
AcDbEntity
  8
1
  6
CONTINUOUS
370
    50
100
AcDbLine
 10
85.6892163445
 20
159.4110848177
 30
0.0
 11
86.0860869315
 21
159.3580465139
 31
0.0
  0
LINE
  5
3D6
330
A
100
AcDbEntity
  8
1
  6
CONTINUOUS
370
    50
100
AcDbLine
 10
86.0860869315
 20
159.3580465139
 30
0.0
 11
86.5091636115
 21
159.5157146786
 31
0.0
  0
LINE
  5
3D7
330
A
100
AcDbEntity
  8
1
  6
CONTINUOUS
370
    50
100
AcDbLine
 10
86.5091636115
 20
159.5157146786
 30
0.0
 11
86.9125994614
 21
159.8670035198
 31
0.0
  0
LINE
  5
3D8
330
A
100
AcDbEntity
  8
1
  6
CONTINUOUS
370
    50
100
AcDbLine
 10
86.9125994614
 20
159.8670035198
 30
0.0
 11
87.2526759469
 21
160.3738454407
 31
0.0
  0
LINE
  5
3D9
330
A
100
AcDbEntity
  8
1
  6
CONTINUOUS
370
    50
100
AcDbLine
 10
87.2526759469
 20
160.3738454407
 30
0.0
 11
87.492540504
 21
160.9813162548
 31
0.0
  0
LINE
  5
3DA
330
A
100
AcDbEntity
  8
1
  6
CONTINUOUS
370
    50
100
AcDbLine
 10
87.492540504
 20
160.9813162548
 30
0.0
 11
87.606200086
 21
161.6235870733
 31
0.0
  0
LINE
  5
3DB
330
A
100
AcDbEntity
  8
1
  6
CONTINUOUS
370
    50
100
AcDbLine
 10
87.606200086
 20
161.6235870733
 30
0.0
 11
87.5813379136
 21
162.2310578873
 31
0.0
  0
LINE
  5
3DC
330
A
100
AcDbEntity
  8
1
  6
CONTINUOUS
370
    50
100
AcDbLine
 10
87.5813379136
 20
162.2310578873
 30
0.0
 11
87.420648189
 21
162.7378998082
 31
0.0
  0
LINE
  5
3DD
330
A
100
AcDbEntity
  8
1
  6
CONTINUOUS
370
    50
100
AcDbLine
 10
87.420648189
 20
162.7378998082
 30
0.0
 11
87.1415441373
 21
163.0891886494
 31
0.0
  0
LINE
  5
3DE
330
A
100
AcDbEntity
  8
1
  6
CONTINUOUS
370
    50
100
AcDbLine
 10
87.1415441373
 20
163.0891886494
 30
0.0
 11
86.774271013
 21
163.2468568142
 31
0.0
  0
LINE
  5
3DF
330
A
100
AcDbEntity
  8
1
  6
CONTINUOUS
370
    50
100
AcDbLine
 10
86.774271013
 20
163.2468568142
 30
0.0
 11
86.3586285581
 21
163.1938185104
 31
0.0
  0
LINE
  5
3E0
330
A
100
AcDbEntity
  8
1
  6
CONTINUOUS
370
    50
100
AcDbLine
 10
86.3586285581
 20
163.1938185104
 30
0.0
 11
85.939658082
 21
162.9358212612
 31
0.0
  0
LINE
  5
3E1
330
A
100
AcDbEntity
  8
1
  6
CONTINUOUS
370
    50
100
AcDbLine
 10
85.939658082
 20
162.9358212612
 30
0.0
 11
85.5627615367
 21
162.5008230718
 31
0.0
  0
LINE
  5
3E2
330
A
100
AcDbEntity
  8
1
  6
CONTINUOUS
370
    50
100
AcDbLine
 10
85.5627615367
 20
162.5008230718
 30
0.0
 11
85.268781511
 21
161.9359627457
 31
0.0
  0
LINE
  5
3E3
330
A
100
AcDbEntity
  8
1
  6
CONTINUOUS
370
    50
100
AcDbLine
 10
85.268781511
 20
161.9359627457
 30
0.0
 11
85.0895753024
 21
161.302451664
 31
0.0
  0
LINE
  5
3E4
330
A
100
AcDbEntity
  8
1
  6
CONTINUOUS
370
    50
100
AcDbLine
 10
43.4633681338
 20
175.516307229
 30
0.0
 11
18.4286458088
 21
175.516307229
 31
0.0
  0
LINE
  5
3E5
330
A
100
AcDbEntity
  8
1
  6
CONTINUOUS
370
    50
100
AcDbLine
 10
18.4286458088
 20
159.516307229
 30
0.0
 11
43.4633681338
 21
159.516307229
 31
0.0
  0
LINE
  5
3E6
330
A
100
AcDbEntity
  8
1
  6
CONTINUOUS
370
    50
100
AcDbLine
 10
43.4633681338
 20
175.516307229
 30
0.0
 11
43.4633681338
 21
175.4889831731
 31
0.0
  0
LINE
  5
3E7
330
A
100
AcDbEntity
  8
1
  6
CONTINUOUS
370
    50
100
AcDbLine
 10
43.4633681338
 20
175.4889831731
 30
0.0
 11
43.4633681338
 21
159.516307229
 31
0.0
  0
LINE
  5
3E8
330
A
100
AcDbEntity
  8
1
  6
CONTINUOUS
370
    50
100
AcDbLine
 10
161.7967438068
 20
170.516307229
 30
0.0
 11
148.9967438068
 21
170.516307229
 31
0.0
  0
LINE
  5
3E9
330
A
100
AcDbEntity
  8
1
  6
CONTINUOUS
370
    50
100
AcDbLine
 10
148.9967438068
 20
164.516307229
 30
0.0
 11
161.7967438068
 21
164.516307229
 31
0.0
  0
LINE
  5
3EA
330
A
100
AcDbEntity
  8
1
  6
CONTINUOUS
370
    50
100
AcDbLine
 10
161.7967438068
 20
170.516307229
 30
0.0
 11
161.7967438068
 21
170.5093135366
 31
0.0
  0
LINE
  5
3EB
330
A
100
AcDbEntity
  8
1
  6
CONTINUOUS
370
    50
100
AcDbLine
 10
161.7967438068
 20
170.5093135366
 30
0.0
 11
161.7967438068
 21
164.516307229
 31
0.0
  0
ENDSEC
  0
SECTION
  2
OBJECTS
  0
DICTIONARY
  5
19
330
0
100
AcDbDictionary
281
     1
  3
ACAD_GROUP
350
1A
  3
ACAD_LAYOUT
350
410
  3
ACAD_MATERIAL
350
424
  3
ACAD_MLEADERSTYLE
350
42C
  3
ACAD_MLINESTYLE
350
1B
  3
ACAD_SCALELIST
350
3EE
  3
ACAD_VISUALSTYLE
350
413
  3
ACDB_RECOMPOSE_DATA
350
459
  3
AcDbVariableDictionary
350
42A
  0
DICTIONARY
  5
430
330
7
100
AcDbDictionary
280
     1
281
     1
  3
ACAD_XREC_ROUNDTRIP
360
431
  0
DICTIONARY
  5
1A
102
{ACAD_REACTORS
330
19
102
}
330
19
100
AcDbDictionary
281
     1
  0
DICTIONARY
  5
410
102
{ACAD_REACTORS
330
19
102
}
330
19
100
AcDbDictionary
281
     1
  3
Layout1
350
412
  3
Model
350
411
  0
DICTIONARY
  5
424
102
{ACAD_REACTORS
330
19
102
}
330
19
100
AcDbDictionary
281
     1
  3
ByBlock
350
426
  3
ByLayer
350
425
  3
Global
350
427
  0
DICTIONARY
  5
42C
102
{ACAD_REACTORS
330
19
102
}
330
19
100
AcDbDictionary
281
     1
  0
DICTIONARY
  5
1B
102
{ACAD_REACTORS
330
19
102
}
330
19
100
AcDbDictionary
281
     1
  3
STANDARD
350
1C
  0
DICTIONARY
  5
3EE
102
{ACAD_REACTORS
330
19
102
}
330
19
100
AcDbDictionary
281
     1
  3
A0
350
3EF
  3
A1
350
3F0
  3
A2
350
3F1
  3
A3
350
3F2
  3
A4
350
3F3
  3
A5
350
3F4
  3
A6
350
3F5
  3
A7
350
3F6
  3
A8
350
3F7
  3
A9
350
3F8
  3
B0
350
3F9
  3
B1
350
3FA
  3
B2
350
3FB
  3
B3
350
3FC
  3
B4
350
3FD
  3
B5
350
3FE
  3
B6
350
3FF
  3
B7
350
400
  3
B8
350
401
  3
B9
350
402
  3
C0
350
403
  3
C1
350
404
  3
C2
350
405
  3
C3
350
406
  3
C4
350
407
  3
C5
350
408
  3
C6
350
409
  3
C7
350
40A
  3
C8
350
40B
  3
C9
350
40C
  3
D0
350
40D
  3
D1
350
40E
  3
D2
350
40F
  0
DICTIONARY
  5
413
102
{ACAD_REACTORS
330
19
102
}
330
19
100
AcDbDictionary
281
     1
  3
2dWireframe
350
418
  3
3D Hidden
350
41A
  3
3dWireframe
350
419
  3
Basic
350
41B
  3
Brighten
350
41F
  3
ColorChange
350
423
  3
Conceptual
350
41D
  3
Dim
350
41E
  3
Facepattern
350
422
  3
Flat
350
414
  3
FlatWithEdges
350
415
  3
Gouraud
350
416
  3
GouraudWithEdges
350
417
  3
Linepattern
350
421
  3
Realistic
350
41C
  3
Thicken
350
420
  0
XRECORD
  5
459
102
{ACAD_REACTORS
330
19
102
}
330
19
100
AcDbXrecord
280
     1
  0
DICTIONARY
  5
42A
102
{ACAD_REACTORS
330
19
102
}
330
19
100
AcDbDictionary
281
     1
  3
CANNOSCALE
350
432
  3
DIMASSOC
350
42E
  3
HIDETEXT
350
42F
  3
MSLTSCALE
350
42D
  0
XRECORD
  5
431
102
{ACAD_REACTORS
330
430
102
}
330
430
100
AcDbXrecord
280
     1
102
VTR_0.000_0.000_1.000_1.000_VISUALSTYLE
340
418
102
VTR_0.000_0.000_1.000_1.000_GRIDDISPLAY
 70
     3
102
VTR_0.000_0.000_1.000_1.000_GRIDMAJOR
 70
     5
102
VTR_0.000_0.000_1.000_1.000_DEFAULTLIGHTING
280
     1
102
VTR_0.000_0.000_1.000_1.000_DEFAULTLIGHTINGTYPE
 70
     1
102
VTR_0.000_0.000_1.000_1.000_BRIGHTNESS
141
0.0
102
VTR_0.000_0.000_1.000_1.000_CONTRAST
142
0.0
  0
LAYOUT
  5
412
102
{ACAD_REACTORS
330
410
102
}
330
410
100
AcDbPlotSettings
  1

  2
none_device
  4

  6

 40
0.0
 41
0.0
 42
0.0
 43
0.0
 44
0.0
 45
0.0
 46
0.0
 47
0.0
 48
0.0
 49
0.0
140
0.0
141
0.0
142
1.0
143
1.0
 70
   688
 72
     0
 73
     0
 74
     5
  7

 75
    16
147
1.0
148
0.0
149
0.0
100
AcDbLayout
  1
Layout1
 70
     1
 71
     1
 10
0.0
 20
0.0
 11
12.0
 21
9.0
 12
0.0
 22
0.0
 32
0.0
 14
1.000000000000000E+20
 24
1.000000000000000E+20
 34
1.000000000000000E+20
 15
-1.000000000000000E+20
 25
-1.000000000000000E+20
 35
-1.000000000000000E+20
146
0.0
 13
0.0
 23
0.0
 33
0.0
 16
1.0
 26
0.0
 36
0.0
 17
0.0
 27
1.0
 37
0.0
 76
     0
330
B
  0
LAYOUT
  5
411
102
{ACAD_REACTORS
330
410
102
}
330
410
100
AcDbPlotSettings
  1

  2
none_device
  4

  6

 40
0.0
 41
0.0
 42
0.0
 43
0.0
 44
0.0
 45
0.0
 46
0.0
 47
0.0
 48
0.0
 49
0.0
140
0.0
141
0.0
142
1.0
143
1.0
 70
  1712
 72
     0
 73
     0
 74
     0
  7

 75
     0
147
1.0
148
2667.54428576817
149
0.0
100
AcDbLayout
  1
Model
 70
     1
 71
     0
 10
0.0
 20
0.0
 11
0.0
 21
0.0
 12
0.0
 22
0.0
 32
0.0
 14
0.0
 24
0.0
 34
0.0
 15
210.0
 25
297.0
 35
0.0
146
0.0
 13
0.0
 23
0.0
 33
0.0
 16
1.0
 26
0.0
 36
0.0
 17
0.0
 27
1.0
 37
0.0
 76
     0
330
A
331
15
  0
MATERIAL
  5
426
102
{ACAD_REACTORS
330
424
102
}
102
{ACAD_XDICTIONARY
360
455
102
}
330
424
100
AcDbMaterial
  1
ByBlock
  0
MATERIAL
  5
425
102
{ACAD_REACTORS
330
424
102
}
102
{ACAD_XDICTIONARY
360
453
102
}
330
424
100
AcDbMaterial
  1
ByLayer
  0
MATERIAL
  5
427
102
{ACAD_REACTORS
330
424
102
}
102
{ACAD_XDICTIONARY
360
457
102
}
330
424
100
AcDbMaterial
  1
Global
  0
MLINESTYLE
  5
1C
102
{ACAD_REACTORS
330
1B
102
}
330
1B
100
AcDbMlineStyle
  2
STANDARD
 70
     0
  3

 62
     0
 51
90.0
 52
90.0
 71
     2
 49
0.5
 62
   256
  6
BYLAYER
 49
-0.5
 62
   256
  6
BYLAYER
  0
SCALE
  5
3EF
102
{ACAD_REACTORS
330
3EE
102
}
330
3EE
100
AcDbScale
 70
     0
300
1:1
140
1.0
141
1.0
290
     1
  0
SCALE
  5
3F0
102
{ACAD_REACTORS
330
3EE
102
}
330
3EE
100
AcDbScale
 70
     0
300
1:2
140
1.0
141
2.0
290
     0
  0
SCALE
  5
3F1
102
{ACAD_REACTORS
330
3EE
102
}
330
3EE
100
AcDbScale
 70
     0
300
1:4
140
1.0
141
4.0
290
     0
  0
SCALE
  5
3F2
102
{ACAD_REACTORS
330
3EE
102
}
330
3EE
100
AcDbScale
 70
     0
300
1:5
140
1.0
141
5.0
290
     0
  0
SCALE
  5
3F3
102
{ACAD_REACTORS
330
3EE
102
}
330
3EE
100
AcDbScale
 70
     0
300
1:8
140
1.0
141
8.0
290
     0
  0
SCALE
  5
3F4
102
{ACAD_REACTORS
330
3EE
102
}
330
3EE
100
AcDbScale
 70
     0
300
1:10
140
1.0
141
10.0
290
     0
  0
SCALE
  5
3F5
102
{ACAD_REACTORS
330
3EE
102
}
330
3EE
100
AcDbScale
 70
     0
300
1:16
140
1.0
141
16.0
290
     0
  0
SCALE
  5
3F6
102
{ACAD_REACTORS
330
3EE
102
}
330
3EE
100
AcDbScale
 70
     0
300
1:20
140
1.0
141
20.0
290
     0
  0
SCALE
  5
3F7
102
{ACAD_REACTORS
330
3EE
102
}
330
3EE
100
AcDbScale
 70
     0
300
1:30
140
1.0
141
30.0
290
     0
  0
SCALE
  5
3F8
102
{ACAD_REACTORS
330
3EE
102
}
330
3EE
100
AcDbScale
 70
     0
300
1:40
140
1.0
141
40.0
290
     0
  0
SCALE
  5
3F9
102
{ACAD_REACTORS
330
3EE
102
}
330
3EE
100
AcDbScale
 70
     0
300
1:50
140
1.0
141
50.0
290
     0
  0
SCALE
  5
3FA
102
{ACAD_REACTORS
330
3EE
102
}
330
3EE
100
AcDbScale
 70
     0
300
1:100
140
1.0
141
100.0
290
     0
  0
SCALE
  5
3FB
102
{ACAD_REACTORS
330
3EE
102
}
330
3EE
100
AcDbScale
 70
     0
300
2:1
140
2.0
141
1.0
290
     0
  0
SCALE
  5
3FC
102
{ACAD_REACTORS
330
3EE
102
}
330
3EE
100
AcDbScale
 70
     0
300
4:1
140
4.0
141
1.0
290
     0
  0
SCALE
  5
3FD
102
{ACAD_REACTORS
330
3EE
102
}
330
3EE
100
AcDbScale
 70
     0
300
8:1
140
8.0
141
1.0
290
     0
  0
SCALE
  5
3FE
102
{ACAD_REACTORS
330
3EE
102
}
330
3EE
100
AcDbScale
 70
     0
300
10:1
140
10.0
141
1.0
290
     0
  0
SCALE
  5
3FF
102
{ACAD_REACTORS
330
3EE
102
}
330
3EE
100
AcDbScale
 70
     0
300
100:1
140
100.0
141
1.0
290
     0
  0
SCALE
  5
400
102
{ACAD_REACTORS
330
3EE
102
}
330
3EE
100
AcDbScale
 70
     0
300
1/128" = 1'-0"
140
0.0078125
141
12.0
290
     0
  0
SCALE
  5
401
102
{ACAD_REACTORS
330
3EE
102
}
330
3EE
100
AcDbScale
 70
     0
300
1/64" = 1'-0"
140
0.015625
141
12.0
290
     0
  0
SCALE
  5
402
102
{ACAD_REACTORS
330
3EE
102
}
330
3EE
100
AcDbScale
 70
     0
300
1/32" = 1'-0"
140
0.03125
141
12.0
290
     0
  0
SCALE
  5
403
102
{ACAD_REACTORS
330
3EE
102
}
330
3EE
100
AcDbScale
 70
     0
300
1/16" = 1'-0"
140
0.0625
141
12.0
290
     0
  0
SCALE
  5
404
102
{ACAD_REACTORS
330
3EE
102
}
330
3EE
100
AcDbScale
 70
     0
300
3/32" = 1'-0"
140
0.09375
141
12.0
290
     0
  0
SCALE
  5
405
102
{ACAD_REACTORS
330
3EE
102
}
330
3EE
100
AcDbScale
 70
     0
300
1/8" = 1'-0"
140
0.125
141
12.0
290
     0
  0
SCALE
  5
406
102
{ACAD_REACTORS
330
3EE
102
}
330
3EE
100
AcDbScale
 70
     0
300
3/16" = 1'-0"
140
0.1875
141
12.0
290
     0
  0
SCALE
  5
407
102
{ACAD_REACTORS
330
3EE
102
}
330
3EE
100
AcDbScale
 70
     0
300
1/4" = 1'-0"
140
0.25
141
12.0
290
     0
  0
SCALE
  5
408
102
{ACAD_REACTORS
330
3EE
102
}
330
3EE
100
AcDbScale
 70
     0
300
3/8" = 1'-0"
140
0.375
141
12.0
290
     0
  0
SCALE
  5
409
102
{ACAD_REACTORS
330
3EE
102
}
330
3EE
100
AcDbScale
 70
     0
300
1/2" = 1'-0"
140
0.5
141
12.0
290
     0
  0
SCALE
  5
40A
102
{ACAD_REACTORS
330
3EE
102
}
330
3EE
100
AcDbScale
 70
     0
300
3/4" = 1'-0"
140
0.75
141
12.0
290
     0
  0
SCALE
  5
40B
102
{ACAD_REACTORS
330
3EE
102
}
330
3EE
100
AcDbScale
 70
     0
300
1" = 1'-0"
140
1.0
141
12.0
290
     0
  0
SCALE
  5
40C
102
{ACAD_REACTORS
330
3EE
102
}
330
3EE
100
AcDbScale
 70
     0
300
1-1/2" = 1'-0"
140
1.5
141
12.0
290
     0
  0
SCALE
  5
40D
102
{ACAD_REACTORS
330
3EE
102
}
330
3EE
100
AcDbScale
 70
     0
300
3" = 1'-0"
140
3.0
141
12.0
290
     0
  0
SCALE
  5
40E
102
{ACAD_REACTORS
330
3EE
102
}
330
3EE
100
AcDbScale
 70
     0
300
6" = 1'-0"
140
6.0
141
12.0
290
     0
  0
SCALE
  5
40F
102
{ACAD_REACTORS
330
3EE
102
}
330
3EE
100
AcDbScale
 70
     0
300
1'-0" = 1'-0"
140
12.0
141
12.0
290
     0
  0
VISUALSTYLE
  5
418
102
{ACAD_REACTORS
330
413
102
}
102
{ACAD_XDICTIONARY
360
43B
102
}
330
413
100
AcDbVisualStyle
  2
2dWireframe
 70
     4
 71
     0
 72
     2
 73
     0
 90
        0
 40
-0.6
 41
-30.0
 62
     5
 63
     7
 74
     1
 91
        4
 64
     7
 65
   257
 75
     1
175
     1
 42
1.0
 92
        0
 66
   257
 43
1.0
 76
     1
 77
     6
 78
     2
 67
     7
 79
     5
170
     0
171
     0
290
     0
174
     0
 93
        1
 44
0.0
173
     0
291
     0
 45
0.0
1001
ACAD
1000
AcDbSavedByObjectVersion
1070
     0
  0
VISUALSTYLE
  5
41A
102
{ACAD_REACTORS
330
413
102
}
102
{ACAD_XDICTIONARY
360
43F
102
}
330
413
100
AcDbVisualStyle
  2
3D Hidden
 70
     6
 71
     1
 72
     2
 73
     2
 90
        0
 40
-0.6
 41
-30.0
 62
     5
 63
     7
 74
     2
 91
        2
 64
     7
 65
   257
 75
     2
175
     1
 42
40.0
 92
        0
 66
   257
 43
1.0
 76
     1
 77
     6
 78
     2
 67
     7
 79
     3
170
     0
171
     0
290
     0
174
     0
 93
        1
 44
0.0
173
     0
291
     0
 45
0.0
1001
ACAD
1000
AcDbSavedByObjectVersion
1070
     0
  0
VISUALSTYLE
  5
419
102
{ACAD_REACTORS
330
413
102
}
102
{ACAD_XDICTIONARY
360
43D
102
}
330
413
100
AcDbVisualStyle
  2
3dWireframe
 70
     5
 71
     0
 72
     2
 73
     0
 90
        0
 40
-0.6
 41
-30.0
 62
     5
 63
     7
 74
     1
 91
        4
 64
     7
 65
   257
 75
     1
175
     1
 42
1.0
 92
        0
 66
   257
 43
1.0
 76
     1
 77
     6
 78
     2
 67
     7
 79
     5
170
     0
171
     0
290
     0
174
     0
 93
        1
 44
0.0
173
     0
291
     0
 45
0.0
1001
ACAD
1000
AcDbSavedByObjectVersion
1070
     0
  0
VISUALSTYLE
  5
41B
102
{ACAD_REACTORS
330
413
102
}
102
{ACAD_XDICTIONARY
360
441
102
}
330
413
100
AcDbVisualStyle
  2
Basic
 70
     7
 71
     1
 72
     0
 73
     1
 90
        0
 40
-0.6
 41
-30.0
 62
     5
 63
     7
 74
     0
 91
        4
 64
     7
 65
   257
 75
     1
175
     1
 42
1.0
 92
        8
 66
     7
 43
1.0
 76
     1
 77
     6
 78
     2
 67
     7
 79
     5
170
     0
171
     0
290
     0
174
     0
 93
        1
 44
0.0
173
     0
291
     1
 45
0.0
1001
ACAD
1000
AcDbSavedByObjectVersion
1070
     0
  0
VISUALSTYLE
  5
41F
102
{ACAD_REACTORS
330
413
102
}
102
{ACAD_XDICTIONARY
360
449
102
}
330
413
100
AcDbVisualStyle
  2
Brighten
 70
    12
 71
     2
 72
     2
 73
     0
 90
        0
 40
-0.6
 41
-30.0
 62
     5
 63
     7
 74
     1
 91
        4
 64
     7
 65
   257
 75
     1
175
     1
 42
1.0
 92
        8
 66
     7
 43
1.0
 76
     1
 77
     6
 78
     2
 67
     7
 79
     5
170
     0
171
     0
290
     0
174
     0
 93
        1
 44
50.0
173
     0
291
     1
 45
0.0
1001
ACAD
1000
AcDbSavedByObjectVersion
1070
     0
  0
VISUALSTYLE
  5
423
102
{ACAD_REACTORS
330
413
102
}
102
{ACAD_XDICTIONARY
360
451
102
}
330
413
100
AcDbVisualStyle
  2
ColorChange
 70
    16
 71
     2
 72
     2
 73
     3
 90
        0
 40
-0.6
 41
-30.0
 62
     5
 63
     8
 74
     1
 91
        4
 64
     7
 65
   257
 75
     1
175
     1
 42
1.0
 92
        8
 66
     8
 43
1.0
 76
     1
 77
     6
 78
     2
 67
     7
 79
     5
170
     0
171
     0
290
     0
174
     0
 93
        1
 44
0.0
173
     0
291
     1
 45
0.0
1001
ACAD
1000
AcDbSavedByObjectVersion
1070
     0
  0
VISUALSTYLE
  5
41D
102
{ACAD_REACTORS
330
413
102
}
102
{ACAD_XDICTIONARY
360
445
102
}
330
413
100
AcDbVisualStyle
  2
Conceptual
 70
     9
 71
     3
 72
     2
 73
     0
 90
        0
 40
-0.6
 41
-30.0
 62
     5
 63
     7
 74
     2
 91
        2
 64
     7
 65
   257
 75
     1
175
     1
 42
40.0
 92
        8
 66
     7
 43
1.0
 76
     1
 77
     6
 78
     2
 67
     7
 79
     3
170
     0
171
     0
290
     0
174
     0
 93
        1
 44
0.0
173
     0
291
     0
 45
0.0
1001
ACAD
1000
AcDbSavedByObjectVersion
1070
     0
  0
VISUALSTYLE
  5
41E
102
{ACAD_REACTORS
330
413
102
}
102
{ACAD_XDICTIONARY
360
447
102
}
330
413
100
AcDbVisualStyle
  2
Dim
 70
    11
 71
     2
 72
     2
 73
     0
 90
        0
 40
-0.6
 41
-30.0
 62
     5
 63
     7
 74
     1
 91
        4
 64
     7
 65
   257
 75
     1
175
     1
 42
1.0
 92
        8
 66
     7
 43
1.0
 76
     1
 77
     6
 78
     2
 67
     7
 79
     5
170
     0
171
     0
290
     0
174
     0
 93
        1
 44
-50.0
173
     0
291
     1
 45
0.0
1001
ACAD
1000
AcDbSavedByObjectVersion
1070
     0
  0
VISUALSTYLE
  5
422
102
{ACAD_REACTORS
330
413
102
}
102
{ACAD_XDICTIONARY
360
44F
102
}
330
413
100
AcDbVisualStyle
  2
Facepattern
 70
    15
 71
     2
 72
     2
 73
     0
 90
        0
 40
-0.6
 41
-30.0
 62
     5
 63
     7
 74
     1
 91
        4
 64
     7
 65
   257
 75
     1
175
     1
 42
1.0
 92
        8
 66
     7
 43
1.0
 76
     1
 77
     6
 78
     2
 67
     7
 79
     5
170
     0
171
     0
290
     0
174
     0
 93
        1
 44
0.0
173
     0
291
     1
 45
0.0
1001
ACAD
1000
AcDbSavedByObjectVersion
1070
     0
  0
VISUALSTYLE
  5
414
102
{ACAD_REACTORS
330
413
102
}
102
{ACAD_XDICTIONARY
360
433
102
}
330
413
100
AcDbVisualStyle
  2
Flat
 70
     0
 71
     2
 72
     1
 73
     1
 90
        2
 40
-0.6
 41
30.0
 62
     5
 63
     7
 74
     0
 91
        4
 64
     7
 65
   257
 75
     1
175
     1
 42
1.0
 92
        8
 66
     7
 43
1.0
 76
     1
 77
     6
 78
     2
 67
     7
 79
     5
170
     0
171
     0
290
     0
174
     0
 93
       13
 44
0.0
173
     0
291
     1
 45
0.0
1001
ACAD
1000
AcDbSavedByObjectVersion
1070
     0
  0
VISUALSTYLE
  5
415
102
{ACAD_REACTORS
330
413
102
}
102
{ACAD_XDICTIONARY
360
435
102
}
330
413
100
AcDbVisualStyle
  2
FlatWithEdges
 70
     1
 71
     2
 72
     1
 73
     1
 90
        2
 40
-0.6
 41
30.0
 62
     5
 63
     7
 74
     1
 91
        4
 64
     7
 65
   257
 75
     1
175
     1
 42
1.0
 92
        0
 66
   257
 43
1.0
 76
     1
 77
     6
 78
     2
 67
     7
 79
     5
170
     0
171
     0
290
     0
174
     0
 93
       13
 44
0.0
173
     0
291
     1
 45
0.0
1001
ACAD
1000
AcDbSavedByObjectVersion
1070
     0
  0
VISUALSTYLE
  5
416
102
{ACAD_REACTORS
330
413
102
}
102
{ACAD_XDICTIONARY
360
437
102
}
330
413
100
AcDbVisualStyle
  2
Gouraud
 70
     2
 71
     2
 72
     2
 73
     1
 90
        2
 40
-0.6
 41
30.0
 62
     5
 63
     7
 74
     0
 91
        4
 64
     7
 65
   257
 75
     1
175
     1
 42
1.0
 92
        0
 66
     7
 43
1.0
 76
     1
 77
     6
 78
     2
 67
     7
 79
     5
170
     0
171
     0
290
     0
174
     0
 93
       13
 44
0.0
173
     0
291
     1
 45
0.0
1001
ACAD
1000
AcDbSavedByObjectVersion
1070
     0
  0
VISUALSTYLE
  5
417
102
{ACAD_REACTORS
330
413
102
}
102
{ACAD_XDICTIONARY
360
439
102
}
330
413
100
AcDbVisualStyle
  2
GouraudWithEdges
 70
     3
 71
     2
 72
     2
 73
     1
 90
        2
 40
-0.6
 41
30.0
 62
     5
 63
     7
 74
     1
 91
        4
 64
     7
 65
   257
 75
     1
175
     1
 42
1.0
 92
        0
 66
   257
 43
1.0
 76
     1
 77
     6
 78
     2
 67
     7
 79
     5
170
     0
171
     0
290
     0
174
     0
 93
       13
 44
0.0
173
     0
291
     1
 45
0.0
1001
ACAD
1000
AcDbSavedByObjectVersion
1070
     0
  0
VISUALSTYLE
  5
421
102
{ACAD_REACTORS
330
413
102
}
102
{ACAD_XDICTIONARY
360
44D
102
}
330
413
100
AcDbVisualStyle
  2
Linepattern
 70
    14
 71
     2
 72
     2
 73
     0
 90
        0
 40
-0.6
 41
-30.0
 62
     5
 63
     7
 74
     1
 91
        4
 64
     7
 65
   257
 75
     7
175
     7
 42
1.0
 92
        8
 66
     7
 43
1.0
 76
     1
 77
     6
 78
     2
 67
     7
 79
     5
170
     0
171
     0
290
     0
174
     0
 93
        1
 44
0.0
173
     0
291
     1
 45
0.0
1001
ACAD
1000
AcDbSavedByObjectVersion
1070
     0
  0
VISUALSTYLE
  5
41C
102
{ACAD_REACTORS
330
413
102
}
102
{ACAD_XDICTIONARY
360
443
102
}
330
413
100
AcDbVisualStyle
  2
Realistic
 70
     8
 71
     2
 72
     2
 73
     0
 90
        0
 40
-0.6
 41
-30.0
 62
     5
 63
     7
 74
     1
 91
        0
 64
     7
 65
   257
 75
     1
175
     1
 42
1.0
 92
        8
 66
     8
 43
1.0
 76
     1
 77
     6
 78
     2
 67
     7
 79
     5
170
     0
171
     0
290
     0
174
     0
 93
       13
 44
0.0
173
     0
291
     0
 45
0.0
1001
ACAD
1000
AcDbSavedByObjectVersion
1070
     0
  0
VISUALSTYLE
  5
420
102
{ACAD_REACTORS
330
413
102
}
102
{ACAD_XDICTIONARY
360
44B
102
}
330
413
100
AcDbVisualStyle
  2
Thicken
 70
    13
 71
     2
 72
     2
 73
     0
 90
        0
 40
-0.6
 41
-30.0
 62
     5
 63
     7
 74
     1
 91
        4
 64
     7
 65
   257
 75
     1
175
     1
 42
1.0
 92
       12
 66
     7
 43
1.0
 76
     1
 77
     6
 78
     2
 67
     7
 79
     5
170
     0
171
     0
290
     0
174
     0
 93
        1
 44
0.0
173
     0
291
     1
 45
0.0
1001
ACAD
1000
AcDbSavedByObjectVersion
1070
     0
  0
DICTIONARYVAR
  5
432
102
{ACAD_REACTORS
330
42A
102
}
330
42A
100
DictionaryVariables
280
     0
  1
1:1
  0
DICTIONARYVAR
  5
42E
102
{ACAD_REACTORS
330
42A
102
}
330
42A
100
DictionaryVariables
280
     0
  1
2
  0
DICTIONARYVAR
  5
42F
102
{ACAD_REACTORS
330
42A
102
}
330
42A
100
DictionaryVariables
280
     0
  1
1
  0
DICTIONARYVAR
  5
42D
102
{ACAD_REACTORS
330
42A
102
}
330
42A
100
DictionaryVariables
280
     0
  1
0
  0
DICTIONARY
  5
455
330
426
100
AcDbDictionary
280
     1
281
     1
  3
ACAD_XREC_ROUNDTRIP
360
456
  0
DICTIONARY
  5
453
330
425
100
AcDbDictionary
280
     1
281
     1
  3
ACAD_XREC_ROUNDTRIP
360
454
  0
DICTIONARY
  5
457
330
427
100
AcDbDictionary
280
     1
281
     1
  3
ACAD_XREC_ROUNDTRIP
360
458
  0
DICTIONARY
  5
43B
330
418
100
AcDbDictionary
280
     1
281
     1
  3
ACAD_XREC_ROUNDTRIP
360
43C
  0
DICTIONARY
  5
43F
330
41A
100
AcDbDictionary
280
     1
281
     1
  3
ACAD_XREC_ROUNDTRIP
360
440
  0
DICTIONARY
  5
43D
330
419
100
AcDbDictionary
280
     1
281
     1
  3
ACAD_XREC_ROUNDTRIP
360
43E
  0
DICTIONARY
  5
441
330
41B
100
AcDbDictionary
280
     1
281
     1
  3
ACAD_XREC_ROUNDTRIP
360
442
  0
DICTIONARY
  5
449
330
41F
100
AcDbDictionary
280
     1
281
     1
  3
ACAD_XREC_ROUNDTRIP
360
44A
  0
DICTIONARY
  5
451
330
423
100
AcDbDictionary
280
     1
281
     1
  3
ACAD_XREC_ROUNDTRIP
360
452
  0
DICTIONARY
  5
445
330
41D
100
AcDbDictionary
280
     1
281
     1
  3
ACAD_XREC_ROUNDTRIP
360
446
  0
DICTIONARY
  5
447
330
41E
100
AcDbDictionary
280
     1
281
     1
  3
ACAD_XREC_ROUNDTRIP
360
448
  0
DICTIONARY
  5
44F
330
422
100
AcDbDictionary
280
     1
281
     1
  3
ACAD_XREC_ROUNDTRIP
360
450
  0
DICTIONARY
  5
433
330
414
100
AcDbDictionary
280
     1
281
     1
  3
ACAD_XREC_ROUNDTRIP
360
434
  0
DICTIONARY
  5
435
330
415
100
AcDbDictionary
280
     1
281
     1
  3
ACAD_XREC_ROUNDTRIP
360
436
  0
DICTIONARY
  5
437
330
416
100
AcDbDictionary
280
     1
281
     1
  3
ACAD_XREC_ROUNDTRIP
360
438
  0
DICTIONARY
  5
439
330
417
100
AcDbDictionary
280
     1
281
     1
  3
ACAD_XREC_ROUNDTRIP
360
43A
  0
DICTIONARY
  5
44D
330
421
100
AcDbDictionary
280
     1
281
     1
  3
ACAD_XREC_ROUNDTRIP
360
44E
  0
DICTIONARY
  5
443
330
41C
100
AcDbDictionary
280
     1
281
     1
  3
ACAD_XREC_ROUNDTRIP
360
444
  0
DICTIONARY
  5
44B
330
420
100
AcDbDictionary
280
     1
281
     1
  3
ACAD_XREC_ROUNDTRIP
360
44C
  0
XRECORD
  5
456
102
{ACAD_REACTORS
330
455
102
}
330
455
100
AcDbXrecord
280
     1
102
MATERIAL
148
0.0
149
0.0
149
0.0
 93
        0
 94
      127
282
     0
 72
     1
 77
     1
171
     1
175
     1
179
     1
273
     0
  0
XRECORD
  5
454
102
{ACAD_REACTORS
330
453
102
}
330
453
100
AcDbXrecord
280
     1
102
MATERIAL
148
0.0
149
0.0
149
0.0
 93
        0
 94
      127
282
     0
 72
     1
 77
     1
171
     1
175
     1
179
     1
273
     0
  0
XRECORD
  5
458
102
{ACAD_REACTORS
330
457
102
}
330
457
100
AcDbXrecord
280
     1
102
MATERIAL
148
0.0
149
0.0
149
0.0
 93
        0
 94
      127
282
     0
 72
     1
 77
     1
171
     1
175
     1
179
     1
273
     0
  0
XRECORD
  5
43C
102
{ACAD_REACTORS
330
43B
102
}
330
43B
100
AcDbXrecord
280
     1
102
RTVSPropertyOp0
 70
     1
102
RTVSPropertyOp1
 70
     1
102
RTVSPropertyOp2
 70
     1
102
RTVSPropertyOp3
 70
     1
102
RTVSPropertyOp4
 70
     1
102
RTVSPropertyOp5
 70
     1
102
RTVSPropertyOp6
 70
     1
102
RTVSPropertyOp7
 70
     1
102
RTVSPropertyOp8
 70
     1
102
RTVSPropertyOp9
 70
     1
102
RTVSPropertyOp10
 70
     1
102
RTVSPropertyOp11
 70
     1
102
RTVSPropertyOp12
 70
     1
102
RTVSPropertyOp13
 70
     1
102
RTVSPropertyOp14
 70
     1
102
RTVSPropertyOp15
 70
     1
102
RTVSPropertyOp16
 70
     1
102
RTVSPropertyOp17
 70
     1
102
RTVSPropertyOp18
 70
     1
102
RTVSPropertyOp19
 70
     1
102
RTVSPropertyOp20
 70
     1
102
RTVSPropertyOp21
 70
     1
102
RTVSPropertyOp22
 70
     1
102
RTVSPropertyOp23
 70
     1
102
RTVSPropertyOp24
 70
     1
102
RTVSPropertyOp25
 70
     1
102
RTVSPropertyOp26
 70
     1
102
RTVSPropertyOp27
 70
     1
102
RTVSPropertyOp28
 70
     1
102
RTVSPropertyOp29
 70
     1
102
RTVSPropertyOp30
 70
     1
102
RTVSPropertyOp31
 70
     1
102
RTVSPropertyOp32
 70
     1
  0
XRECORD
  5
440
102
{ACAD_REACTORS
330
43F
102
}
330
43F
100
AcDbXrecord
280
     1
102
RTVSPropertyOp0
 70
     1
102
RTVSPropertyOp1
 70
     1
102
RTVSPropertyOp2
 70
     1
102
RTVSPropertyOp3
 70
     1
102
RTVSPropertyOp4
 70
     1
102
RTVSPropertyOp5
 70
     1
102
RTVSPropertyOp6
 70
     1
102
RTVSPropertyOp7
 70
     1
102
RTVSPropertyOp8
 70
     1
102
RTVSPropertyOp9
 70
     1
102
RTVSPropertyOp10
 70
     1
102
RTVSPropertyOp11
 70
     1
102
RTVSPropertyOp12
 70
     1
102
RTVSPropertyOp13
 70
     1
102
RTVSPropertyOp14
 70
     1
102
RTVSPropertyOp15
 70
     1
102
RTVSPropertyOp16
 70
     1
102
RTVSPropertyOp17
 70
     1
102
RTVSPropertyOp18
 70
     1
102
RTVSPropertyOp19
 70
     1
102
RTVSPropertyOp20
 70
     1
102
RTVSPropertyOp21
 70
     1
102
RTVSPropertyOp22
 70
     1
102
RTVSPropertyOp23
 70
     1
102
RTVSPropertyOp24
 70
     1
102
RTVSPropertyOp25
 70
     1
102
RTVSPropertyOp26
 70
     1
102
RTVSPropertyOp27
 70
     1
102
RTVSPropertyOp28
 70
     1
102
RTVSPropertyOp29
 70
     1
102
RTVSPropertyOp30
 70
     1
102
RTVSPropertyOp31
 70
     1
102
RTVSPropertyOp32
 70
     1
  0
XRECORD
  5
43E
102
{ACAD_REACTORS
330
43D
102
}
330
43D
100
AcDbXrecord
280
     1
102
RTVSPropertyOp0
 70
     1
102
RTVSPropertyOp1
 70
     1
102
RTVSPropertyOp2
 70
     1
102
RTVSPropertyOp3
 70
     1
102
RTVSPropertyOp4
 70
     1
102
RTVSPropertyOp5
 70
     1
102
RTVSPropertyOp6
 70
     1
102
RTVSPropertyOp7
 70
     1
102
RTVSPropertyOp8
 70
     1
102
RTVSPropertyOp9
 70
     1
102
RTVSPropertyOp10
 70
     1
102
RTVSPropertyOp11
 70
     1
102
RTVSPropertyOp12
 70
     1
102
RTVSPropertyOp13
 70
     1
102
RTVSPropertyOp14
 70
     1
102
RTVSPropertyOp15
 70
     1
102
RTVSPropertyOp16
 70
     1
102
RTVSPropertyOp17
 70
     1
102
RTVSPropertyOp18
 70
     1
102
RTVSPropertyOp19
 70
     1
102
RTVSPropertyOp20
 70
     1
102
RTVSPropertyOp21
 70
     1
102
RTVSPropertyOp22
 70
     1
102
RTVSPropertyOp23
 70
     1
102
RTVSPropertyOp24
 70
     1
102
RTVSPropertyOp25
 70
     1
102
RTVSPropertyOp26
 70
     1
102
RTVSPropertyOp27
 70
     1
102
RTVSPropertyOp28
 70
     1
102
RTVSPropertyOp29
 70
     1
102
RTVSPropertyOp30
 70
     1
102
RTVSPropertyOp31
 70
     1
102
RTVSPropertyOp32
 70
     1
  0
XRECORD
  5
442
102
{ACAD_REACTORS
330
441
102
}
330
441
100
AcDbXrecord
280
     1
102
RTVSPropertyOp0
 70
     1
102
RTVSPropertyOp1
 70
     1
102
RTVSPropertyOp2
 70
     1
102
RTVSPropertyOp3
 70
     1
102
RTVSPropertyOp4
 70
     1
102
RTVSPropertyOp5
 70
     1
102
RTVSPropertyOp6
 70
     1
102
RTVSPropertyOp7
 70
     1
102
RTVSPropertyOp8
 70
     1
102
RTVSPropertyOp9
 70
     1
102
RTVSPropertyOp10
 70
     1
102
RTVSPropertyOp11
 70
     1
102
RTVSPropertyOp12
 70
     1
102
RTVSPropertyOp13
 70
     1
102
RTVSPropertyOp14
 70
     1
102
RTVSPropertyOp15
 70
     1
102
RTVSPropertyOp16
 70
     1
102
RTVSPropertyOp17
 70
     1
102
RTVSPropertyOp18
 70
     1
102
RTVSPropertyOp19
 70
     1
102
RTVSPropertyOp20
 70
     1
102
RTVSPropertyOp21
 70
     1
102
RTVSPropertyOp22
 70
     1
102
RTVSPropertyOp23
 70
     1
102
RTVSPropertyOp24
 70
     1
102
RTVSPropertyOp25
 70
     1
102
RTVSPropertyOp26
 70
     1
102
RTVSPropertyOp27
 70
     1
102
RTVSPropertyOp28
 70
     1
102
RTVSPropertyOp29
 70
     1
102
RTVSPropertyOp30
 70
     1
102
RTVSPropertyOp31
 70
     1
102
RTVSPropertyOp32
 70
     1
  0
XRECORD
  5
44A
102
{ACAD_REACTORS
330
449
102
}
330
449
100
AcDbXrecord
280
     1
102
RTVSPropertyOp0
 70
     1
102
RTVSPropertyOp1
 70
     1
102
RTVSPropertyOp2
 70
     1
102
RTVSPropertyOp3
 70
     1
102
RTVSPropertyOp4
 70
     1
102
RTVSPropertyOp5
 70
     1
102
RTVSPropertyOp6
 70
     1
102
RTVSPropertyOp7
 70
     1
102
RTVSPropertyOp8
 70
     1
102
RTVSPropertyOp9
 70
     1
102
RTVSPropertyOp10
 70
     1
102
RTVSPropertyOp11
 70
     1
102
RTVSPropertyOp12
 70
     1
102
RTVSPropertyOp13
 70
     1
102
RTVSPropertyOp14
 70
     1
102
RTVSPropertyOp15
 70
     1
102
RTVSPropertyOp16
 70
     1
102
RTVSPropertyOp17
 70
     1
102
RTVSPropertyOp18
 70
     1
102
RTVSPropertyOp19
 70
     1
102
RTVSPropertyOp20
 70
     1
102
RTVSPropertyOp21
 70
     1
102
RTVSPropertyOp22
 70
     1
102
RTVSPropertyOp23
 70
     1
102
RTVSPropertyOp24
 70
     1
102
RTVSPropertyOp25
 70
     1
102
RTVSPropertyOp26
 70
     1
102
RTVSPropertyOp27
 70
     1
102
RTVSPropertyOp28
 70
     1
102
RTVSPropertyOp29
 70
     1
102
RTVSPropertyOp30
 70
     1
102
RTVSPropertyOp31
 70
     1
102
RTVSPropertyOp32
 70
     1
  0
XRECORD
  5
452
102
{ACAD_REACTORS
330
451
102
}
330
451
100
AcDbXrecord
280
     1
102
RTVSPropertyOp0
 70
     1
102
RTVSPropertyOp1
 70
     1
102
RTVSPropertyOp2
 70
     1
102
RTVSPropertyOp3
 70
     1
102
RTVSPropertyOp4
 70
     1
102
RTVSPropertyOp5
 70
     1
102
RTVSPropertyOp6
 70
     1
102
RTVSPropertyOp7
 70
     1
102
RTVSPropertyOp8
 70
     1
102
RTVSPropertyOp9
 70
     1
102
RTVSPropertyOp10
 70
     1
102
RTVSPropertyOp11
 70
     1
102
RTVSPropertyOp12
 70
     1
102
RTVSPropertyOp13
 70
     1
102
RTVSPropertyOp14
 70
     1
102
RTVSPropertyOp15
 70
     1
102
RTVSPropertyOp16
 70
     1
102
RTVSPropertyOp17
 70
     1
102
RTVSPropertyOp18
 70
     1
102
RTVSPropertyOp19
 70
     1
102
RTVSPropertyOp20
 70
     1
102
RTVSPropertyOp21
 70
     1
102
RTVSPropertyOp22
 70
     1
102
RTVSPropertyOp23
 70
     1
102
RTVSPropertyOp24
 70
     1
102
RTVSPropertyOp25
 70
     1
102
RTVSPropertyOp26
 70
     1
102
RTVSPropertyOp27
 70
     1
102
RTVSPropertyOp28
 70
     1
102
RTVSPropertyOp29
 70
     1
102
RTVSPropertyOp30
 70
     1
102
RTVSPropertyOp31
 70
     1
102
RTVSPropertyOp32
 70
     1
  0
XRECORD
  5
446
102
{ACAD_REACTORS
330
445
102
}
330
445
100
AcDbXrecord
280
     1
102
RTVSPropertyOp0
 70
     1
102
RTVSPropertyOp1
 70
     1
102
RTVSPropertyOp2
 70
     1
102
RTVSPropertyOp3
 70
     1
102
RTVSPropertyOp4
 70
     1
102
RTVSPropertyOp5
 70
     1
102
RTVSPropertyOp6
 70
     1
102
RTVSPropertyOp7
 70
     1
102
RTVSPropertyOp8
 70
     1
102
RTVSPropertyOp9
 70
     1
102
RTVSPropertyOp10
 70
     1
102
RTVSPropertyOp11
 70
     1
102
RTVSPropertyOp12
 70
     1
102
RTVSPropertyOp13
 70
     1
102
RTVSPropertyOp14
 70
     1
102
RTVSPropertyOp15
 70
     1
102
RTVSPropertyOp16
 70
     1
102
RTVSPropertyOp17
 70
     1
102
RTVSPropertyOp18
 70
     1
102
RTVSPropertyOp19
 70
     1
102
RTVSPropertyOp20
 70
     1
102
RTVSPropertyOp21
 70
     1
102
RTVSPropertyOp22
 70
     1
102
RTVSPropertyOp23
 70
     1
102
RTVSPropertyOp24
 70
     1
102
RTVSPropertyOp25
 70
     1
102
RTVSPropertyOp26
 70
     1
102
RTVSPropertyOp27
 70
     1
102
RTVSPropertyOp28
 70
     1
102
RTVSPropertyOp29
 70
     1
102
RTVSPropertyOp30
 70
     1
102
RTVSPropertyOp31
 70
     1
102
RTVSPropertyOp32
 70
     1
  0
XRECORD
  5
448
102
{ACAD_REACTORS
330
447
102
}
330
447
100
AcDbXrecord
280
     1
102
RTVSPropertyOp0
 70
     1
102
RTVSPropertyOp1
 70
     1
102
RTVSPropertyOp2
 70
     1
102
RTVSPropertyOp3
 70
     1
102
RTVSPropertyOp4
 70
     1
102
RTVSPropertyOp5
 70
     1
102
RTVSPropertyOp6
 70
     1
102
RTVSPropertyOp7
 70
     1
102
RTVSPropertyOp8
 70
     1
102
RTVSPropertyOp9
 70
     1
102
RTVSPropertyOp10
 70
     1
102
RTVSPropertyOp11
 70
     1
102
RTVSPropertyOp12
 70
     1
102
RTVSPropertyOp13
 70
     1
102
RTVSPropertyOp14
 70
     1
102
RTVSPropertyOp15
 70
     1
102
RTVSPropertyOp16
 70
     1
102
RTVSPropertyOp17
 70
     1
102
RTVSPropertyOp18
 70
     1
102
RTVSPropertyOp19
 70
     1
102
RTVSPropertyOp20
 70
     1
102
RTVSPropertyOp21
 70
     1
102
RTVSPropertyOp22
 70
     1
102
RTVSPropertyOp23
 70
     1
102
RTVSPropertyOp24
 70
     1
102
RTVSPropertyOp25
 70
     1
102
RTVSPropertyOp26
 70
     1
102
RTVSPropertyOp27
 70
     1
102
RTVSPropertyOp28
 70
     1
102
RTVSPropertyOp29
 70
     1
102
RTVSPropertyOp30
 70
     1
102
RTVSPropertyOp31
 70
     1
102
RTVSPropertyOp32
 70
     1
  0
XRECORD
  5
450
102
{ACAD_REACTORS
330
44F
102
}
330
44F
100
AcDbXrecord
280
     1
102
RTVSPropertyOp0
 70
     1
102
RTVSPropertyOp1
 70
     1
102
RTVSPropertyOp2
 70
     1
102
RTVSPropertyOp3
 70
     1
102
RTVSPropertyOp4
 70
     1
102
RTVSPropertyOp5
 70
     1
102
RTVSPropertyOp6
 70
     1
102
RTVSPropertyOp7
 70
     1
102
RTVSPropertyOp8
 70
     1
102
RTVSPropertyOp9
 70
     1
102
RTVSPropertyOp10
 70
     1
102
RTVSPropertyOp11
 70
     1
102
RTVSPropertyOp12
 70
     1
102
RTVSPropertyOp13
 70
     1
102
RTVSPropertyOp14
 70
     1
102
RTVSPropertyOp15
 70
     1
102
RTVSPropertyOp16
 70
     1
102
RTVSPropertyOp17
 70
     1
102
RTVSPropertyOp18
 70
     1
102
RTVSPropertyOp19
 70
     1
102
RTVSPropertyOp20
 70
     1
102
RTVSPropertyOp21
 70
     1
102
RTVSPropertyOp22
 70
     1
102
RTVSPropertyOp23
 70
     1
102
RTVSPropertyOp24
 70
     1
102
RTVSPropertyOp25
 70
     1
102
RTVSPropertyOp26
 70
     1
102
RTVSPropertyOp27
 70
     1
102
RTVSPropertyOp28
 70
     1
102
RTVSPropertyOp29
 70
     1
102
RTVSPropertyOp30
 70
     1
102
RTVSPropertyOp31
 70
     1
102
RTVSPropertyOp32
 70
     1
  0
XRECORD
  5
434
102
{ACAD_REACTORS
330
433
102
}
330
433
100
AcDbXrecord
280
     1
102
RTVSPropertyOp0
 70
     1
102
RTVSPropertyOp1
 70
     1
102
RTVSPropertyOp2
 70
     1
102
RTVSPropertyOp3
 70
     1
102
RTVSPropertyOp4
 70
     1
102
RTVSPropertyOp5
 70
     1
102
RTVSPropertyOp6
 70
     1
102
RTVSPropertyOp7
 70
     1
102
RTVSPropertyOp8
 70
     1
102
RTVSPropertyOp9
 70
     1
102
RTVSPropertyOp10
 70
     1
102
RTVSPropertyOp11
 70
     1
102
RTVSPropertyOp12
 70
     1
102
RTVSPropertyOp13
 70
     1
102
RTVSPropertyOp14
 70
     1
102
RTVSPropertyOp15
 70
     1
102
RTVSPropertyOp16
 70
     1
102
RTVSPropertyOp17
 70
     1
102
RTVSPropertyOp18
 70
     1
102
RTVSPropertyOp19
 70
     1
102
RTVSPropertyOp20
 70
     1
102
RTVSPropertyOp21
 70
     1
102
RTVSPropertyOp22
 70
     1
102
RTVSPropertyOp23
 70
     1
102
RTVSPropertyOp24
 70
     1
102
RTVSPropertyOp25
 70
     1
102
RTVSPropertyOp26
 70
     1
102
RTVSPropertyOp27
 70
     1
102
RTVSPropertyOp28
 70
     1
102
RTVSPropertyOp29
 70
     1
102
RTVSPropertyOp30
 70
     1
102
RTVSPropertyOp31
 70
     1
102
RTVSPropertyOp32
 70
     1
  0
XRECORD
  5
436
102
{ACAD_REACTORS
330
435
102
}
330
435
100
AcDbXrecord
280
     1
102
RTVSPropertyOp0
 70
     1
102
RTVSPropertyOp1
 70
     1
102
RTVSPropertyOp2
 70
     1
102
RTVSPropertyOp3
 70
     1
102
RTVSPropertyOp4
 70
     1
102
RTVSPropertyOp5
 70
     1
102
RTVSPropertyOp6
 70
     1
102
RTVSPropertyOp7
 70
     1
102
RTVSPropertyOp8
 70
     1
102
RTVSPropertyOp9
 70
     1
102
RTVSPropertyOp10
 70
     1
102
RTVSPropertyOp11
 70
     1
102
RTVSPropertyOp12
 70
     1
102
RTVSPropertyOp13
 70
     1
102
RTVSPropertyOp14
 70
     1
102
RTVSPropertyOp15
 70
     1
102
RTVSPropertyOp16
 70
     1
102
RTVSPropertyOp17
 70
     1
102
RTVSPropertyOp18
 70
     1
102
RTVSPropertyOp19
 70
     1
102
RTVSPropertyOp20
 70
     1
102
RTVSPropertyOp21
 70
     1
102
RTVSPropertyOp22
 70
     1
102
RTVSPropertyOp23
 70
     1
102
RTVSPropertyOp24
 70
     1
102
RTVSPropertyOp25
 70
     1
102
RTVSPropertyOp26
 70
     1
102
RTVSPropertyOp27
 70
     1
102
RTVSPropertyOp28
 70
     1
102
RTVSPropertyOp29
 70
     1
102
RTVSPropertyOp30
 70
     1
102
RTVSPropertyOp31
 70
     1
102
RTVSPropertyOp32
 70
     1
  0
XRECORD
  5
438
102
{ACAD_REACTORS
330
437
102
}
330
437
100
AcDbXrecord
280
     1
102
RTVSPropertyOp0
 70
     1
102
RTVSPropertyOp1
 70
     1
102
RTVSPropertyOp2
 70
     1
102
RTVSPropertyOp3
 70
     1
102
RTVSPropertyOp4
 70
     1
102
RTVSPropertyOp5
 70
     1
102
RTVSPropertyOp6
 70
     1
102
RTVSPropertyOp7
 70
     1
102
RTVSPropertyOp8
 70
     1
102
RTVSPropertyOp9
 70
     1
102
RTVSPropertyOp10
 70
     1
102
RTVSPropertyOp11
 70
     1
102
RTVSPropertyOp12
 70
     1
102
RTVSPropertyOp13
 70
     1
102
RTVSPropertyOp14
 70
     1
102
RTVSPropertyOp15
 70
     1
102
RTVSPropertyOp16
 70
     1
102
RTVSPropertyOp17
 70
     1
102
RTVSPropertyOp18
 70
     1
102
RTVSPropertyOp19
 70
     1
102
RTVSPropertyOp20
 70
     1
102
RTVSPropertyOp21
 70
     1
102
RTVSPropertyOp22
 70
     1
102
RTVSPropertyOp23
 70
     1
102
RTVSPropertyOp24
 70
     1
102
RTVSPropertyOp25
 70
     1
102
RTVSPropertyOp26
 70
     1
102
RTVSPropertyOp27
 70
     1
102
RTVSPropertyOp28
 70
     1
102
RTVSPropertyOp29
 70
     1
102
RTVSPropertyOp30
 70
     1
102
RTVSPropertyOp31
 70
     1
102
RTVSPropertyOp32
 70
     1
  0
XRECORD
  5
43A
102
{ACAD_REACTORS
330
439
102
}
330
439
100
AcDbXrecord
280
     1
102
RTVSPropertyOp0
 70
     1
102
RTVSPropertyOp1
 70
     1
102
RTVSPropertyOp2
 70
     1
102
RTVSPropertyOp3
 70
     1
102
RTVSPropertyOp4
 70
     1
102
RTVSPropertyOp5
 70
     1
102
RTVSPropertyOp6
 70
     1
102
RTVSPropertyOp7
 70
     1
102
RTVSPropertyOp8
 70
     1
102
RTVSPropertyOp9
 70
     1
102
RTVSPropertyOp10
 70
     1
102
RTVSPropertyOp11
 70
     1
102
RTVSPropertyOp12
 70
     1
102
RTVSPropertyOp13
 70
     1
102
RTVSPropertyOp14
 70
     1
102
RTVSPropertyOp15
 70
     1
102
RTVSPropertyOp16
 70
     1
102
RTVSPropertyOp17
 70
     1
102
RTVSPropertyOp18
 70
     1
102
RTVSPropertyOp19
 70
     1
102
RTVSPropertyOp20
 70
     1
102
RTVSPropertyOp21
 70
     1
102
RTVSPropertyOp22
 70
     1
102
RTVSPropertyOp23
 70
     1
102
RTVSPropertyOp24
 70
     1
102
RTVSPropertyOp25
 70
     1
102
RTVSPropertyOp26
 70
     1
102
RTVSPropertyOp27
 70
     1
102
RTVSPropertyOp28
 70
     1
102
RTVSPropertyOp29
 70
     1
102
RTVSPropertyOp30
 70
     1
102
RTVSPropertyOp31
 70
     1
102
RTVSPropertyOp32
 70
     1
  0
XRECORD
  5
44E
102
{ACAD_REACTORS
330
44D
102
}
330
44D
100
AcDbXrecord
280
     1
102
RTVSPropertyOp0
 70
     1
102
RTVSPropertyOp1
 70
     1
102
RTVSPropertyOp2
 70
     1
102
RTVSPropertyOp3
 70
     1
102
RTVSPropertyOp4
 70
     1
102
RTVSPropertyOp5
 70
     1
102
RTVSPropertyOp6
 70
     1
102
RTVSPropertyOp7
 70
     1
102
RTVSPropertyOp8
 70
     1
102
RTVSPropertyOp9
 70
     1
102
RTVSPropertyOp10
 70
     1
102
RTVSPropertyOp11
 70
     1
102
RTVSPropertyOp12
 70
     1
102
RTVSPropertyOp13
 70
     1
102
RTVSPropertyOp14
 70
     1
102
RTVSPropertyOp15
 70
     1
102
RTVSPropertyOp16
 70
     1
102
RTVSPropertyOp17
 70
     1
102
RTVSPropertyOp18
 70
     1
102
RTVSPropertyOp19
 70
     1
102
RTVSPropertyOp20
 70
     1
102
RTVSPropertyOp21
 70
     1
102
RTVSPropertyOp22
 70
     1
102
RTVSPropertyOp23
 70
     1
102
RTVSPropertyOp24
 70
     1
102
RTVSPropertyOp25
 70
     1
102
RTVSPropertyOp26
 70
     1
102
RTVSPropertyOp27
 70
     1
102
RTVSPropertyOp28
 70
     1
102
RTVSPropertyOp29
 70
     1
102
RTVSPropertyOp30
 70
     1
102
RTVSPropertyOp31
 70
     1
102
RTVSPropertyOp32
 70
     1
  0
XRECORD
  5
444
102
{ACAD_REACTORS
330
443
102
}
330
443
100
AcDbXrecord
280
     1
102
RTVSPropertyOp0
 70
     1
102
RTVSPropertyOp1
 70
     1
102
RTVSPropertyOp2
 70
     1
102
RTVSPropertyOp3
 70
     1
102
RTVSPropertyOp4
 70
     1
102
RTVSPropertyOp5
 70
     1
102
RTVSPropertyOp6
 70
     1
102
RTVSPropertyOp7
 70
     1
102
RTVSPropertyOp8
 70
     1
102
RTVSPropertyOp9
 70
     1
102
RTVSPropertyOp10
 70
     1
102
RTVSPropertyOp11
 70
     1
102
RTVSPropertyOp12
 70
     1
102
RTVSPropertyOp13
 70
     1
102
RTVSPropertyOp14
 70
     1
102
RTVSPropertyOp15
 70
     1
102
RTVSPropertyOp16
 70
     1
102
RTVSPropertyOp17
 70
     1
102
RTVSPropertyOp18
 70
     1
102
RTVSPropertyOp19
 70
     1
102
RTVSPropertyOp20
 70
     1
102
RTVSPropertyOp21
 70
     1
102
RTVSPropertyOp22
 70
     1
102
RTVSPropertyOp23
 70
     1
102
RTVSPropertyOp24
 70
     1
102
RTVSPropertyOp25
 70
     1
102
RTVSPropertyOp26
 70
     1
102
RTVSPropertyOp27
 70
     1
102
RTVSPropertyOp28
 70
     1
102
RTVSPropertyOp29
 70
     1
102
RTVSPropertyOp30
 70
     1
102
RTVSPropertyOp31
 70
     1
102
RTVSPropertyOp32
 70
     1
  0
XRECORD
  5
44C
102
{ACAD_REACTORS
330
44B
102
}
330
44B
100
AcDbXrecord
280
     1
102
RTVSPropertyOp0
 70
     1
102
RTVSPropertyOp1
 70
     1
102
RTVSPropertyOp2
 70
     1
102
RTVSPropertyOp3
 70
     1
102
RTVSPropertyOp4
 70
     1
102
RTVSPropertyOp5
 70
     1
102
RTVSPropertyOp6
 70
     1
102
RTVSPropertyOp7
 70
     1
102
RTVSPropertyOp8
 70
     1
102
RTVSPropertyOp9
 70
     1
102
RTVSPropertyOp10
 70
     1
102
RTVSPropertyOp11
 70
     1
102
RTVSPropertyOp12
 70
     1
102
RTVSPropertyOp13
 70
     1
102
RTVSPropertyOp14
 70
     1
102
RTVSPropertyOp15
 70
     1
102
RTVSPropertyOp16
 70
     1
102
RTVSPropertyOp17
 70
     1
102
RTVSPropertyOp18
 70
     1
102
RTVSPropertyOp19
 70
     1
102
RTVSPropertyOp20
 70
     1
102
RTVSPropertyOp21
 70
     1
102
RTVSPropertyOp22
 70
     1
102
RTVSPropertyOp23
 70
     1
102
RTVSPropertyOp24
 70
     1
102
RTVSPropertyOp25
 70
     1
102
RTVSPropertyOp26
 70
     1
102
RTVSPropertyOp27
 70
     1
102
RTVSPropertyOp28
 70
     1
102
RTVSPropertyOp29
 70
     1
102
RTVSPropertyOp30
 70
     1
102
RTVSPropertyOp31
 70
     1
102
RTVSPropertyOp32
 70
     1
  0
ENDSEC
  0
EOF
