  0
SECTION
  2
HEADER
  9
$ACADVER
  1
AC1015
  9
$ACADMAINTVER
 70
     6
  9
$DWGCODEPAGE
  3
ANSI_1252
  9
$INSBASE
 10
0.0
 20
0.0
 30
0.0
  9
$EXTMIN
 10
0.0
 20
0.0
 30
0.0
  9
$EXTMAX
 10
210.0
 20
297.0
 30
0.0
  9
$LIMMIN
 10
0.0
 20
0.0
  9
$LIMMAX
 10
0.0
 20
0.0
  9
$ORTHOMODE
 70
     0
  9
$REGENMODE
 70
     1
  9
$FILLMODE
 70
     1
  9
$QTEXTMODE
 70
     0
  9
$MIRRTEXT
 70
     1
  9
$LTSCALE
 40
1.0
  9
$ATTMODE
 70
     1
  9
$TEXTSIZE
 40
0.0
  9
$TRACEWID
 40
0.05
  9
$TEXTSTYLE
  7
STANDARD
  9
$CLAYER
  8
0
  9
$CELTYPE
  6
CONTINUOUS
  9
$CECOLOR
 62
   256
  9
$CELTSCALE
 40
1.0
  9
$DISPSILH
 70
     0
  9
$DIMSCALE
 40
1.0
  9
$DIMASZ
 40
0.0
  9
$DIMEXO
 40
0.0
  9
$DIMDLI
 40
0.38
  9
$DIMRND
 40
0.0
  9
$DIMDLE
 40
1000.0
  9
$DIMEXE
 40
0.18
  9
$DIMTP
 40
0.0
  9
$DIMTM
 40
0.0
  9
$DIMTXT
 40
3.5
  9
$DIMCEN
 40
0.09
  9
$DIMTSZ
 40
0.0
  9
$DIMTOL
 70
     0
  9
$DIMLIM
 70
     0
  9
$DIMTIH
 70
     1
  9
$DIMTOH
 70
     1
  9
$DIMSE1
 70
     0
  9
$DIMSE2
 70
     0
  9
$DIMTAD
 70
     1
  9
$DIMZIN
 70
     0
  9
$DIMBLK
  1

  9
$DIMASO
 70
     1
  9
$DIMSHO
 70
     1
  9
$DIMPOST
  1

  9
$DIMAPOST
  1

  9
$DIMALT
 70
     0
  9
$DIMALTD
 70
     2
  9
$DIMALTF
 40
0.0394
  9
$DIMLFAC
 40
1.0
  9
$DIMTOFL
 70
     0
  9
$DIMTVP
 40
0.0
  9
$DIMTIX
 70
     0
  9
$DIMSOXD
 70
     0
  9
$DIMSAH
 70
     0
  9
$DIMBLK1
  1

  9
$DIMBLK2
  1

  9
$DIMSTYLE
  2
STANDARD
  9
$DIMCLRD
 70
     0
  9
$DIMCLRE
 70
     0
  9
$DIMCLRT
 70
     0
  9
$DIMTFAC
 40
1.0
  9
$DIMGAP
 40
0.0
  9
$DIMJUST
 70
     0
  9
$DIMSD1
 70
     0
  9
$DIMSD2
 70
     0
  9
$DIMTOLJ
 70
     1
  9
$DIMTZIN
 70
     0
  9
$DIMALTZ
 70
     0
  9
$DIMALTTZ
 70
     0
  9
$DIMUPT
 70
     0
  9
$DIMDEC
 70
     4
  9
$DIMTDEC
 70
     4
  9
$DIMALTU
 70
     2
  9
$DIMALTTD
 70
     2
  9
$DIMTXSTY
  7
STANDARD
  9
$DIMAUNIT
 70
     0
  9
$DIMADEC
 70
     0
  9
$DIMALTRND
 40
0.0
  9
$DIMAZIN
 70
     0
  9
$DIMDSEP
 70
    46
  9
$DIMATFIT
 70
     3
  9
$DIMFRAC
 70
     0
  9
$DIMLDRBLK
  1

  9
$DIMLUNIT
 70
     2
  9
$DIMLWD
 70
    -2
  9
$DIMLWE
 70
    -2
  9
$DIMTMOVE
 70
     2
  9
$LUNITS
 70
     2
  9
$LUPREC
 70
     2
  9
$SKETCHINC
 40
0.1
  9
$FILLETRAD
 40
0.0
  9
$AUNITS
 70
     0
  9
$AUPREC
 70
     2
  9
$MENU
  1
acad
  9
$ELEVATION
 40
0.0
  9
$PELEVATION
 40
0.0
  9
$THICKNESS
 40
0.0
  9
$LIMCHECK
 70
     0
  9
$CHAMFERA
 40
0.0
  9
$CHAMFERB
 40
0.0
  9
$CHAMFERC
 40
0.0
  9
$CHAMFERD
 40
0.0
  9
$SKPOLY
 70
     0
  9
$TDCREATE
 40
2447893.0
  9
$TDUCREATE
 40
2447892.916666667
  9
$TDUPDATE
 40
2458327.548782442
  9
$TDUUPDATE
 40
2458327.465449109
  9
$TDINDWG
 40
0.0
  9
$TDUSRTIMER
 40
0.0
  9
$USRTIMER
 70
     1
  9
$ANGBASE
 50
0.0
  9
$ANGDIR
 70
     0
  9
$PDMODE
 70
     0
  9
$PDSIZE
 40
-1.0
  9
$PLINEWID
 40
0.0
  9
$SPLFRAME
 70
     0
  9
$SPLINETYPE
 70
     6
  9
$SPLINESEGS
 70
     8
  9
$HANDSEED
  5
46B
  9
$SURFTAB1
 70
     6
  9
$SURFTAB2
 70
     6
  9
$SURFTYPE
 70
     6
  9
$SURFU
 70
     6
  9
$SURFV
 70
     6
  9
$UCSBASE
  2

  9
$UCSNAME
  2

  9
$UCSORG
 10
0.0
 20
0.0
 30
0.0
  9
$UCSXDIR
 10
1.0
 20
0.0
 30
0.0
  9
$UCSYDIR
 10
0.0
 20
1.0
 30
0.0
  9
$UCSORTHOREF
  2

  9
$UCSORTHOVIEW
 70
     0
  9
$UCSORGTOP
 10
0.0
 20
0.0
 30
0.0
  9
$UCSORGBOTTOM
 10
0.0
 20
0.0
 30
0.0
  9
$UCSORGLEFT
 10
0.0
 20
0.0
 30
0.0
  9
$UCSORGRIGHT
 10
0.0
 20
0.0
 30
0.0
  9
$UCSORGFRONT
 10
0.0
 20
0.0
 30
0.0
  9
$UCSORGBACK
 10
0.0
 20
0.0
 30
0.0
  9
$PUCSBASE
  2

  9
$PUCSNAME
  2

  9
$PUCSORG
 10
0.0
 20
0.0
 30
0.0
  9
$PUCSXDIR
 10
1.0
 20
0.0
 30
0.0
  9
$PUCSYDIR
 10
0.0
 20
1.0
 30
0.0
  9
$PUCSORTHOREF
  2

  9
$PUCSORTHOVIEW
 70
     0
  9
$PUCSORGTOP
 10
0.0
 20
0.0
 30
0.0
  9
$PUCSORGBOTTOM
 10
0.0
 20
0.0
 30
0.0
  9
$PUCSORGLEFT
 10
0.0
 20
0.0
 30
0.0
  9
$PUCSORGRIGHT
 10
0.0
 20
0.0
 30
0.0
  9
$PUCSORGFRONT
 10
0.0
 20
0.0
 30
0.0
  9
$PUCSORGBACK
 10
0.0
 20
0.0
 30
0.0
  9
$USERI1
 70
     0
  9
$USERI2
 70
     0
  9
$USERI3
 70
     0
  9
$USERI4
 70
     0
  9
$USERI5
 70
     0
  9
$USERR1
 40
0.0
  9
$USERR2
 40
0.0
  9
$USERR3
 40
0.0
  9
$USERR4
 40
0.0
  9
$USERR5
 40
0.0
  9
$WORLDVIEW
 70
     1
  9
$SHADEDGE
 70
     3
  9
$SHADEDIF
 70
    70
  9
$TILEMODE
 70
     1
  9
$MAXACTVP
 70
    16
  9
$PINSBASE
 10
0.0
 20
0.0
 30
0.0
  9
$PLIMCHECK
 70
     0
  9
$PEXTMIN
 10
1.000000000000000E+20
 20
1.000000000000000E+20
 30
1.000000000000000E+20
  9
$PEXTMAX
 10
-1.000000000000000E+20
 20
-1.000000000000000E+20
 30
-1.000000000000000E+20
  9
$PLIMMIN
 10
0.0
 20
0.0
  9
$PLIMMAX
 10
12.0
 20
9.0
  9
$UNITMODE
 70
     0
  9
$VISRETAIN
 70
     0
  9
$PLINEGEN
 70
     1
  9
$PSLTSCALE
 70
     1
  9
$TREEDEPTH
 70
  3020
  9
$CMLSTYLE
  2
STANDARD
  9
$CMLJUST
 70
     0
  9
$CMLSCALE
 40
1.0
  9
$PROXYGRAPHICS
 70
     1
  9
$MEASUREMENT
 70
     0
  9
$CELWEIGHT
370
    -1
  9
$ENDCAPS
280
     0
  9
$JOINSTYLE
280
     0
  9
$LWDISPLAY
290
     0
  9
$INSUNITS
 70
     0
  9
$HYPERLINKBASE
  1

  9
$STYLESHEET
  1

  9
$XEDIT
290
     1
  9
$CEPSNTYPE
380
     0
  9
$PSTYLEMODE
290
     1
  9
$FINGERPRINTGUID
  2
{1B095699-6213-4B2A-A173-07E10023B53F}
  9
$VERSIONGUID
  2
{FAEB1C32-E019-11D5-929B-00C0DF256EC4}
  9
$EXTNAMES
290
     1
  9
$PSVPSCALE
 40
0.0
  9
$OLESTARTUP
290
     0
  0
ENDSEC
  0
SECTION
  2
CLASSES
  0
CLASS
  1
LWPOLYLINE
  2
AcDbPolyline
  3
ObjectDBX Classes
 90
        0
280
     0
281
     1
  0
CLASS
  1
IMAGE
  2
AcDbRasterImage
  3
ISM
 90
      127
280
     0
281
     1
  0
CLASS
  1
OLE2FRAME
  2
AcDbOle2Frame
  3
ObjectDBX Classes
 90
        0
280
     0
281
     1
  0
CLASS
  1
HATCH
  2
AcDbHatch
  3
ObjectDBX Classes
 90
        0
280
     0
281
     1
  0
CLASS
  1
DICTIONARYVAR
  2
AcDbDictionaryVar
  3
ObjectDBX Classes
 90
        0
280
     0
281
     0
  0
CLASS
  1
RASTERVARIABLES
  2
AcDbRasterVariables
  3
ISM
 90
        0
280
     0
281
     0
  0
CLASS
  1
IMAGEDEF
  2
AcDbRasterImageDef
  3
ISM
 90
        0
280
     0
281
     0
  0
CLASS
  1
IMAGEDEF_REACTOR
  2
AcDbRasterImageDefReactor
  3
ISM
 90
        1
280
     0
281
     0
  0
CLASS
  1
IDBUFFER
  2
AcDbIdBuffer
  3
ObjectDBX Classes
 90
        0
280
     0
281
     0
  0
CLASS
  1
SPATIAL_FILTER
  2
AcDbSpatialFilter
  3
ObjectDBX Classes
 90
        0
280
     0
281
     0
  0
CLASS
  1
XRECORD
  2
AcDbXrecord
  3
ObjectDBX Classes
 90
        0
280
     0
281
     0
  0
CLASS
  1
SORTENTSTABLE
  2
AcDbSortentsTable
  3
ObjectDBX Classes
 90
        0
280
     0
281
     0
  0
CLASS
  1
LAYER_INDEX
  2
AcDbLayerIndex
  3
ObjectDBX Classes
 90
        0
280
     0
281
     0
  0
CLASS
  1
SPATIAL_INDEX
  2
AcDbSpatialIndex
  3
AutoCAD 2000
 90
        0
280
     0
281
     0
  0
CLASS
  1
OBJECT_PTR
  2
CAseDLPNTableRecord
  3
ASE-LPNTableRecord
 90
        1
280
     0
281
     0
  0
CLASS
  1
LAYOUT
  2
AcDbLayout
  3
ObjectDBX Classes
 90
        0
280
     0
281
     0
  0
CLASS
  1
PLOTSETTINGS
  2
AcDbPlotSettings
  3
ObjectDBX Classes
 90
        0
280
     0
281
     0
  0
CLASS
  1
ACDBDICTIONARYWDFLT
  2
AcDbDictionaryWithDefault
  3
ObjectDBX Classes
 90
        0
280
     0
281
     0
  0
CLASS
  1
ACDBPLACEHOLDER
  2
AcDbPlaceHolder
  3
ObjectDBX Classes
 90
        0
280
     0
281
     0
  0
CLASS
  1
VBA_PROJECT
  2
AcDbVbaProject
  3
ObjectDBX Classes
 90
        0
280
     0
281
     0
  0
CLASS
  1
WIPEOUT
  2
AcDbWipeout
  3
WipeOut|AutoCAD Express Tool|expresstools@autodesk.com
 90
      127
280
     0
281
     1
  0
CLASS
  1
WIPEOUTVARIABLES
  2
AcDbWipeoutVariables
  3
WipeOut|AutoCAD Express Tool|expresstools@autodesk.com
 90
        0
280
     0
281
     0
  0
CLASS
  1
RTEXT
  2
RText
  3
RText|AutoCAD Express Tool|expresstools@autodesk.com
 90
        0
280
     0
281
     1
  0
CLASS
  1
ARCALIGNEDTEXT
  2
AcDbArcAlignedText
  3
ATEXT|AutoCAD Express Tool|expresstools@autodesk.com
 90
        0
280
     0
281
     1
  0
CLASS
  1
SCALE
  2
AcDbScale
  3
ObjectDBX Classes
 90
     1153
280
     0
281
     0
  0
CLASS
  1
VISUALSTYLE
  2
AcDbVisualStyle
  3
ObjectDBX Classes
 90
     4095
280
     0
281
     0
  0
CLASS
  1
MATERIAL
  2
AcDbMaterial
  3
ObjectDBX Classes
 90
     1153
280
     0
281
     0
  0
ENDSEC
  0
SECTION
  2
TABLES
  0
TABLE
  2
VPORT
  5
7
102
{ACAD_XDICTIONARY
360
430
102
}
330
0
100
AcDbSymbolTable
 70
     1
  0
VPORT
  5
15
330
7
100
AcDbSymbolTableRecord
100
AcDbViewportTableRecord
  2
*ACTIVE
 70
     0
 10
0.0
 20
0.0
 11
1.0
 21
1.0
 12
105.0
 22
148.5
 13
0.0
 23
0.0
 14
1.0
 24
1.0
 15
0.0
 25
0.0
 16
0.0
 26
0.0
 36
1.0
 17
0.0
 27
0.0
 37
0.0
 40
297.0
 41
1.4142857143
 42
50.0
 43
0.0
 44
0.0
 50
0.0
 51
0.0
 71
     0
 72
  2000
 73
     1
 74
     1
 75
     0
 76
     0
 77
     0
 78
     0
281
     0
 65
     1
110
0.0
120
0.0
130
0.0
111
1.0
121
0.0
131
0.0
112
0.0
122
1.0
132
0.0
 79
     0
146
0.0
  0
ENDTAB
  0
TABLE
  2
LTYPE
  5
4
330
0
100
AcDbSymbolTable
 70
     6
  0
LTYPE
  5
11
330
4
100
AcDbSymbolTableRecord
100
AcDbLinetypeTableRecord
  2
BYBLOCK
 70
     0
  3

 72
    65
 73
     0
 40
0.0
  0
LTYPE
  5
12
330
4
100
AcDbSymbolTableRecord
100
AcDbLinetypeTableRecord
  2
BYLAYER
 70
     0
  3

 72
    65
 73
     0
 40
0.0
  0
LTYPE
  5
13
330
4
100
AcDbSymbolTableRecord
100
AcDbLinetypeTableRecord
  2
CONTINUOUS
 70
     0
  3
Solid line
 72
    65
 73
     0
 40
0.0
  0
LTYPE
  5
1D
330
4
100
AcDbSymbolTableRecord
100
AcDbLinetypeTableRecord
  2
HIDDEN
 70
     0
  3
Hidden __ __ __ __ __ __ __ __ __ __ __ __ __ __
 72
    65
 73
     2
 40
1.905
 49
1.27
 74
     0
 49
-0.635
 74
     0
  0
LTYPE
  5
1E
330
4
100
AcDbSymbolTableRecord
100
AcDbLinetypeTableRecord
  2
PHANTOM
 70
     0
  3
Phantom ______  __  __  ______  __  __  ______
 72
    65
 73
     6
 40
12.7
 49
6.35
 74
     0
 49
-1.27
 74
     0
 49
1.27
 74
     0
 49
-1.27
 74
     0
 49
1.27
 74
     0
 49
-1.27
 74
     0
  0
LTYPE
  5
1F
330
4
100
AcDbSymbolTableRecord
100
AcDbLinetypeTableRecord
  2
CENTER
 70
     0
  3
Center ____ _ ____ _ ____ _ ____ _ ____ _ ____
 72
    65
 73
     4
 40
10.16
 49
6.35
 74
     0
 49
-1.27
 74
     0
 49
1.27
 74
     0
 49
-1.27
 74
     0
  0
LTYPE
  5
20
330
4
100
AcDbSymbolTableRecord
100
AcDbLinetypeTableRecord
  2
CENTERX2
 70
     0
  3
Center (2x) ________  __  ________  __  _____
 72
    65
 73
     4
 40
20.32
 49
12.7
 74
     0
 49
-2.54
 74
     0
 49
2.54
 74
     0
 49
-2.54
 74
     0
  0
LTYPE
  5
21
330
4
100
AcDbSymbolTableRecord
100
AcDbLinetypeTableRecord
  2
DOT2
 70
     0
  3
Dot (.5x) ........................................
 72
    65
 73
     2
 40
0.635
 49
0.0
 74
     0
 49
-0.635
 74
     0
  0
LTYPE
  5
45A
330
5
100
AcDbSymbolTableRecord
100
AcDbLinetypeTableRecord
  2
DASH
 70
     0
  3
DASH _ _ _ _ _
 72
    65
 73
     2
 40
0.75
 49
0.40
 74
     0
 49
-0.35
 74
     0
  0
LTYPE
  5
45B
330
5
100
AcDbSymbolTableRecord
100
AcDbLinetypeTableRecord
  2
LONGDASH_DASH
 70
     0
  3
LONGDASH_DASH __ . __ . __
 72
    65
 73
     4
 40
0.85
 49
0.40
 74
     0
 49
-0.20
 74
     0
 49
0.05
 74
     0
 49
-0.20
 74
     0
  0
LTYPE
  5
45C
330
5
100
AcDbSymbolTableRecord
100
AcDbLinetypeTableRecord
  2
LONGDASH_DASH_DASH
 70
     0
  3
LONGDASH_DASH_DASH __ . . __ . . __
 72
    65
 73
     6
 40
1.10
 49
0.40
 74
     0
 49
-0.20
 74
     0
 49
0.05
 74
     0
 49
-0.20
 74
     0
 49
0.05
 74
     0
 49
-0.20
 74
     0
  0
ENDTAB
  0
TABLE
  2
LAYER
  5
2
330
0
100
AcDbSymbolTable
 70
     8
  0
LAYER
  5
23
330
2
100
AcDbSymbolTableRecord
100
AcDbLayerTableRecord
  2
DEFPOINTS
 70
     0
 62
     7
  6
CONTINUOUS
290
     0
370
    -3
390
0
  0
LAYER
  5
45D
330
2
100
AcDbSymbolTableRecord
100
AcDbLayerTableRecord
  2
0
 70
     0
 62
     -1
  6
CONTINUOUS
370
    -3
390
F
  0
LAYER
  5
45E
330
2
100
AcDbSymbolTableRecord
100
AcDbLayerTableRecord
  2
1
 70
     0
 62
     4
  6
CONTINUOUS
370
    50
390
F
  0
LAYER
  5
45F
330
2
100
AcDbSymbolTableRecord
100
AcDbLayerTableRecord
  2
2
 70
     0
 62
     7
  6
CONTINUOUS
370
    25
390
F
  0
LAYER
  5
460
330
2
100
AcDbSymbolTableRecord
100
AcDbLayerTableRecord
  2
3
 70
     0
 62
     1
  6
DASH
370
    35
390
F
  0
LAYER
  5
461
330
2
100
AcDbSymbolTableRecord
100
AcDbLayerTableRecord
  2
4
 70
     0
 62
     2
  6
LONGDASH_DASH
370
    25
390
F
  0
LAYER
  5
462
330
2
100
AcDbSymbolTableRecord
100
AcDbLayerTableRecord
  2
6
 70
     0
 62
     5
  6
CONTINUOUS
370
    -3
390
F
  0
LAYER
  5
463
330
2
100
AcDbSymbolTableRecord
100
AcDbLayerTableRecord
  2
CUT
 70
     0
 62
     1
  6
CONTINUOUS
370
    25
390
F
  0
LAYER
  5
464
330
2
100
AcDbSymbolTableRecord
100
AcDbLayerTableRecord
  2
NOCUT
 70
     0
 62
     7
  6
CONTINUOUS
370
    25
390
F
  0
LAYER
  5
465
330
2
100
AcDbSymbolTableRecord
100
AcDbLayerTableRecord
  2
SK1
 70
     0
 62
     4
  6
CONTINUOUS
370
    50
390
F
  0
LAYER
  5
466
330
2
100
AcDbSymbolTableRecord
100
AcDbLayerTableRecord
  2
SK2
 70
     0
 62
     7
  6
CONTINUOUS
370
    25
390
F
  0
LAYER
  5
467
330
2
100
AcDbSymbolTableRecord
100
AcDbLayerTableRecord
  2
SK3
 70
     0
 62
     1
  6
DASH
370
    35
390
F
  0
LAYER
  5
468
330
2
100
AcDbSymbolTableRecord
100
AcDbLayerTableRecord
  2
SK4
 70
     0
 62
     2
  6
LONGDASH_DASH
370
    25
390
F
  0
LAYER
  5
469
330
2
100
AcDbSymbolTableRecord
100
AcDbLayerTableRecord
  2
SK6
 70
     0
 62
     5
  6
CONTINUOUS
370
    -3
390
F
  0
LAYER
  5
46A
330
2
100
AcDbSymbolTableRecord
100
AcDbLayerTableRecord
  2
INFTOTAL
 70
     0
 62
     9
  6
CONTINUOUS
370
    18
390
F
  0
ENDTAB
  0
TABLE
  2
STYLE
  5
3
330
0
100
AcDbSymbolTable
 70
     2
  0
STYLE
  5
17
330
3
100
AcDbSymbolTableRecord
100
AcDbTextStyleTableRecord
  2
STANDARD
 70
     0
 40
0.0
 41
1.0
 50
0.0
 71
     0
 42
0.2
  3
txt
  4

  0
STYLE
  5
428
330
3
100
AcDbSymbolTableRecord
100
AcDbTextStyleTableRecord
  2
BMG_Text
 70
     0
 40
3.5
 41
1.0
 50
0.0
 71
     0
 42
0.0
  3
monos.ttf
  4

1001
ACAD
1000
Monospac821 BT
1071
       49
  0
ENDTAB
  0
TABLE
  2
VIEW
  5
5
330
0
100
AcDbSymbolTable
 70
     0
  0
ENDTAB
  0
TABLE
  2
UCS
  5
6
330
0
100
AcDbSymbolTable
 70
     0
  0
ENDTAB
  0
TABLE
  2
APPID
  5
8
330
0
100
AcDbSymbolTable
 70
     1
  0
APPID
  5
16
330
8
100
AcDbSymbolTableRecord
100
AcDbRegAppTableRecord
  2
ACAD
 70
     0
  0
ENDTAB
  0
TABLE
  2
DIMSTYLE
  5
9
330
0
100
AcDbSymbolTable
 70
     1
100
AcDbDimStyleTable
  0
DIMSTYLE
105
18
330
9
100
AcDbSymbolTableRecord
100
AcDbDimStyleTableRecord
  2
STANDARD
 70
     0
178
     0
340
17
  0
ENDTAB
  0
TABLE
  2
BLOCK_RECORD
  5
1
330
0
100
AcDbSymbolTable
 70
     0
  0
BLOCK_RECORD
  5
A
330
1
100
AcDbSymbolTableRecord
100
AcDbBlockTableRecord
  2
*MODEL_SPACE
340
411
  0
BLOCK_RECORD
  5
B
330
1
100
AcDbSymbolTableRecord
100
AcDbBlockTableRecord
  2
*PAPER_SPACE
340
412
  0
ENDTAB
  0
ENDSEC
  0
SECTION
  2
BLOCKS
  0
BLOCK
  5
D
330
A
100
AcDbEntity
  8
0
100
AcDbBlockBegin
  2
*MODEL_SPACE
 70
     0
 10
0.0
 20
0.0
 30
0.0
  3
*MODEL_SPACE
  1

  0
ENDBLK
  5
E
330
A
100
AcDbEntity
  8
0
100
AcDbBlockEnd
  0
BLOCK
  5
F
330
B
100
AcDbEntity
 67
     1
  8
0
100
AcDbBlockBegin
  2
*PAPER_SPACE
 70
     0
 10
0.0
 20
0.0
 30
0.0
  3
*PAPER_SPACE
  1

  0
ENDBLK
  5
10
330
B
100
AcDbEntity
 67
     1
  8
0
100
AcDbBlockEnd
  0
ENDSEC
  0
SECTION
  2
ENTITIES
  0
ARC
  5
29
330
A
100
AcDbEntity
  8
1
  6
CONTINUOUS
370
    50
100
AcDbCircle
 10
88.6002708845
 20
137.9506624071
 30
0.0
 40
0.5
100
AcDbArc
 50
66.4218215218
 51
90.0
  0
ARC
  5
2A
330
A
100
AcDbEntity
  8
1
  6
CONTINUOUS
370
    50
100
AcDbCircle
 10
88.6002708845
 20
182.8006624071
 30
0.0
 40
0.5
100
AcDbArc
 50
270.0
 51
293.5781784782001
  0
LINE
  5
2B
330
A
100
AcDbEntity
  8
1
  6
CONTINUOUS
370
    50
100
AcDbLine
 10
87.8002708845
 20
182.6006624071
 30
0.0
 11
20.332792243
 21
172.761655105
 31
0.0
  0
LINE
  5
2C
330
A
100
AcDbEntity
  8
1
  6
CONTINUOUS
370
    50
100
AcDbLine
 10
20.332792243
 20
147.9896697092
 30
0.0
 11
87.8002708845
 21
138.1506624071
 31
0.0
  0
LINE
  5
2D
330
A
100
AcDbEntity
  8
1
  6
CONTINUOUS
370
    50
100
AcDbLine
 10
87.8002708845
 20
138.1506624071
 30
0.0
 11
88.3431611611
 21
138.4038163006
 31
0.0
  0
LINE
  5
2E
330
A
100
AcDbEntity
  8
1
  6
CONTINUOUS
370
    50
100
AcDbLine
 10
88.3431611611
 20
182.3475085136
 30
0.0
 11
87.8002708845
 21
182.6006624071
 31
0.0
  0
ARC
  5
2F
330
A
100
AcDbEntity
  8
1
  6
CONTINUOUS
370
    50
100
AcDbCircle
 10
88.554470292
 20
137.9506624071
 30
0.0
 40
0.5
100
AcDbArc
 50
90.0
 51
115.0
  0
ARC
  5
30
330
A
100
AcDbEntity
  8
1
  6
CONTINUOUS
370
    50
100
AcDbCircle
 10
88.554470292
 20
182.8006624071
 30
0.0
 40
0.5
100
AcDbArc
 50
245.0
 51
270.0
  0
ARC
  5
31
330
A
100
AcDbEntity
  8
1
  6
CONTINUOUS
370
    50
100
AcDbCircle
 10
111.8502708845
 20
139.4256624071
 30
0.0
 40
5.0
100
AcDbArc
 50
81.890385544
 51
180.0
  0
ARC
  5
32
330
A
100
AcDbEntity
  8
1
  6
CONTINUOUS
370
    50
100
AcDbCircle
 10
111.8502708845
 20
181.3256624071
 30
0.0
 40
5.0
100
AcDbArc
 50
180.0
 51
278.109614456
  0
LINE
  5
33
330
A
100
AcDbEntity
  8
1
  6
CONTINUOUS
370
    50
100
AcDbLine
 10
156.9754519398
 20
144.3756624071
 30
0.0
 11
206.7671427805
 21
148.2943534619
 31
0.0
  0
LINE
  5
34
330
A
100
AcDbEntity
  8
1
  6
CONTINUOUS
370
    50
100
AcDbLine
 10
206.7671427805
 20
172.4569713522
 30
0.0
 11
156.9754519398
 21
176.3756624071
 31
0.0
  0
LINE
  5
35
330
A
100
AcDbEntity
  8
1
  6
CONTINUOUS
370
    50
100
AcDbLine
 10
112.5556076835
 20
144.3756624071
 30
0.0
 11
156.9754519398
 21
144.3756624071
 31
0.0
  0
LINE
  5
36
330
A
100
AcDbEntity
  8
1
  6
CONTINUOUS
370
    50
100
AcDbLine
 10
156.9754519398
 20
176.3756624071
 30
0.0
 11
112.5556076835
 21
176.3756624071
 31
0.0
  0
ARC
  5
37
330
A
100
AcDbEntity
  8
1
  6
CONTINUOUS
370
    50
100
AcDbCircle
 10
20.5002708845
 20
148.9252945901
 30
0.0
 40
0.95
100
AcDbArc
 50
180.0
 51
258.0
  0
ARC
  5
38
330
A
100
AcDbEntity
  8
1
  6
CONTINUOUS
370
    50
100
AcDbCircle
 10
20.5002708845
 20
171.8260302241
 30
0.0
 40
0.95
100
AcDbArc
 50
102.0
 51
180.0
  0
ARC
  5
39
330
A
100
AcDbEntity
  8
1
  6
CONTINUOUS
370
    50
100
AcDbCircle
 10
205.8002708845
 20
150.0451129362
 30
0.0
 40
2.0
100
AcDbArc
 50
298.9100507074
 51
0.0
  0
ARC
  5
3A
330
A
100
AcDbEntity
  8
1
  6
CONTINUOUS
370
    50
100
AcDbCircle
 10
205.8002708845
 20
170.706211878
 30
0.0
 40
2.0
100
AcDbArc
 50
0.0
 51
61.0899492926
  0
LINE
  5
3B
330
A
100
AcDbEntity
  8
1
  6
CONTINUOUS
370
    50
100
AcDbLine
 10
106.8502708845
 20
178.7256624071
 30
0.0
 11
106.8502708845
 21
130.3027072529
 31
0.0
  0
LINE
  5
3C
330
A
100
AcDbEntity
  8
1
  6
CONTINUOUS
370
    50
100
AcDbLine
 10
106.8502708845
 20
130.3027072529
 30
0.0
 11
106.3502708845
 21
129.8985808546
 31
0.0
  0
LINE
  5
3D
330
A
100
AcDbEntity
  8
1
  6
CONTINUOUS
370
    50
100
AcDbLine
 10
106.3502708845
 20
129.8985808546
 30
0.0
 11
106.3502708845
 21
178.7256624071
 31
0.0
  0
LINE
  5
3E
330
A
100
AcDbEntity
  8
1
  6
CONTINUOUS
370
    50
100
AcDbLine
 10
106.3502708845
 20
178.7256624071
 30
0.0
 11
106.8502708845
 21
178.7256624071
 31
0.0
  0
LINE
  5
3F
330
A
100
AcDbEntity
  8
1
  6
CONTINUOUS
370
    50
100
AcDbLine
 10
89.3002708845
 20
178.7256624071
 30
0.0
 11
89.3002708845
 21
130.3257040045
 31
0.0
  0
LINE
  5
40
330
A
100
AcDbEntity
  8
1
  6
CONTINUOUS
370
    50
100
AcDbLine
 10
89.3002708845
 20
130.3257040045
 30
0.0
 11
88.8002708845
 21
131.0328609048
 31
0.0
  0
LINE
  5
41
330
A
100
AcDbEntity
  8
1
  6
CONTINUOUS
370
    50
100
AcDbLine
 10
88.8002708845
 20
131.0328609048
 30
0.0
 11
88.8002708845
 21
178.7256624071
 31
0.0
  0
LINE
  5
42
330
A
100
AcDbEntity
  8
1
  6
CONTINUOUS
370
    50
100
AcDbLine
 10
88.8002708845
 20
178.7256624071
 30
0.0
 11
89.3002708845
 21
178.7256624071
 31
0.0
  0
LINE
  5
43
330
A
100
AcDbEntity
  8
1
  6
CONTINUOUS
370
    50
100
AcDbLine
 10
102.4221075265
 20
129.8985808546
 30
0.0
 11
102.4221075265
 21
178.7256624071
 31
0.0
  0
LINE
  5
44
330
A
100
AcDbEntity
  8
1
  6
CONTINUOUS
370
    50
100
AcDbLine
 10
106.3502708845
 20
178.7256624071
 30
0.0
 11
102.4221075265
 21
178.7256624071
 31
0.0
  0
LINE
  5
45
330
A
100
AcDbEntity
  8
1
  6
CONTINUOUS
370
    50
100
AcDbLine
 10
106.3502708845
 20
129.8985808546
 30
0.0
 11
102.4221075265
 21
129.8985808546
 31
0.0
  0
LINE
  5
46
330
A
100
AcDbEntity
  8
1
  6
CONTINUOUS
370
    50
100
AcDbLine
 10
102.4221075265
 20
129.8985808546
 30
0.0
 11
101.8166087013
 21
130.7485808571
 31
0.0
  0
LWPOLYLINE
  5
47
330
A
100
AcDbEntity
  8
1
  6
CONTINUOUS
370
    50
100
AcDbPolyline
 90
        3
 70
   128
 43
0.0
 10
100.8252708845
 20
132.5317901481
 10
101.4044362763
 20
131.4890190995
 10
101.8166087013
 20
130.7485808571
  0
LINE
  5
4C
330
A
100
AcDbEntity
  8
1
  6
CONTINUOUS
370
    50
100
AcDbLine
 10
100.8252708845
 20
178.7256624071
 30
0.0
 11
100.8252708845
 21
132.5317901481
 31
0.0
  0
LINE
  5
4D
330
A
100
AcDbEntity
  8
1
  6
CONTINUOUS
370
    50
100
AcDbLine
 10
102.4221075265
 20
178.7256624071
 30
0.0
 11
100.8252708845
 21
178.7256624071
 31
0.0
  0
LINE
  5
4E
330
A
100
AcDbEntity
  8
1
  6
CONTINUOUS
370
    50
100
AcDbLine
 10
95.9839330677
 20
130.7485808571
 30
0.0
 11
95.3784342424
 21
129.8985808546
 31
0.0
  0
LINE
  5
4F
330
A
100
AcDbEntity
  8
1
  6
CONTINUOUS
370
    50
100
AcDbLine
 10
95.3784342424
 20
129.8985808546
 30
0.0
 11
95.3784342424
 21
178.7256624071
 31
0.0
  0
LINE
  5
50
330
A
100
AcDbEntity
  8
1
  6
CONTINUOUS
370
    50
100
AcDbLine
 10
96.9752708845
 20
178.7256624071
 30
0.0
 11
95.3784342424
 21
178.7256624071
 31
0.0
  0
LINE
  5
51
330
A
100
AcDbEntity
  8
1
  6
CONTINUOUS
370
    50
100
AcDbLine
 10
96.9752708845
 20
132.5317901481
 30
0.0
 11
96.9752708845
 21
178.7256624071
 31
0.0
  0
LWPOLYLINE
  5
52
330
A
100
AcDbEntity
  8
1
  6
CONTINUOUS
370
    50
100
AcDbPolyline
 90
        3
 70
   128
 43
0.0
 10
95.9839330677
 20
130.7485808571
 10
96.3961054927
 20
131.4890190995
 10
96.9752708845
 20
132.5317901481
  0
LINE
  5
57
330
A
100
AcDbEntity
  8
1
  6
CONTINUOUS
370
    50
100
AcDbLine
 10
95.3784342424
 20
129.8985808546
 30
0.0
 11
90.650270882
 21
129.8985808546
 31
0.0
  0
LWPOLYLINE
  5
58
330
A
100
AcDbEntity
  8
1
  6
CONTINUOUS
370
    50
100
AcDbPolyline
 90
        3
 70
   128
 43
0.0
 10
89.3002708845
 20
130.3257040045
 10
89.9728895321
 20
130.1046157382
 10
90.650270882
 20
129.8985808546
  0
LINE
  5
5D
330
A
100
AcDbEntity
  8
1
  6
CONTINUOUS
370
    50
100
AcDbLine
 10
95.3784342424
 20
178.7256624071
 30
0.0
 11
89.3002708845
 21
178.7256624071
 31
0.0
  0
ARC
  5
5E
330
A
100
AcDbEntity
  8
1
  6
CONTINUOUS
370
    50
100
AcDbCircle
 10
100.315568394
 20
133.0480559689
 30
0.0
 40
0.5098409115
100
AcDbArc
 50
358.6648465178
 51
88.9095710026
  0
LINE
  5
5F
330
A
100
AcDbEntity
  8
1
  6
CONTINUOUS
370
    50
100
AcDbLine
 10
100.3252708845
 20
178.7256624071
 30
0.0
 11
100.3252708845
 21
133.5578045508
 31
0.0
  0
LINE
  5
60
330
A
100
AcDbEntity
  8
1
  6
CONTINUOUS
370
    50
100
AcDbLine
 10
100.3252708845
 20
178.7256624071
 30
0.0
 11
100.8252708845
 21
178.7256624071
 31
0.0
  0
ARC
  5
61
330
A
100
AcDbEntity
  8
1
  6
CONTINUOUS
370
    50
100
AcDbCircle
 10
97.4866668232
 20
133.046432736
 30
0.0
 40
0.5114987785
100
AcDbArc
 50
91.27662714099999
 51
181.1489553385
  0
LINE
  5
62
330
A
100
AcDbEntity
  8
1
  6
CONTINUOUS
370
    50
100
AcDbLine
 10
96.9752708845
 20
178.7256624071
 30
0.0
 11
97.4752708845
 21
178.7256624071
 31
0.0
  0
LINE
  5
63
330
A
100
AcDbEntity
  8
1
  6
CONTINUOUS
370
    50
100
AcDbLine
 10
97.4752708845
 20
178.7256624071
 30
0.0
 11
97.4752708845
 21
133.5578045508
 31
0.0
  0
LINE
  5
64
330
A
100
AcDbEntity
  8
1
  6
CONTINUOUS
370
    50
100
AcDbLine
 10
100.3252708845
 20
133.5578045508
 30
0.0
 11
97.4752708845
 21
133.5578045508
 31
0.0
  0
LINE
  5
65
330
A
100
AcDbEntity
  8
1
  6
CONTINUOUS
370
    50
100
AcDbLine
 10
97.4752708845
 20
178.7256624071
 30
0.0
 11
100.3252708845
 21
178.7256624071
 31
0.0
  0
LINE
  5
66
330
A
100
AcDbEntity
  8
1
  6
CONTINUOUS
370
    50
100
AcDbLine
 10
20.332792243
 20
172.761655105
 30
0.0
 11
20.332792243
 21
147.9896697092
 31
0.0
  0
LINE
  5
67
330
A
100
AcDbEntity
  8
1
  6
CONTINUOUS
370
    50
100
AcDbLine
 10
87.8002708845
 20
138.1506624071
 30
0.0
 11
87.8002708845
 21
182.6006624071
 31
0.0
  0
LINE
  5
68
330
A
100
AcDbEntity
  8
1
  6
CONTINUOUS
370
    50
100
AcDbLine
 10
112.5556076835
 20
144.3756624071
 30
0.0
 11
112.5556076835
 21
176.3756624071
 31
0.0
  0
LINE
  5
69
330
A
100
AcDbEntity
  8
1
  6
CONTINUOUS
370
    50
100
AcDbLine
 10
89.3002708845
 20
186.2858920471
 30
0.0
 11
88.8002708845
 21
185.6707212131
 31
0.0
  0
LINE
  5
6A
330
A
100
AcDbEntity
  8
1
  6
CONTINUOUS
370
    50
100
AcDbLine
 10
89.3002708845
 20
186.2858920471
 30
0.0
 11
95.3784342424
 21
186.2858920471
 31
0.0
  0
LINE
  5
6B
330
A
100
AcDbEntity
  8
1
  6
CONTINUOUS
370
    50
100
AcDbLine
 10
95.3784342424
 20
186.2858920471
 30
0.0
 11
96.9752708845
 21
182.8113755086
 31
0.0
  0
LINE
  5
6C
330
A
100
AcDbEntity
  8
1
  6
CONTINUOUS
370
    50
100
AcDbLine
 10
96.9752708845
 20
182.1822554468
 30
0.0
 11
96.9752708845
 21
182.8113755086
 31
0.0
  0
ARC
  5
6D
330
A
100
AcDbEntity
  8
1
  6
CONTINUOUS
370
    50
100
AcDbCircle
 10
97.5489911953
 20
182.0995434103
 30
0.0
 40
0.5796518576
100
AcDbArc
 50
171.7963139134
 51
262.6933157894999
  0
LINE
  5
6E
330
A
100
AcDbEntity
  8
1
  6
CONTINUOUS
370
    50
100
AcDbLine
 10
100.3252708845
 20
181.5245985505
 30
0.0
 11
97.4752708845
 21
181.5245985505
 31
0.0
  0
LWPOLYLINE
  5
6F
330
A
100
AcDbEntity
  8
1
  6
CONTINUOUS
370
    50
100
AcDbPolyline
 90
        7
 70
   128
 43
0.0
 10
100.8252708845
 20
182.1822554468
 10
100.7807623562
 20
181.9120356556
 10
100.6758776007
 20
181.7142532594
 10
100.5539699816
 20
181.5978496159
 10
100.4829664684
 20
181.5583728557
 10
100.3564882095
 20
181.5258900048
 10
100.3252708845
 20
181.5245985505
  0
LINE
  5
78
330
A
100
AcDbEntity
  8
1
  6
CONTINUOUS
370
    50
100
AcDbLine
 10
100.8252708845
 20
182.8113755086
 30
0.0
 11
100.8252708845
 21
182.1822554468
 31
0.0
  0
LINE
  5
79
330
A
100
AcDbEntity
  8
1
  6
CONTINUOUS
370
    50
100
AcDbLine
 10
100.8252708845
 20
182.8113755086
 30
0.0
 11
102.4221075265
 21
186.2858920471
 31
0.0
  0
LINE
  5
7A
330
A
100
AcDbEntity
  8
1
  6
CONTINUOUS
370
    50
100
AcDbLine
 10
102.4221075265
 20
186.2858920471
 30
0.0
 11
106.3502708845
 21
186.2858920471
 31
0.0
  0
LINE
  5
7B
330
A
100
AcDbEntity
  8
1
  6
CONTINUOUS
370
    50
100
AcDbLine
 10
106.8502708845
 20
185.6707212131
 30
0.0
 11
106.3502708845
 21
186.2858920471
 31
0.0
  0
LINE
  5
7C
330
A
100
AcDbEntity
  8
1
  6
CONTINUOUS
370
    50
100
AcDbLine
 10
88.8002708845
 20
185.6707212131
 30
0.0
 11
88.8002708845
 21
178.7256624071
 31
0.0
  0
LINE
  5
7D
330
A
100
AcDbEntity
  8
1
  6
CONTINUOUS
370
    50
100
AcDbLine
 10
106.8502708845
 20
185.6707212131
 30
0.0
 11
106.8502708845
 21
178.7256624071
 31
0.0
  0
LINE
  5
7E
330
A
100
AcDbEntity
  8
1
  6
CONTINUOUS
370
    50
100
AcDbLine
 10
97.4752708845
 20
187.1935202634
 30
0.0
 11
97.4752708845
 21
181.5245985505
 31
0.0
  0
ARC
  5
7F
330
A
100
AcDbEntity
  8
1
  6
CONTINUOUS
370
    50
100
AcDbCircle
 10
97.4875645382
 20
187.7057525712
 30
0.0
 40
0.5123798114
100
AcDbArc
 50
178.949261051
 51
268.6251564694
  0
LINE
  5
80
330
A
100
AcDbEntity
  8
1
  6
CONTINUOUS
370
    50
100
AcDbLine
 10
100.3252708845
 20
187.1935202634
 30
0.0
 11
100.3252708845
 21
181.5245985505
 31
0.0
  0
LINE
  5
81
330
A
100
AcDbEntity
  8
1
  6
CONTINUOUS
370
    50
100
AcDbLine
 10
100.3252708845
 20
187.1935202634
 30
0.0
 11
97.4752708845
 21
187.1935202634
 31
0.0
  0
ARC
  5
82
330
A
100
AcDbEntity
  8
1
  6
CONTINUOUS
370
    50
100
AcDbCircle
 10
100.3146374762
 20
187.7041611645
 30
0.0
 40
0.5107516023
100
AcDbArc
 50
271.1929349483
 51
1.2326475312
  0
LINE
  5
83
330
A
100
AcDbEntity
  8
1
  6
CONTINUOUS
370
    50
100
AcDbLine
 10
95.3784342424
 20
190.8527439596
 30
0.0
 11
95.9839330677
 21
190.0027439571
 31
0.0
  0
LINE
  5
84
330
A
100
AcDbEntity
  8
1
  6
CONTINUOUS
370
    50
100
AcDbLine
 10
95.9839330677
 20
190.0027439571
 30
0.0
 11
96.9752708845
 21
188.2195346661
 31
0.0
  0
LINE
  5
85
330
A
100
AcDbEntity
  8
1
  6
CONTINUOUS
370
    50
100
AcDbLine
 10
95.3784342424
 20
186.2858920471
 30
0.0
 11
95.3784342424
 21
190.8527439596
 31
0.0
  0
LINE
  5
86
330
A
100
AcDbEntity
  8
1
  6
CONTINUOUS
370
    50
100
AcDbLine
 10
96.9752708845
 20
182.8113755086
 30
0.0
 11
96.9752708845
 21
188.2195346661
 31
0.0
  0
LINE
  5
87
330
A
100
AcDbEntity
  8
1
  6
CONTINUOUS
370
    50
100
AcDbLine
 10
101.8166087013
 20
190.0027439571
 30
0.0
 11
102.4221075265
 21
190.8527439596
 31
0.0
  0
LINE
  5
88
330
A
100
AcDbEntity
  8
1
  6
CONTINUOUS
370
    50
100
AcDbLine
 10
102.4221075265
 20
186.2858920471
 30
0.0
 11
102.4221075265
 21
190.8527439596
 31
0.0
  0
LINE
  5
89
330
A
100
AcDbEntity
  8
1
  6
CONTINUOUS
370
    50
100
AcDbLine
 10
100.8252708845
 20
188.2195346661
 30
0.0
 11
101.8166087013
 21
190.0027439571
 31
0.0
  0
LINE
  5
8A
330
A
100
AcDbEntity
  8
1
  6
CONTINUOUS
370
    50
100
AcDbLine
 10
100.8252708845
 20
188.2195346661
 30
0.0
 11
100.8252708845
 21
182.8113755086
 31
0.0
  0
LINE
  5
8B
330
A
100
AcDbEntity
  8
1
  6
CONTINUOUS
370
    50
100
AcDbLine
 10
89.3002708845
 20
190.4256208097
 30
0.0
 11
89.3002708845
 21
186.2858920471
 31
0.0
  0
LINE
  5
8C
330
A
100
AcDbEntity
  8
1
  6
CONTINUOUS
370
    50
100
AcDbLine
 10
88.8002708845
 20
189.7184639093
 30
0.0
 11
89.3002708845
 21
190.4256208097
 31
0.0
  0
LINE
  5
8D
330
A
100
AcDbEntity
  8
1
  6
CONTINUOUS
370
    50
100
AcDbLine
 10
88.8002708845
 20
185.6707212131
 30
0.0
 11
88.8002708845
 21
189.7184639093
 31
0.0
  0
LINE
  5
8E
330
A
100
AcDbEntity
  8
1
  6
CONTINUOUS
370
    50
100
AcDbLine
 10
106.3502708845
 20
186.2858920471
 30
0.0
 11
106.3502708845
 21
190.8527439596
 31
0.0
  0
LINE
  5
8F
330
A
100
AcDbEntity
  8
1
  6
CONTINUOUS
370
    50
100
AcDbLine
 10
106.3502708845
 20
190.8527439596
 30
0.0
 11
106.8502708845
 21
190.4486175612
 31
0.0
  0
LINE
  5
90
330
A
100
AcDbEntity
  8
1
  6
CONTINUOUS
370
    50
100
AcDbLine
 10
106.8502708845
 20
190.4486175612
 30
0.0
 11
106.8502708845
 21
185.6707212131
 31
0.0
  0
LINE
  5
91
330
A
100
AcDbEntity
  8
1
  6
CONTINUOUS
370
    50
100
AcDbLine
 10
102.4221075265
 20
190.8527439596
 30
0.0
 11
106.3502708845
 21
190.8527439596
 31
0.0
  0
LINE
  5
92
330
A
100
AcDbEntity
  8
1
  6
CONTINUOUS
370
    50
100
AcDbLine
 10
90.650270882
 20
190.8527439596
 30
0.0
 11
95.3784342424
 21
190.8527439596
 31
0.0
  0
LWPOLYLINE
  5
93
330
A
100
AcDbEntity
  8
1
  6
CONTINUOUS
370
    50
100
AcDbPolyline
 90
        3
 70
   128
 43
0.0
 10
89.3002708845
 20
190.4256208097
 10
89.9728895321
 20
190.646709076
 10
90.650270882
 20
190.8527439596
  0
LINE
  5
98
330
A
100
AcDbEntity
  8
1
  6
CONTINUOUS
370
    50
100
AcDbLine
 10
206.7671427805
 20
172.4569713522
 30
0.0
 11
206.7671427805
 21
148.2943534619
 31
0.0
  0
LINE
  5
99
330
A
100
AcDbEntity
  8
1
  6
CONTINUOUS
370
    50
100
AcDbLine
 10
156.9754519398
 20
144.3756624071
 30
0.0
 11
156.9754519398
 21
176.3756624071
 31
0.0
  0
LINE
  5
9A
330
A
100
AcDbEntity
  8
1
  6
CONTINUOUS
370
    50
100
AcDbLine
 10
19.5502708845
 20
148.9252946174
 30
0.0
 11
19.5502708845
 21
171.8260302241
 31
0.0
  0
LINE
  5
9B
330
A
100
AcDbEntity
  8
1
  6
CONTINUOUS
370
    50
100
AcDbLine
 10
207.8002708845
 20
150.0451129504
 30
0.0
 11
207.8002708845
 21
170.706211878
 31
0.0
  0
LINE
  5
9C
330
A
100
AcDbEntity
  8
1
  6
CONTINUOUS
370
    50
100
AcDbLine
 10
88.6002708845
 20
138.4506624071
 30
0.0
 11
88.6002708845
 21
182.3006624071
 31
0.0
  0
LINE
  5
9D
330
A
100
AcDbEntity
  8
1
  6
CONTINUOUS
370
    50
100
AcDbLine
 10
88.3431611611
 20
138.4038163006
 30
0.0
 11
88.3431611611
 21
182.3475085136
 31
0.0
  0
LINE
  5
9E
330
A
100
AcDbEntity
  8
1
  6
CONTINUOUS
370
    50
100
AcDbLine
 10
88.554470292
 20
138.4506624071
 30
0.0
 11
88.554470292
 21
182.3006624071
 31
0.0
  0
LINE
  5
9F
330
A
100
AcDbEntity
  8
1
  6
CONTINUOUS
370
    50
100
AcDbLine
 10
20.3027547782
 20
147.9960543694
 30
0.0
 11
20.3027547782
 21
172.7552704448
 31
0.0
  0
LWPOLYLINE
  5
A0
330
A
100
AcDbEntity
  8
1
  6
CONTINUOUS
370
    50
100
AcDbPolyline
 90
       25
 70
   128
 43
0.0
 10
103.4510498182
 20
151.7434974278
 10
103.4015241469
 20
151.2132749106
 10
103.4439840903
 20
150.7191861817
 10
103.5755360733
 20
150.2949025715
 10
103.7872150457
 20
149.9693383068
 10
104.0645954354
 20
149.7646800543
 10
104.3887742272
 20
149.6948749357
 10
104.7376591721
 20
149.7646800543
 10
105.0874743378
 20
149.9693383068
 10
105.4143803988
 20
150.2949025715
 10
105.6960992472
 20
150.7191861817
 10
105.9134322092
 20
151.2132749106
 10
106.0515684025
 20
151.7434974278
 10
106.1010940737
 20
152.2737199449
 10
106.0586341304
 20
152.7678086738
 10
105.9270821474
 20
153.192092284
 10
105.715403175
 20
153.5176565487
 10
105.4380227853
 20
153.7223148012
 10
105.1138439935
 20
153.7921199199
 10
104.7649590486
 20
153.7223148012
 10
104.4151438829
 20
153.5176565487
 10
104.0882378219
 20
153.192092284
 10
103.8065189735
 20
152.7678086738
 10
103.5891860115
 20
152.2737199449
 10
103.4510498182
 20
151.7434974278
  0
LWPOLYLINE
  5
BB
330
A
100
AcDbEntity
  8
1
  6
CONTINUOUS
370
    50
100
AcDbPolyline
 90
       18
 70
   128
 43
0.0
 10
98.6395990212
 20
151.9469980243
 10
98.6229295025
 20
151.842816617
 10
98.6068276443
 20
151.794983156
 10
98.5918417761
 20
151.8051265526
 10
98.5784822235
 20
151.8729013856
 10
98.5672039302
 20
151.9959996642
 10
98.5583909649
 20
152.1702294243
 10
98.5523434426
 20
152.3896574803
 10
98.5492673043
 20
152.6468114729
 10
98.5492673043
 20
152.9329343314
 10
98.5523434426
 20
153.238282485
 10
98.5583909649
 20
153.5524576685
 10
98.5672039302
 20
153.864761023
 10
98.5784822235
 20
154.1645574321
 10
98.5918417761
 20
154.4416376887
 10
98.6068276443
 20
154.6865661571
 10
98.6229295025
 20
154.891002092
 10
98.6395990212
 20
155.0479836729
  0
LWPOLYLINE
  5
CF
330
A
100
AcDbEntity
  8
1
  6
CONTINUOUS
370
    50
100
AcDbPolyline
 90
       18
 70
   128
 43
0.0
 10
98.6395990212
 20
155.0479836729
 10
98.1420344197
 20
155.0290136795
 10
97.6614137839
 20
154.9578895129
 10
97.2141040732
 20
154.8370332214
 10
96.8153378832
 20
154.670560421
 10
96.4786947184
 20
154.4641401433
 10
96.2156385578
 20
154.2248017832
 10
96.0351274637
 20
153.9606957215
 10
95.9433085246
 20
153.6808157734
 10
95.9433085246
 20
153.3946929149
 10
96.0351274637
 20
153.1120707167
 10
96.2156385578
 20
152.8425735389
 10
96.4786947184
 20
152.5953787845
 10
96.8153378832
 20
152.3789043745
 10
97.2141040732
 20
152.2005220854
 10
97.6614137839
 20
152.0663065119
 10
98.1420344197
 20
151.9808282044
 10
98.6395990212
 20
151.9469980243
  0
LWPOLYLINE
  5
E3
330
A
100
AcDbEntity
  8
1
  6
CONTINUOUS
370
    50
100
AcDbPolyline
 90
       25
 70
   128
 43
0.0
 10
103.4524752724
 20
151.74452024
 10
103.590081405
 20
152.2727081703
 10
103.8065804099
 20
152.764900966
 10
104.0872182377
 20
153.1875565015
 10
104.4128698842
 20
153.5118715004
 10
104.7613427279
 20
153.7157444317
 10
105.1088889203
 20
153.7852816919
 10
105.4318237628
 20
153.7157444317
 10
105.7081397795
 20
153.5118715004
 10
105.9190064905
 20
153.1875565015
 10
106.050053678
 20
152.764900966
 10
106.0923506927
 20
152.2727081703
 10
106.0430150629
 20
151.74452024
 10
105.9054089303
 20
151.2163323098
 10
105.6889099254
 20
150.7241395141
 10
105.4082720976
 20
150.3014839786
 10
105.082620451
 20
149.9771689796
 10
104.7341476074
 20
149.7732960484
 10
104.386601415
 20
149.7037587881
 10
104.0636665725
 20
149.7732960484
 10
103.7873505558
 20
149.9771689796
 10
103.5764838447
 20
150.3014839786
 10
103.4454366572
 20
150.7241395141
 10
103.4031396426
 20
151.2163323098
 10
103.4524752724
 20
151.74452024
  0
LWPOLYLINE
  5
FE
330
A
100
AcDbEntity
  8
1
  6
CONTINUOUS
370
    50
100
AcDbPolyline
 90
       22
 70
   128
 43
0.0
 10
105.4853027474
 20
151.8260465534
 10
105.3559538222
 20
151.3515992049
 10
105.1473216033
 20
150.9193085853
 10
104.877943979
 20
150.5675856134
 10
104.5717563333
 20
150.3276824187
 10
104.2559647822
 20
150.2209154528
 10
103.9586287909
 20
150.2567714291
 10
103.7061679671
 20
150.432064387
 10
103.5210145627
 20
150.7312187777
 10
103.4196202705
 20
151.1276534208
 10
103.410994418
 20
151.5861433587
 10
103.4959034504
 20
152.0659497482
 10
103.6668028272
 20
152.524439686
 10
103.9085073891
 20
152.9208743291
 10
104.1995406249
 20
153.2200287199
 10
104.5140429544
 20
153.3953216777
 10
104.8240694656
 20
153.4311776541
 10
105.1020729423
 20
153.3244106882
 10
105.3233515557
 20
153.0845074934
 10
105.4682437299
 20
152.7327845215
 10
105.5238751593
 20
152.300493902
 10
105.4853027474
 20
151.8260465534
  0
ARC
  5
116
330
A
100
AcDbEntity
  8
1
  6
CONTINUOUS
370
    50
100
AcDbCircle
 10
100.2116177757
 20
154.8529631182
 30
0.0
 40
1.584069437
100
AcDbArc
 50
169.5837820592
 51
172.9281661017
  0
ARC
  5
117
330
A
100
AcDbEntity
  8
1
  6
CONTINUOUS
370
    50
100
AcDbCircle
 10
94.4135816648
 20
145.0929457389
 30
0.0
 40
10.904523204
100
AcDbArc
 50
65.7827110029
 51
67.1179062878
  0
ARC
  5
118
330
A
100
AcDbEntity
  8
1
  6
CONTINUOUS
370
    50
100
AcDbCircle
 10
98.5692096129
 20
150.3256883578
 30
0.0
 40
4.7228198898
100
AcDbArc
 50
86.1466391329
 51
89.14602601069998
  0
ARC
  5
119
330
A
100
AcDbEntity
  8
1
  6
CONTINUOUS
370
    50
100
AcDbCircle
 10
98.7101265783
 20
156.6626473113
 30
0.0
 40
4.7161766648
100
AcDbArc
 50
269.1431444836
 51
272.144412243
  0
ARC
  5
11A
330
A
100
AcDbEntity
  8
1
  6
CONTINUOUS
370
    50
100
AcDbCircle
 10
104.6599941686
 20
162.89845229
 30
0.0
 40
12.3776278963
100
AcDbArc
 50
240.9706336713
 51
242.1966722694
  0
ARC
  5
11B
330
A
100
AcDbEntity
  8
1
  6
CONTINUOUS
370
    50
100
AcDbCircle
 10
94.3843037464
 20
152.4764456025
 30
0.0
 40
4.2881059471
100
AcDbArc
 50
352.9076566896
 51
354.6390928982
  0
LWPOLYLINE
  5
11C
330
A
100
AcDbEntity
  8
1
  6
CONTINUOUS
370
    50
100
AcDbPolyline
 90
       22
 70
   128
 43
0.0
 10
95.3031879351
 20
154.1618068421
 10
95.2646155232
 20
153.6873594935
 10
95.3202469526
 20
153.255068874
 10
95.4651391268
 20
152.9033459021
 10
95.6864177402
 20
152.6634427073
 10
95.9644212169
 20
152.5566757414
 10
96.2744477281
 20
152.5925317178
 10
96.5889500576
 20
152.7678246756
 10
96.8799832934
 20
153.0669790664
 10
97.1216878552
 20
153.4634137095
 10
97.2925872321
 20
153.9219036473
 10
97.3774962644
 20
154.4017100368
 10
97.368870412
 20
154.8601999747
 10
97.2674761197
 20
155.2566346178
 10
97.0823227154
 20
155.5557890085
 10
96.8298618915
 20
155.7310819664
 10
96.5325259002
 20
155.7669379428
 10
96.2167343492
 20
155.6601709768
 10
95.9105467035
 20
155.4202677821
 10
95.6411690792
 20
155.0685448102
 10
95.4325368603
 20
154.6362541906
 10
95.3031879351
 20
154.1618068421
  0
LINE
  5
134
330
A
100
AcDbEntity
  8
1
  6
CONTINUOUS
370
    50
100
AcDbLine
 10
89.053424778
 20
137.7756624071
 30
0.0
 11
89.053424778
 21
183.3504589757
 31
0.0
  0
LINE
  5
135
330
A
100
AcDbEntity
  8
1
  6
CONTINUOUS
370
    50
100
AcDbLine
 10
89.1002708845
 20
137.7756624071
 30
0.0
 11
89.1002708845
 21
183.1570123076
 31
0.0
  0
LWPOLYLINE
  5
136
330
A
100
AcDbEntity
  8
1
  6
CONTINUOUS
370
    50
100
AcDbPolyline
 90
        9
 70
   128
 43
0.0
 10
98.8865979713
 20
155.0378314309
 10
98.8574760214
 20
155.0556850073
 10
98.8282995923
 20
155.072091286
 10
98.7990964702
 20
155.0870346425
 10
98.7698944665
 20
155.1005008457
 10
98.7407213917
 20
155.1124770709
 10
98.7116050287
 20
155.1229519127
 10
98.6825731065
 20
155.1319153953
 10
98.6536532734
 20
155.1393589824
  0
LWPOLYLINE
  5
141
330
A
100
AcDbEntity
  8
1
  6
CONTINUOUS
370
    50
100
AcDbPolyline
 90
       24
 70
   128
 43
0.0
 10
95.0788176086
 20
154.1640053052
 10
95.0315856094
 20
153.6376131779
 10
95.0796987661
 20
153.1502611465
 10
95.2195887461
 20
152.7380938819
 10
95.4408805495
 20
152.4316799444
 10
95.7271619755
 20
152.2537446541
 10
96.0572008405
 20
152.2174846574
 10
96.4065196717
 20
152.3255891924
 10
96.7492110894
 20
152.5700406402
 10
97.0598592388
 20
152.9327091554
 10
97.3154247678
 20
153.3866972733
 10
97.4969535503
 20
153.8983347718
 10
97.590982427
 20
154.4296758385
 10
97.5905377061
 20
154.9413133371
 10
97.4956523706
 20
155.3953014549
 10
97.3133636317
 20
155.7579699701
 10
97.0571910114
 20
156.002421418
 10
96.7461336609
 20
156.110525953
 10
96.403261281
 20
156.0742659563
 10
96.0540031475
 20
155.896330666
 10
95.7242621384
 20
155.5899167285
 10
95.4384936359
 20
155.1777494638
 10
95.2178917826
 20
154.6903974325
 10
95.0788176086
 20
154.1640053052
  0
LWPOLYLINE
  5
15B
330
A
100
AcDbEntity
  8
1
  6
CONTINUOUS
370
    50
100
AcDbPolyline
 90
       24
 70
   128
 43
0.0
 10
95.0864780531
 20
154.1618068421
 10
95.0392460538
 20
153.6354147148
 10
95.0873592106
 20
153.1480626834
 10
95.2272491905
 20
152.7358954188
 10
95.4485409939
 20
152.4294814813
 10
95.73482242
 20
152.251546191
 10
96.064861285
 20
152.2152861943
 10
96.4141801162
 20
152.3233907293
 10
96.7568715338
 20
152.5678421771
 10
97.0675196832
 20
152.9305106923
 10
97.3230852123
 20
153.3844988101
 10
97.5046139948
 20
153.8961363087
 10
97.5986428714
 20
154.4274773754
 10
97.5981981505
 20
154.939114874
 10
97.503312815
 20
155.3931029918
 10
97.3210240762
 20
155.755771507
 10
97.0648514558
 20
156.0002229549
 10
96.7537941054
 20
156.1083274899
 10
96.4109217254
 20
156.0720674932
 10
96.0616635919
 20
155.8941322029
 10
95.7319225828
 20
155.5877182654
 10
95.4461540803
 20
155.1755510007
 10
95.225552227
 20
154.6881989694
 10
95.0864780531
 20
154.1618068421
  0
LWPOLYLINE
  5
175
330
A
100
AcDbEntity
  8
1
  6
CONTINUOUS
370
    50
100
AcDbPolyline
 90
       22
 70
   128
 43
0.0
 10
95.2955274907
 20
154.1640053052
 10
95.2569550787
 20
153.6895579567
 10
95.3125865082
 20
153.2572673371
 10
95.4574786824
 20
152.9055443652
 10
95.6787572958
 20
152.6656411704
 10
95.9567607725
 20
152.5588742045
 10
96.2667872836
 20
152.5947301809
 10
96.5812896132
 20
152.7700231388
 10
96.872322849
 20
153.0691775295
 10
97.1140274108
 20
153.4656121726
 10
97.2849267877
 20
153.9241021105
 10
97.36983582
 20
154.4039084999
 10
97.3612099676
 20
154.8623984378
 10
97.2598156753
 20
155.2588330809
 10
97.074662271
 20
155.5579874716
 10
96.8222014471
 20
155.7332804295
 10
96.5248654558
 20
155.7691364059
 10
96.2090739048
 20
155.6623694399
 10
95.9028862591
 20
155.4224662452
 10
95.6335086348
 20
155.0707432733
 10
95.4248764159
 20
154.6384526537
 10
95.2955274907
 20
154.1640053052
  0
LWPOLYLINE
  5
18D
330
A
100
AcDbEntity
  8
1
  6
CONTINUOUS
370
    50
100
AcDbPolyline
 90
       21
 70
   128
 43
0.0
 10
80.555686212
 20
158.3941772619
 10
80.478142356
 20
157.9876134128
 10
80.5456223473
 20
157.5880870955
 10
80.743688637
 20
157.2390802461
 10
81.0735322086
 20
156.9368232804
 10
81.7097169721
 20
156.6399298344
 10
82.7247900601
 20
156.4904910422
 10
84.0850403801
 20
156.6608630426
 10
84.9177217402
 20
157.005247733
 10
85.3253391594
 20
157.3245032254
 10
85.5370343633
 20
157.6332272224
 10
85.6101211417
 20
157.9193648685
 10
85.5746383045
 20
158.2172828881
 10
85.4481383636
 20
158.4839258049
 10
85.106912112
 20
158.8556075664
 10
84.3629057073
 20
159.2871332324
 10
83.050509569
 20
159.5834323236
 10
81.9282693299
 20
159.480809
 10
81.2391431882
 20
159.188013663
 10
80.8004641117
 20
158.8102544005
 10
80.555686212
 20
158.3941772619
  0
LWPOLYLINE
  5
1A4
330
A
100
AcDbEntity
  8
1
  6
CONTINUOUS
370
    50
100
AcDbPolyline
 90
        9
 70
   128
 43
0.0
 10
98.6536532734
 20
152.0758120673
 10
98.6825731065
 20
152.055003558
 10
98.7116050287
 20
152.035605443
 10
98.7407213917
 20
152.0176361962
 10
98.7698944665
 20
152.0011129304
 10
98.7990964702
 20
151.9860513816
 10
98.8282995923
 20
151.9724658935
 10
98.8574760214
 20
151.9603694044
 10
98.8865979713
 20
151.9497734342
  0
LINE
  5
1AF
330
A
100
AcDbEntity
  8
1
  6
CONTINUOUS
370
    50
100
AcDbLine
 10
88.8002708845
 20
137.0256624071
 30
0.0
 11
91.5002708845
 21
137.0256624071
 31
0.0
  0
LINE
  5
1B0
330
A
100
AcDbEntity
  8
1
  6
CONTINUOUS
370
    50
100
AcDbLine
 10
91.5002708845
 20
185.9256624071
 30
0.0
 11
88.8002708845
 21
185.9256624071
 31
0.0
  0
LINE
  5
1B1
330
A
100
AcDbEntity
  8
1
  6
CONTINUOUS
370
    50
100
AcDbLine
 10
91.1896107127
 20
137.7756624071
 30
0.0
 11
88.8002708845
 21
137.7756624071
 31
0.0
  0
LINE
  5
1B2
330
A
100
AcDbEntity
  8
1
  6
CONTINUOUS
370
    50
100
AcDbLine
 10
88.8002708845
 20
185.1756624071
 30
0.0
 11
91.1896107127
 21
185.1756624071
 31
0.0
  0
LINE
  5
1B3
330
A
100
AcDbEntity
  8
1
  6
CONTINUOUS
370
    50
100
AcDbLine
 10
19.8215573306
 20
151.5604810374
 30
0.0
 11
19.8215573306
 21
169.1908437768
 31
0.0
  0
LINE
  5
1B4
330
A
100
AcDbEntity
  8
1
  6
CONTINUOUS
370
    50
100
AcDbLine
 10
90.650270882
 20
129.8985808546
 30
0.0
 11
91.5002708845
 21
130.7485808571
 31
0.0
  0
LINE
  5
1B5
330
A
100
AcDbEntity
  8
1
  6
CONTINUOUS
370
    50
100
AcDbLine
 10
90.650270882
 20
190.8527439596
 30
0.0
 11
91.5002708845
 21
190.0027439571
 31
0.0
  0
LINE
  5
1B6
330
A
100
AcDbEntity
  8
1
  6
CONTINUOUS
370
    50
100
AcDbLine
 10
20.3215573306
 20
151.849156172
 30
0.0
 11
20.3215573306
 21
168.9021686422
 31
0.0
  0
LINE
  5
1B7
330
A
100
AcDbEntity
  8
1
  6
CONTINUOUS
370
    50
100
AcDbLine
 10
25.4801746951
 20
168.8756624071
 30
0.0
 11
25.4801746951
 21
151.8756624071
 31
0.0
  0
LINE
  5
1B8
330
A
100
AcDbEntity
  8
1
  6
CONTINUOUS
370
    50
100
AcDbLine
 10
25.7399823162
 20
169.0256624071
 30
0.0
 11
25.7399823162
 21
151.7256624071
 31
0.0
  0
LINE
  5
1B9
330
A
100
AcDbEntity
  8
1
  6
CONTINUOUS
370
    50
100
AcDbLine
 10
28.9595975585
 20
167.4506624071
 30
0.0
 11
28.9595975585
 21
153.3006624071
 31
0.0
  0
LINE
  5
1BA
330
A
100
AcDbEntity
  8
1
  6
CONTINUOUS
370
    50
100
AcDbLine
 10
28.0502708845
 20
169.0256624071
 30
0.0
 11
28.0502708845
 21
151.7256624071
 31
0.0
  0
LINE
  5
1BB
330
A
100
AcDbEntity
  8
1
  6
CONTINUOUS
370
    50
100
AcDbLine
 10
20.5502708845
 20
168.8756624071
 30
0.0
 11
20.5502708845
 21
151.8756624071
 31
0.0
  0
LINE
  5
1BC
330
A
100
AcDbEntity
  8
1
  6
CONTINUOUS
370
    50
100
AcDbLine
 10
91.5002708845
 20
130.7485808571
 30
0.0
 11
95.9839330677
 21
130.7485808571
 31
0.0
  0
LINE
  5
1BD
330
A
100
AcDbEntity
  8
1
  6
CONTINUOUS
370
    50
100
AcDbLine
 10
101.8166087013
 20
130.7485808571
 30
0.0
 11
106.8502708845
 21
130.7485808571
 31
0.0
  0
LINE
  5
1BE
330
A
100
AcDbEntity
  8
1
  6
CONTINUOUS
370
    50
100
AcDbLine
 10
91.5002708845
 20
130.7485808571
 30
0.0
 11
91.5002708845
 21
137.0256624071
 31
0.0
  0
LINE
  5
1BF
330
A
100
AcDbEntity
  8
1
  6
CONTINUOUS
370
    50
100
AcDbLine
 10
91.5002708845
 20
137.0256624071
 30
0.0
 11
106.8502708845
 21
137.0256624071
 31
0.0
  0
LINE
  5
1C0
330
A
100
AcDbEntity
  8
1
  6
CONTINUOUS
370
    50
100
AcDbLine
 10
106.8502708845
 20
137.7756624071
 30
0.0
 11
91.1896107127
 21
137.7756624071
 31
0.0
  0
LINE
  5
1C1
330
A
100
AcDbEntity
  8
1
  6
CONTINUOUS
370
    50
100
AcDbLine
 10
91.5002708845
 20
137.0256624071
 30
0.0
 11
91.1896107127
 21
137.7756624071
 31
0.0
  0
LINE
  5
1C2
330
A
100
AcDbEntity
  8
1
  6
CONTINUOUS
370
    50
100
AcDbLine
 10
91.1896107127
 20
185.1756624071
 30
0.0
 11
106.8502708845
 21
185.1756624071
 31
0.0
  0
LINE
  5
1C3
330
A
100
AcDbEntity
  8
1
  6
CONTINUOUS
370
    50
100
AcDbLine
 10
91.5002708845
 20
185.9256624071
 30
0.0
 11
91.1896107127
 21
185.1756624071
 31
0.0
  0
LINE
  5
1C4
330
A
100
AcDbEntity
  8
1
  6
CONTINUOUS
370
    50
100
AcDbLine
 10
106.8502708845
 20
185.9256624071
 30
0.0
 11
91.5002708845
 21
185.9256624071
 31
0.0
  0
LINE
  5
1C5
330
A
100
AcDbEntity
  8
1
  6
CONTINUOUS
370
    50
100
AcDbLine
 10
101.8166087013
 20
190.0027439571
 30
0.0
 11
106.8502708845
 21
190.0027439571
 31
0.0
  0
LINE
  5
1C6
330
A
100
AcDbEntity
  8
1
  6
CONTINUOUS
370
    50
100
AcDbLine
 10
91.5002708845
 20
190.0027439571
 30
0.0
 11
95.9839330677
 21
190.0027439571
 31
0.0
  0
LINE
  5
1C7
330
A
100
AcDbEntity
  8
1
  6
CONTINUOUS
370
    50
100
AcDbLine
 10
91.5002708845
 20
190.0027439571
 30
0.0
 11
91.5002708845
 21
185.9256624071
 31
0.0
  0
LINE
  5
1C8
330
A
100
AcDbEntity
  8
1
  6
CONTINUOUS
370
    50
100
AcDbLine
 10
53.5402708845
 20
168.3756624071
 30
0.0
 11
53.5402708845
 21
152.3756624071
 31
0.0
  0
LINE
  5
1C9
330
A
100
AcDbEntity
  8
1
  6
CONTINUOUS
370
    50
100
AcDbLine
 10
53.5502708845
 20
168.3756624071
 30
0.0
 11
53.5502708845
 21
152.3756624071
 31
0.0
  0
LINE
  5
1CA
330
A
100
AcDbEntity
  8
1
  6
CONTINUOUS
370
    50
100
AcDbLine
 10
64.5502708845
 20
167.4506624071
 30
0.0
 11
64.5502708845
 21
153.3006624071
 31
0.0
  0
LINE
  5
1CB
330
A
100
AcDbEntity
  8
1
  6
CONTINUOUS
370
    50
100
AcDbLine
 10
64.5684693962
 20
167.4006624071
 30
0.0
 11
64.5684693962
 21
153.3506624071
 31
0.0
  0
LINE
  5
1CC
330
A
100
AcDbEntity
  8
1
  6
CONTINUOUS
370
    50
100
AcDbLine
 10
99.7194051796
 20
155.3756624071
 30
0.0
 11
99.7194051796
 21
165.3756624071
 31
0.0
  0
LINE
  5
1CD
330
A
100
AcDbEntity
  8
1
  6
CONTINUOUS
370
    50
100
AcDbLine
 10
98.5502708845
 20
167.4006624071
 30
0.0
 11
98.5502708845
 21
153.3506624071
 31
0.0
  0
LWPOLYLINE
  5
1CE
330
A
100
AcDbEntity
  8
1
  6
CONTINUOUS
370
    50
100
AcDbPolyline
 90
       21
 70
   128
 43
0.0
 10
80.555686212
 20
162.3571475522
 10
80.478142356
 20
162.7637114013
 10
80.5456223473
 20
163.1632377187
 10
80.743688637
 20
163.5122445681
 10
81.0735322086
 20
163.8145015338
 10
81.7097169721
 20
164.1113949798
 10
82.7247900601
 20
164.260833772
 10
84.0850403801
 20
164.0904617715
 10
84.9177217402
 20
163.7460770811
 10
85.3253391594
 20
163.4268215888
 10
85.5370343633
 20
163.1180975918
 10
85.6101211417
 20
162.8319599456
 10
85.5746383045
 20
162.5340419261
 10
85.4481383636
 20
162.2673990093
 10
85.106912112
 20
161.8957172478
 10
84.3629057073
 20
161.4641915817
 10
83.050509569
 20
161.1678924905
 10
81.9282693299
 20
161.2705158141
 10
81.2391431882
 20
161.5633111511
 10
80.8004641117
 20
161.9410704137
 10
80.555686212
 20
162.3571475522
  0
LINE
  5
1E5
330
A
100
AcDbEntity
  8
1
  6
CONTINUOUS
370
    50
100
AcDbLine
 10
206.7370488601
 20
155.3756624071
 30
0.0
 11
206.7370488601
 21
165.3756624071
 31
0.0
  0
LINE
  5
1E6
330
A
100
AcDbEntity
  8
1
  6
CONTINUOUS
370
    50
100
AcDbLine
 10
166.3002708845
 20
165.5756624071
 30
0.0
 11
166.3002708845
 21
155.1756624071
 31
0.0
  0
LINE
  5
1E7
330
A
100
AcDbEntity
  8
1
  6
CONTINUOUS
370
    50
100
AcDbLine
 10
165.8002708845
 20
155.6756624301
 30
0.0
 11
165.8002708845
 21
165.0756624071
 31
0.0
  0
LINE
  5
1E8
330
A
100
AcDbEntity
  8
1
  6
CONTINUOUS
370
    50
100
AcDbLine
 10
175.8002708883
 20
165.3756624071
 30
0.0
 11
175.8002708883
 21
155.3756624071
 31
0.0
  0
LINE
  5
1E9
330
A
100
AcDbEntity
  8
1
  6
CONTINUOUS
370
    50
100
AcDbLine
 10
175.6848008345
 20
155.1756624071
 30
0.0
 11
175.6848008345
 21
165.5756624071
 31
0.0
  0
LINE
  5
1EA
330
A
100
AcDbEntity
  8
1
  6
CONTINUOUS
370
    50
100
AcDbLine
 10
93.9002708845
 20
184.9756624071
 30
0.0
 11
103.9002708845
 21
184.9756624071
 31
0.0
  0
LINE
  5
1EB
330
A
100
AcDbEntity
  8
1
  6
CONTINUOUS
370
    50
100
AcDbLine
 10
148.5502708845
 20
155.3756624071
 30
0.0
 11
148.5502708845
 21
165.3756624071
 31
0.0
  0
LINE
  5
1EC
330
A
100
AcDbEntity
  8
1
  6
CONTINUOUS
370
    50
100
AcDbLine
 10
149.4162962883
 20
156.8756624071
 30
0.0
 11
149.4162962883
 21
163.8756624071
 31
0.0
  0
LINE
  5
1ED
330
A
100
AcDbEntity
  8
1
  6
CONTINUOUS
370
    50
100
AcDbLine
 10
103.6002708845
 20
180.4756624071
 30
0.0
 11
94.2002708845
 21
180.4756624071
 31
0.0
  0
LINE
  5
1EE
330
A
100
AcDbEntity
  8
1
  6
CONTINUOUS
370
    50
100
AcDbLine
 10
103.9002708845
 20
180.7756624071
 30
0.0
 11
93.9182834418
 21
180.7756624071
 31
0.0
  0
LINE
  5
1EF
330
A
100
AcDbEntity
  8
1
  6
CONTINUOUS
370
    50
100
AcDbLine
 10
97.8002708845
 20
180.0756624071
 30
0.0
 11
100.0002708845
 21
180.0756624071
 31
0.0
  0
LINE
  5
1F0
330
A
100
AcDbEntity
  8
1
  6
CONTINUOUS
370
    50
100
AcDbLine
 10
97.6502708845
 20
176.6756624071
 30
0.0
 11
100.1502708845
 21
176.6756624071
 31
0.0
  0
LINE
  5
1F1
330
A
100
AcDbEntity
  8
1
  6
CONTINUOUS
370
    50
100
AcDbLine
 10
97.6502708845
 20
176.6656624071
 30
0.0
 11
100.1502708845
 21
176.6656624071
 31
0.0
  0
LINE
  5
1F2
330
A
100
AcDbEntity
  8
1
  6
CONTINUOUS
370
    50
100
AcDbLine
 10
97.8002708845
 20
174.0756624071
 30
0.0
 11
100.0002708845
 21
174.0756624071
 31
0.0
  0
LWPOLYLINE
  5
1F3
330
A
100
AcDbEntity
  8
1
  6
CONTINUOUS
370
    50
100
AcDbPolyline
 90
       22
 70
   128
 43
0.0
 10
95.2955274907
 20
166.587319509
 10
95.2569550787
 20
167.0617668575
 10
95.3125865082
 20
167.4940574771
 10
95.4574786824
 20
167.845780449
 10
95.6787572958
 20
168.0856836437
 10
95.9567607725
 20
168.1924506096
 10
96.2667872836
 20
168.1565946332
 10
96.5812896132
 20
167.9813016754
 10
96.872322849
 20
167.6821472847
 10
97.1140274108
 20
167.2857126415
 10
97.2849267877
 20
166.8272227037
 10
97.36983582
 20
166.3474163142
 10
97.3612099676
 20
165.8889263764
 10
97.2598156753
 20
165.4924917332
 10
97.074662271
 20
165.1933373425
 10
96.8222014471
 20
165.0180443847
 10
96.5248654558
 20
164.9821884083
 10
96.2090739048
 20
165.0889553742
 10
95.9028862591
 20
165.328858569
 10
95.6335086348
 20
165.6805815409
 10
95.4248764159
 20
166.1128721604
 10
95.2955274907
 20
166.587319509
  0
LINE
  5
20B
330
A
100
AcDbEntity
  8
1
  6
CONTINUOUS
370
    50
100
AcDbLine
 10
100.3252708845
 20
133.5578045508
 30
0.0
 11
100.3252708845
 21
187.1935202634
 31
0.0
  0
LINE
  5
20C
330
A
100
AcDbEntity
  8
1
  6
CONTINUOUS
370
    50
100
AcDbLine
 10
100.8252708845
 20
178.7256624071
 30
0.0
 11
100.8252708845
 21
182.1822554468
 31
0.0
  0
LINE
  5
20D
330
A
100
AcDbEntity
  8
1
  6
CONTINUOUS
370
    50
100
AcDbLine
 10
97.4752708845
 20
133.5578045508
 30
0.0
 11
97.4752708845
 21
187.1935202634
 31
0.0
  0
LINE
  5
20E
330
A
100
AcDbEntity
  8
1
  6
CONTINUOUS
370
    50
100
AcDbLine
 10
96.9752708845
 20
178.7256624071
 30
0.0
 11
96.9752708845
 21
182.1822554468
 31
0.0
  0
LINE
  5
20F
330
A
100
AcDbEntity
  8
1
  6
CONTINUOUS
370
    50
100
AcDbLine
 10
95.3784342424
 20
186.2858920471
 30
0.0
 11
95.3784342424
 21
178.7256624071
 31
0.0
  0
LINE
  5
210
330
A
100
AcDbEntity
  8
1
  6
CONTINUOUS
370
    50
100
AcDbLine
 10
106.3502708845
 20
186.2858920471
 30
0.0
 11
106.3502708845
 21
178.7256624071
 31
0.0
  0
LINE
  5
211
330
A
100
AcDbEntity
  8
1
  6
CONTINUOUS
370
    50
100
AcDbLine
 10
102.4221075265
 20
186.2858920471
 30
0.0
 11
102.4221075265
 21
178.7256624071
 31
0.0
  0
LINE
  5
212
330
A
100
AcDbEntity
  8
1
  6
CONTINUOUS
370
    50
100
AcDbLine
 10
89.3002708845
 20
178.7256624071
 30
0.0
 11
89.3002708845
 21
186.2858920471
 31
0.0
  0
LWPOLYLINE
  5
213
330
A
100
AcDbEntity
  8
1
  6
CONTINUOUS
370
    50
100
AcDbPolyline
 90
       24
 70
   128
 43
0.0
 10
95.0788176086
 20
166.587319509
 10
95.0315856094
 20
167.1137116363
 10
95.0796987661
 20
167.6010636676
 10
95.2195887461
 20
168.0132309323
 10
95.4408805495
 20
168.3196448698
 10
95.7271619755
 20
168.4975801601
 10
96.0572008405
 20
168.5338401568
 10
96.4065196717
 20
168.4257356218
 10
96.7492110894
 20
168.1812841739
 10
97.0598592388
 20
167.8186156587
 10
97.3154247678
 20
167.3646275409
 10
97.4969535503
 20
166.8529900423
 10
97.590982427
 20
166.3216489756
 10
97.5905377061
 20
165.810011477
 10
97.4956523706
 20
165.3560233592
 10
97.3133636317
 20
164.993354844
 10
97.0571910114
 20
164.7489033961
 10
96.7461336609
 20
164.6407988611
 10
96.403261281
 20
164.6770588578
 10
96.0540031475
 20
164.8549941482
 10
95.7242621384
 20
165.1614080857
 10
95.4384936359
 20
165.5735753503
 10
95.2178917826
 20
166.0609273817
 10
95.0788176086
 20
166.587319509
  0
LWPOLYLINE
  5
22D
330
A
100
AcDbEntity
  8
1
  6
CONTINUOUS
370
    50
100
AcDbPolyline
 90
       24
 70
   128
 43
0.0
 10
95.0864780531
 20
166.5895179721
 10
95.0392460538
 20
167.1159100994
 10
95.0873592106
 20
167.6032621307
 10
95.2272491905
 20
168.0154293954
 10
95.4485409939
 20
168.3218433329
 10
95.73482242
 20
168.4997786232
 10
96.064861285
 20
168.5360386199
 10
96.4141801162
 20
168.4279340849
 10
96.7568715338
 20
168.183482637
 10
97.0675196832
 20
167.8208141218
 10
97.3230852123
 20
167.366826004
 10
97.5046139948
 20
166.8551885054
 10
97.5986428714
 20
166.3238474387
 10
97.5981981505
 20
165.8122099401
 10
97.503312815
 20
165.3582218223
 10
97.3210240762
 20
164.9955533071
 10
97.0648514558
 20
164.7511018592
 10
96.7537941054
 20
164.6429973242
 10
96.4109217254
 20
164.6792573209
 10
96.0616635919
 20
164.8571926113
 10
95.7319225828
 20
165.1636065488
 10
95.4461540803
 20
165.5757738134
 10
95.225552227
 20
166.0631258448
 10
95.0864780531
 20
166.5895179721
  0
LWPOLYLINE
  5
247
330
A
100
AcDbEntity
  8
1
  6
CONTINUOUS
370
    50
100
AcDbPolyline
 90
       22
 70
   128
 43
0.0
 10
95.3031879351
 20
166.5895179721
 10
95.2646155232
 20
167.0639653206
 10
95.3202469526
 20
167.4962559402
 10
95.4651391268
 20
167.8479789121
 10
95.6864177402
 20
168.0878821068
 10
95.9644212169
 20
168.1946490727
 10
96.2744477281
 20
168.1587930963
 10
96.5889500576
 20
167.9835001385
 10
96.8799832934
 20
167.6843457478
 10
97.1216878552
 20
167.2879111047
 10
97.2925872321
 20
166.8294211668
 10
97.3774962644
 20
166.3496147773
 10
97.368870412
 20
165.8911248395
 10
97.2674761197
 20
165.4946901963
 10
97.0823227154
 20
165.1955358056
 10
96.8298618915
 20
165.0202428478
 10
96.5325259002
 20
164.9843868714
 10
96.2167343492
 20
165.0911538373
 10
95.9105467035
 20
165.3310570321
 10
95.6411690792
 20
165.682780004
 10
95.4325368603
 20
166.1150706235
 10
95.3031879351
 20
166.5895179721
  0
LWPOLYLINE
  5
25F
330
A
100
AcDbEntity
  8
1
  6
CONTINUOUS
370
    50
100
AcDbPolyline
 90
       22
 70
   128
 43
0.0
 10
105.4853027474
 20
168.9252782608
 10
105.3559538222
 20
169.3997256093
 10
105.1473216033
 20
169.8320162288
 10
104.877943979
 20
170.1837392008
 10
104.5717563333
 20
170.4236423955
 10
104.2559647822
 20
170.5304093614
 10
103.9586287909
 20
170.494553385
 10
103.7061679671
 20
170.3192604272
 10
103.5210145627
 20
170.0201060365
 10
103.4196202705
 20
169.6236713933
 10
103.410994418
 20
169.1651814555
 10
103.4959034504
 20
168.685375066
 10
103.6668028272
 20
168.2268851282
 10
103.9085073891
 20
167.830450485
 10
104.1995406249
 20
167.5312960943
 10
104.5140429544
 20
167.3560031365
 10
104.8240694656
 20
167.3201471601
 10
105.1020729423
 20
167.426914126
 10
105.3233515557
 20
167.6668173207
 10
105.4682437299
 20
168.0185402927
 10
105.5238751593
 20
168.4508309122
 10
105.4853027474
 20
168.9252782608
  0
ARC
  5
277
330
A
100
AcDbEntity
  8
1
  6
CONTINUOUS
370
    50
100
AcDbCircle
 10
100.2116177784
 20
165.8983616964
 30
0.0
 40
1.5840694397
100
AcDbArc
 50
187.0718339011
 51
190.4162179379
  0
ARC
  5
278
330
A
100
AcDbEntity
  8
1
  6
CONTINUOUS
370
    50
100
AcDbCircle
 10
94.4135816652
 20
175.6583790744
 30
0.0
 40
10.904523203
100
AcDbArc
 50
292.8820937122
 51
294.2172889972
  0
ARC
  5
279
330
A
100
AcDbEntity
  8
1
  6
CONTINUOUS
370
    50
100
AcDbCircle
 10
98.5692096128
 20
170.4256364578
 30
0.0
 40
4.7228198913
100
AcDbArc
 50
270.8539739898
 51
273.8533608667
  0
LWPOLYLINE
  5
27A
330
A
100
AcDbEntity
  8
1
  6
CONTINUOUS
370
    50
100
AcDbPolyline
 90
       18
 70
   128
 43
0.0
 10
98.6395990212
 20
168.8043267899
 10
98.6229295025
 20
168.9085081972
 10
98.6068276443
 20
168.9563416581
 10
98.5918417761
 20
168.9461982615
 10
98.5784822235
 20
168.8784234286
 10
98.5672039302
 20
168.75532515
 10
98.5583909649
 20
168.5810953899
 10
98.5523434426
 20
168.3616673339
 10
98.5492673043
 20
168.1045133413
 10
98.5492673043
 20
167.8183904827
 10
98.5523434426
 20
167.5130423291
 10
98.5583909649
 20
167.1988671456
 10
98.5672039302
 20
166.8865637912
 10
98.5784822235
 20
166.5867673821
 10
98.5918417761
 20
166.3096871254
 10
98.6068276443
 20
166.064758657
 10
98.6229295025
 20
165.8603227221
 10
98.6395990212
 20
165.7033411413
  0
ARC
  5
28E
330
A
100
AcDbEntity
  8
1
  6
CONTINUOUS
370
    50
100
AcDbCircle
 10
98.7101265783
 20
164.0886775013
 30
0.0
 40
4.7161766665
100
AcDbArc
 50
87.8555877576
 51
90.8568555159
  0
ARC
  5
28F
330
A
100
AcDbEntity
  8
1
  6
CONTINUOUS
370
    50
100
AcDbCircle
 10
104.6599941687
 20
157.8528725241
 30
0.0
 40
12.3776278964
100
AcDbArc
 50
117.8033277306
 51
119.0293663287
  0
ARC
  5
290
330
A
100
AcDbEntity
  8
1
  6
CONTINUOUS
370
    50
100
AcDbCircle
 10
94.3843037473
 20
168.2748792118
 30
0.0
 40
4.2881059462
100
AcDbArc
 50
5.3609071016
 51
7.0923433106
  0
LWPOLYLINE
  5
291
330
A
100
AcDbEntity
  8
1
  6
CONTINUOUS
370
    50
100
AcDbPolyline
 90
       18
 70
   128
 43
0.0
 10
98.6395990212
 20
165.7033411413
 10
98.1420344197
 20
165.7223111347
 10
97.6614137839
 20
165.7934353012
 10
97.2141040732
 20
165.9142915927
 10
96.8153378832
 20
166.0807643931
 10
96.4786947184
 20
166.2871846709
 10
96.2156385578
 20
166.526523031
 10
96.0351274637
 20
166.7906290927
 10
95.9433085246
 20
167.0705090408
 10
95.9433085246
 20
167.3566318993
 10
96.0351274637
 20
167.6392540975
 10
96.2156385578
 20
167.9087512753
 10
96.4786947184
 20
168.1559460296
 10
96.8153378832
 20
168.3724204396
 10
97.2141040732
 20
168.5508027288
 10
97.6614137839
 20
168.6850183023
 10
98.1420344197
 20
168.7704966097
 10
98.6395990212
 20
168.8043267899
  0
LWPOLYLINE
  5
2A5
330
A
100
AcDbEntity
  8
1
  6
CONTINUOUS
370
    50
100
AcDbPolyline
 90
        9
 70
   128
 43
0.0
 10
98.6536532734
 20
168.6755127469
 10
98.6825731065
 20
168.6963212562
 10
98.7116050287
 20
168.7157193711
 10
98.7407213917
 20
168.733688618
 10
98.7698944665
 20
168.7502118838
 10
98.7990964702
 20
168.7652734326
 10
98.8282995923
 20
168.7788589207
 10
98.8574760214
 20
168.7909554098
 10
98.8865979713
 20
168.80155138
  0
LWPOLYLINE
  5
2B0
330
A
100
AcDbEntity
  8
1
  6
CONTINUOUS
370
    50
100
AcDbPolyline
 90
       17
 70
   128
 43
0.0
 10
106.8502708845
 20
146.4535077677
 10
105.8113252804
 20
147.2982589245
 10
104.8804102056
 20
148.2551502652
 10
104.0701932427
 20
149.3111607308
 10
103.3916995544
 20
150.4519204823
 10
102.8541618571
 20
151.6619064408
 10
102.4648947847
 20
152.9246535202
 10
102.229195354
 20
154.2229786783
 10
102.1502708845
 20
155.5392147387
 10
102.229195354
 20
156.8554507991
 10
102.4648947847
 20
158.1537759572
 10
102.8541618571
 20
159.4165230365
 10
103.3916995544
 20
160.6265089951
 10
104.0701932427
 20
161.7672687466
 10
104.8804102056
 20
162.8232792122
 10
105.8113252804
 20
163.7801705528
 10
106.8502708845
 20
164.6249217097
  0
LWPOLYLINE
  5
2C3
330
A
100
AcDbEntity
  8
1
  6
CONTINUOUS
370
    50
100
AcDbPolyline
 90
       17
 70
   128
 43
0.0
 10
106.8502708845
 20
145.1038014416
 10
105.8113252804
 20
145.9485525985
 10
104.8804102056
 20
146.9054439391
 10
104.0701932427
 20
147.9614544047
 10
103.3916995544
 20
149.1022141562
 10
102.8541618571
 20
150.3122001148
 10
102.4648947847
 20
151.5749471941
 10
102.229195354
 20
152.8732723523
 10
102.1502708845
 20
154.1895084126
 10
102.229195354
 20
155.505744473
 10
102.4648947847
 20
156.8040696312
 10
102.8541618571
 20
158.0668167105
 10
103.3916995544
 20
159.276802669
 10
104.0701932427
 20
160.4175624206
 10
104.8804102056
 20
161.4735728861
 10
105.8113252804
 20
162.4304642268
 10
106.8502708845
 20
163.2752153836
  0
LWPOLYLINE
  5
2D6
330
A
100
AcDbEntity
  8
1
  6
CONTINUOUS
370
    50
100
AcDbPolyline
 90
        9
 70
   128
 43
0.0
 10
98.8865979713
 20
165.7134933832
 10
98.8574760214
 20
165.6956398069
 10
98.8282995923
 20
165.6792335282
 10
98.7990964702
 20
165.6642901716
 10
98.7698944665
 20
165.6508239685
 10
98.7407213917
 20
165.6388477433
 10
98.7116050287
 20
165.6283729015
 10
98.6825731065
 20
165.6194094189
 10
98.6536532734
 20
165.6119658318
  0
LWPOLYLINE
  5
2E1
330
A
100
AcDbEntity
  8
1
  6
CONTINUOUS
370
    50
100
AcDbPolyline
 90
       25
 70
   128
 43
0.0
 10
103.4510498182
 20
169.0078273864
 10
103.4015241469
 20
169.5380499036
 10
103.4439840903
 20
170.0321386325
 10
103.5755360733
 20
170.4564222427
 10
103.7872150457
 20
170.7819865073
 10
104.0645954354
 20
170.9866447598
 10
104.3887742272
 20
171.0564498785
 10
104.7376591721
 20
170.9866447598
 10
105.0874743378
 20
170.7819865073
 10
105.4143803988
 20
170.4564222427
 10
105.6960992472
 20
170.0321386325
 10
105.9134322092
 20
169.5380499036
 10
106.0515684025
 20
169.0078273864
 10
106.1010940737
 20
168.4776048692
 10
106.0586341304
 20
167.9835161403
 10
105.9270821474
 20
167.5592325301
 10
105.715403175
 20
167.2336682655
 10
105.4380227853
 20
167.029010013
 10
105.1138439935
 20
166.9592048943
 10
104.7649590486
 20
167.029010013
 10
104.4151438829
 20
167.2336682655
 10
104.0882378219
 20
167.5592325301
 10
103.8065189735
 20
167.9835161403
 10
103.5891860115
 20
168.4776048692
 10
103.4510498182
 20
169.0078273864
  0
LWPOLYLINE
  5
2FC
330
A
100
AcDbEntity
  8
1
  6
CONTINUOUS
370
    50
100
AcDbPolyline
 90
       25
 70
   128
 43
0.0
 10
106.0430150629
 20
169.0068045741
 10
105.9054089303
 20
169.5349925044
 10
105.6889099254
 20
170.0271853001
 10
105.4082720976
 20
170.4498408355
 10
105.082620451
 20
170.7741558345
 10
104.7341476074
 20
170.9780287658
 10
104.386601415
 20
171.047566026
 10
104.0636665725
 20
170.9780287658
 10
103.7873505558
 20
170.7741558345
 10
103.5764838447
 20
170.4498408355
 10
103.4454366572
 20
170.0271853001
 10
103.4031396426
 20
169.5349925044
 10
103.4524752724
 20
169.0068045741
 10
103.590081405
 20
168.4786166439
 10
103.8065804099
 20
167.9864238482
 10
104.0872182377
 20
167.5637683127
 10
104.4128698842
 20
167.2394533137
 10
104.7613427279
 20
167.0355803824
 10
105.1088889203
 20
166.9660431222
 10
105.4318237628
 20
167.0355803824
 10
105.7081397795
 20
167.2394533137
 10
105.9190064905
 20
167.5637683127
 10
106.050053678
 20
167.9864238482
 10
106.0923506927
 20
168.4786166439
 10
106.0430150629
 20
169.0068045741
  0
LINE
  5
317
330
A
100
AcDbEntity
  8
1
  6
CONTINUOUS
370
    50
100
AcDbLine
 10
90.0002708845
 20
140.3756624071
 30
0.0
 11
94.6002708845
 21
140.3756624071
 31
0.0
  0
LINE
  5
318
330
A
100
AcDbEntity
  8
1
  6
CONTINUOUS
370
    50
100
AcDbLine
 10
90.0002708845
 20
180.3756624071
 30
0.0
 11
90.0002708845
 21
140.3756624071
 31
0.0
  0
LINE
  5
319
330
A
100
AcDbEntity
  8
1
  6
CONTINUOUS
370
    50
100
AcDbLine
 10
94.6002708845
 20
140.3756624071
 30
0.0
 11
94.6002708845
 21
180.3756624071
 31
0.0
  0
LINE
  5
31A
330
A
100
AcDbEntity
  8
1
  6
CONTINUOUS
370
    50
100
AcDbLine
 10
105.4002708845
 20
140.3756624071
 30
0.0
 11
105.4002708845
 21
180.3756624071
 31
0.0
  0
LINE
  5
31B
330
A
100
AcDbEntity
  8
1
  6
CONTINUOUS
370
    50
100
AcDbLine
 10
103.4002708845
 20
180.3756624071
 30
0.0
 11
103.4002708845
 21
140.3756624071
 31
0.0
  0
LINE
  5
31C
330
A
100
AcDbEntity
  8
1
  6
CONTINUOUS
370
    50
100
AcDbLine
 10
103.4002708845
 20
140.3756624071
 30
0.0
 11
105.4002708845
 21
140.3756624071
 31
0.0
  0
LINE
  5
31D
330
A
100
AcDbEntity
  8
1
  6
CONTINUOUS
370
    50
100
AcDbLine
 10
94.6002708845
 20
180.3756624071
 30
0.0
 11
90.0002708845
 21
180.3756624071
 31
0.0
  0
LINE
  5
31E
330
A
100
AcDbEntity
  8
1
  6
CONTINUOUS
370
    50
100
AcDbLine
 10
105.4002708845
 20
180.3756624071
 30
0.0
 11
103.4002708845
 21
180.3756624071
 31
0.0
  0
LINE
  5
31F
330
A
100
AcDbEntity
  8
1
  6
CONTINUOUS
370
    50
100
AcDbLine
 10
106.8502708845
 20
153.3258884074
 30
0.0
 11
105.330601878
 21
153.7620166596
 31
0.0
  0
LINE
  5
320
330
A
100
AcDbEntity
  8
1
  6
CONTINUOUS
370
    50
100
AcDbLine
 10
104.1720163427
 20
149.7249781959
 30
0.0
 11
106.8502708845
 21
148.9563486672
 31
0.0
  0
LINE
  5
321
330
A
100
AcDbEntity
  8
1
  6
CONTINUOUS
370
    50
100
AcDbLine
 10
88.8002708845
 20
149.4444618756
 30
0.0
 11
98.6027628914
 21
151.7920124833
 31
0.0
  0
LINE
  5
322
330
A
100
AcDbEntity
  8
1
  6
CONTINUOUS
370
    50
100
AcDbLine
 10
97.5400859157
 20
154.9308305235
 30
0.0
 11
88.8002708845
 21
152.837775199
 31
0.0
  0
LINE
  5
323
330
A
100
AcDbEntity
  8
1
  6
CONTINUOUS
370
    50
100
AcDbLine
 10
103.8983724811
 20
152.9222817888
 30
0.0
 11
103.7937354968
 21
152.7549952192
 31
0.0
  0
LINE
  5
324
330
A
100
AcDbEntity
  8
1
  6
CONTINUOUS
370
    50
100
AcDbLine
 10
103.4030708905
 20
151.3937422135
 30
0.0
 11
103.4030708905
 21
151.1964259829
 31
0.0
  0
LINE
  5
325
330
A
100
AcDbEntity
  8
1
  6
CONTINUOUS
370
    50
100
AcDbLine
 10
104.9188290496
 20
153.4120259499
 30
0.0
 11
96.7799788392
 21
155.7477862385
 31
0.0
  0
LINE
  5
326
330
A
100
AcDbEntity
  8
1
  6
CONTINUOUS
370
    50
100
AcDbLine
 10
98.6006668911
 20
151.7920590428
 30
0.0
 11
104.0085118433
 21
150.240067157
 31
0.0
  0
LINE
  5
327
330
A
100
AcDbEntity
  8
1
  6
CONTINUOUS
370
    50
100
AcDbLine
 10
95.8696616329
 20
152.5758274456
 30
0.0
 11
97.4775228862
 21
152.1143889908
 31
0.0
  0
LINE
  5
328
330
A
100
AcDbEntity
  8
1
  6
CONTINUOUS
370
    50
100
AcDbLine
 10
89.053424778
 20
183.3683214384
 30
0.0
 11
88.8002708845
 21
183.911211715
 31
0.0
  0
ARC
  5
329
330
A
100
AcDbEntity
  8
1
  6
CONTINUOUS
370
    50
100
AcDbCircle
 10
88.6002708845
 20
183.1570123076
 30
0.0
 40
0.5
100
AcDbArc
 50
0.0
 51
25.0
  0
ARC
  5
32A
330
A
100
AcDbEntity
  8
1
  6
CONTINUOUS
370
    50
100
AcDbCircle
 10
88.6002708845
 20
137.9506624071
 30
0.0
 40
0.5
100
AcDbArc
 50
0.0
 51
66.4218215218
  0
ARC
  5
32B
330
A
100
AcDbEntity
  8
1
  6
CONTINUOUS
370
    50
100
AcDbCircle
 10
88.6002708845
 20
182.8006624071
 30
0.0
 40
0.5
100
AcDbArc
 50
293.5781784782001
 51
0.0
  0
LINE
  5
32C
330
A
100
AcDbEntity
  8
1
  6
CONTINUOUS
370
    50
100
AcDbLine
 10
96.7723183947
 20
155.7499847017
 30
0.0
 11
83.9506677348
 21
159.4296570967
 31
0.0
  0
LINE
  5
32D
330
A
100
AcDbEntity
  8
1
  6
CONTINUOUS
370
    50
100
AcDbLine
 10
81.7559349008
 20
156.6263114297
 30
0.0
 11
95.8620011885
 21
152.5780259087
 31
0.0
  0
ARC
  5
32E
330
A
100
AcDbEntity
  8
1
  6
CONTINUOUS
370
    50
100
AcDbCircle
 10
20.5502708845
 20
150.8756624071
 30
0.0
 40
1.0
100
AcDbArc
 50
136.778654881
 51
180.0
  0
ARC
  5
32F
330
A
100
AcDbEntity
  8
1
  6
CONTINUOUS
370
    50
100
AcDbCircle
 10
20.5502708845
 20
169.8756624071
 30
0.0
 40
1.0
100
AcDbArc
 50
180.0
 51
223.221345119
  0
LINE
  5
330
330
A
100
AcDbEntity
  8
1
  6
CONTINUOUS
370
    50
100
AcDbLine
 10
19.8215573306
 20
151.5604810374
 30
0.0
 11
20.3215573306
 21
151.849156172
 31
0.0
  0
LINE
  5
331
330
A
100
AcDbEntity
  8
1
  6
CONTINUOUS
370
    50
100
AcDbLine
 10
20.3215573306
 20
168.9021686422
 30
0.0
 11
19.8215573306
 21
169.1908437768
 31
0.0
  0
LINE
  5
332
330
A
100
AcDbEntity
  8
1
  6
CONTINUOUS
370
    50
100
AcDbLine
 10
25.7399823162
 20
169.0256624071
 30
0.0
 11
25.4801746951
 21
168.8756624071
 31
0.0
  0
LINE
  5
333
330
A
100
AcDbEntity
  8
1
  6
CONTINUOUS
370
    50
100
AcDbLine
 10
25.4801746951
 20
151.8756624071
 30
0.0
 11
25.7399823162
 21
151.7256624071
 31
0.0
  0
LINE
  5
334
330
A
100
AcDbEntity
  8
1
  6
CONTINUOUS
370
    50
100
AcDbLine
 10
28.0502708845
 20
151.7256624071
 30
0.0
 11
28.9595975585
 21
153.3006624071
 31
0.0
  0
LINE
  5
335
330
A
100
AcDbEntity
  8
1
  6
CONTINUOUS
370
    50
100
AcDbLine
 10
28.9595975585
 20
167.4506624071
 30
0.0
 11
28.0502708845
 21
169.0256624071
 31
0.0
  0
LINE
  5
336
330
A
100
AcDbEntity
  8
1
  6
CONTINUOUS
370
    50
100
AcDbLine
 10
28.0502708845
 20
169.0256624071
 30
0.0
 11
25.7399823162
 21
169.0256624071
 31
0.0
  0
LINE
  5
337
330
A
100
AcDbEntity
  8
1
  6
CONTINUOUS
370
    50
100
AcDbLine
 10
25.7399823162
 20
151.7256624071
 30
0.0
 11
28.0502708845
 21
151.7256624071
 31
0.0
  0
ARC
  5
338
330
A
100
AcDbEntity
  8
1
  6
CONTINUOUS
370
    50
100
AcDbCircle
 10
20.5502708845
 20
150.8756624071
 30
0.0
 40
1.0
100
AcDbArc
 50
90.0
 51
103.221345119
  0
ARC
  5
339
330
A
100
AcDbEntity
  8
1
  6
CONTINUOUS
370
    50
100
AcDbCircle
 10
20.5502708845
 20
169.8756624071
 30
0.0
 40
1.0
100
AcDbArc
 50
256.778654881
 51
270.0
  0
LINE
  5
33A
330
A
100
AcDbEntity
  8
1
  6
CONTINUOUS
370
    50
100
AcDbLine
 10
20.5502708845
 20
151.8756624071
 30
0.0
 11
25.4801746951
 21
151.8756624071
 31
0.0
  0
LINE
  5
33B
330
A
100
AcDbEntity
  8
1
  6
CONTINUOUS
370
    50
100
AcDbLine
 10
25.4801746951
 20
168.8756624071
 30
0.0
 11
20.5502708845
 21
168.8756624071
 31
0.0
  0
LINE
  5
33C
330
A
100
AcDbEntity
  8
1
  6
CONTINUOUS
370
    50
100
AcDbLine
 10
53.5402708845
 20
167.4506624071
 30
0.0
 11
28.9595975585
 21
167.4506624071
 31
0.0
  0
LINE
  5
33D
330
A
100
AcDbEntity
  8
1
  6
CONTINUOUS
370
    50
100
AcDbLine
 10
28.9595975585
 20
153.3006624071
 30
0.0
 11
53.5402708845
 21
153.3006624071
 31
0.0
  0
LINE
  5
33E
330
A
100
AcDbEntity
  8
1
  6
CONTINUOUS
370
    50
100
AcDbLine
 10
64.5502708845
 20
167.4506624071
 30
0.0
 11
53.5502708845
 21
167.4506624071
 31
0.0
  0
LINE
  5
33F
330
A
100
AcDbEntity
  8
1
  6
CONTINUOUS
370
    50
100
AcDbLine
 10
53.5502708845
 20
153.3006624071
 30
0.0
 11
64.5502708845
 21
153.3006624071
 31
0.0
  0
LINE
  5
340
330
A
100
AcDbEntity
  8
1
  6
CONTINUOUS
370
    50
100
AcDbLine
 10
98.5502708845
 20
153.3506624071
 30
0.0
 11
99.7194051796
 21
155.3756624071
 31
0.0
  0
LINE
  5
341
330
A
100
AcDbEntity
  8
1
  6
CONTINUOUS
370
    50
100
AcDbLine
 10
99.7194051796
 20
165.3756624071
 30
0.0
 11
98.5502708845
 21
167.4006624071
 31
0.0
  0
LINE
  5
342
330
A
100
AcDbEntity
  8
1
  6
CONTINUOUS
370
    50
100
AcDbLine
 10
98.5502708845
 20
167.4006624071
 30
0.0
 11
64.5684693962
 21
167.4006624071
 31
0.0
  0
LINE
  5
343
330
A
100
AcDbEntity
  8
1
  6
CONTINUOUS
370
    50
100
AcDbLine
 10
64.5684693962
 20
153.3506624071
 30
0.0
 11
98.5502708845
 21
153.3506624071
 31
0.0
  0
ARC
  5
344
330
A
100
AcDbEntity
  8
1
  6
CONTINUOUS
370
    50
100
AcDbCircle
 10
206.3002708845
 20
153.9406624071
 30
0.0
 40
1.5
100
AcDbArc
 50
0.0
 51
73.0710674448
  0
ARC
  5
345
330
A
100
AcDbEntity
  8
1
  6
CONTINUOUS
370
    50
100
AcDbCircle
 10
206.3002708845
 20
166.8106624071
 30
0.0
 40
1.5
100
AcDbArc
 50
286.9289325552
 51
0.0
  0
ARC
  5
346
330
A
100
AcDbEntity
  8
1
  6
CONTINUOUS
370
    50
100
AcDbCircle
 10
166.3002708845
 20
155.6756624071
 30
0.0
 40
0.5
100
AcDbArc
 50
180.0
 51
270.0
  0
ARC
  5
347
330
A
100
AcDbEntity
  8
1
  6
CONTINUOUS
370
    50
100
AcDbCircle
 10
166.3002708845
 20
165.0756624071
 30
0.0
 40
0.5
100
AcDbArc
 50
90.0
 51
180.0
  0
LINE
  5
348
330
A
100
AcDbEntity
  8
1
  6
CONTINUOUS
370
    50
100
AcDbLine
 10
175.6848008345
 20
155.1756624071
 30
0.0
 11
175.8002708883
 21
155.3756624071
 31
0.0
  0
LINE
  5
349
330
A
100
AcDbEntity
  8
1
  6
CONTINUOUS
370
    50
100
AcDbLine
 10
175.8002708883
 20
165.3756624071
 30
0.0
 11
175.6848008345
 21
165.5756624071
 31
0.0
  0
LINE
  5
34A
330
A
100
AcDbEntity
  8
1
  6
CONTINUOUS
370
    50
100
AcDbLine
 10
166.3002708845
 20
155.1756624071
 30
0.0
 11
175.6848008345
 21
155.1756624071
 31
0.0
  0
LINE
  5
34B
330
A
100
AcDbEntity
  8
1
  6
CONTINUOUS
370
    50
100
AcDbLine
 10
175.6848008345
 20
165.5756624071
 30
0.0
 11
166.3002708845
 21
165.5756624071
 31
0.0
  0
LINE
  5
34C
330
A
100
AcDbEntity
  8
1
  6
CONTINUOUS
370
    50
100
AcDbLine
 10
93.7002708845
 20
185.1756624071
 30
0.0
 11
93.9002708845
 21
184.9756624071
 31
0.0
  0
LINE
  5
34D
330
A
100
AcDbEntity
  8
1
  6
CONTINUOUS
370
    50
100
AcDbLine
 10
103.9002708845
 20
184.9756624071
 30
0.0
 11
104.1002708845
 21
185.1756624071
 31
0.0
  0
LINE
  5
34E
330
A
100
AcDbEntity
  8
1
  6
CONTINUOUS
370
    50
100
AcDbLine
 10
175.8002708883
 20
155.3756624071
 30
0.0
 11
206.7370488601
 21
155.3756624071
 31
0.0
  0
LINE
  5
34F
330
A
100
AcDbEntity
  8
1
  6
CONTINUOUS
370
    50
100
AcDbLine
 10
206.7370488601
 20
165.3756624071
 30
0.0
 11
175.8002708883
 21
165.3756624071
 31
0.0
  0
LINE
  5
350
330
A
100
AcDbEntity
  8
1
  6
CONTINUOUS
370
    50
100
AcDbLine
 10
99.7194051796
 20
155.3756624071
 30
0.0
 11
148.5502708845
 21
155.3756624071
 31
0.0
  0
LINE
  5
351
330
A
100
AcDbEntity
  8
1
  6
CONTINUOUS
370
    50
100
AcDbLine
 10
148.5502708845
 20
165.3756624071
 30
0.0
 11
99.7194051796
 21
165.3756624071
 31
0.0
  0
LINE
  5
352
330
A
100
AcDbEntity
  8
1
  6
CONTINUOUS
370
    50
100
AcDbLine
 10
148.5502708845
 20
155.3756624071
 30
0.0
 11
149.4162962883
 21
156.8756624071
 31
0.0
  0
LINE
  5
353
330
A
100
AcDbEntity
  8
1
  6
CONTINUOUS
370
    50
100
AcDbLine
 10
149.4162962883
 20
163.8756624071
 30
0.0
 11
148.5502708845
 21
165.3756624071
 31
0.0
  0
ARC
  5
354
330
A
100
AcDbEntity
  8
1
  6
CONTINUOUS
370
    50
100
AcDbCircle
 10
94.2002708845
 20
180.7756624071
 30
0.0
 40
0.3
100
AcDbArc
 50
180.0
 51
270.0
  0
ARC
  5
355
330
A
100
AcDbEntity
  8
1
  6
CONTINUOUS
370
    50
100
AcDbCircle
 10
103.6002708845
 20
180.7756624071
 30
0.0
 40
0.3
100
AcDbArc
 50
270.0
 51
0.0
  0
LINE
  5
356
330
A
100
AcDbEntity
  8
1
  6
CONTINUOUS
370
    50
100
AcDbLine
 10
93.9002708845
 20
184.9756624071
 30
0.0
 11
93.9002708845
 21
180.7756624071
 31
0.0
  0
LINE
  5
357
330
A
100
AcDbEntity
  8
1
  6
CONTINUOUS
370
    50
100
AcDbLine
 10
103.9002708845
 20
180.7756624071
 30
0.0
 11
103.9002708845
 21
184.9756624071
 31
0.0
  0
LINE
  5
358
330
A
100
AcDbEntity
  8
1
  6
CONTINUOUS
370
    50
100
AcDbLine
 10
149.4162962883
 20
156.8756624071
 30
0.0
 11
165.8002708845
 21
156.8756624071
 31
0.0
  0
LINE
  5
359
330
A
100
AcDbEntity
  8
1
  6
CONTINUOUS
370
    50
100
AcDbLine
 10
165.8002708845
 20
163.8756624071
 30
0.0
 11
149.4162962883
 21
163.8756624071
 31
0.0
  0
LINE
  5
35A
330
A
100
AcDbEntity
  8
1
  6
CONTINUOUS
370
    50
100
AcDbLine
 10
97.4002708845
 20
180.4756624071
 30
0.0
 11
97.8002708845
 21
180.0756624071
 31
0.0
  0
LINE
  5
35B
330
A
100
AcDbEntity
  8
1
  6
CONTINUOUS
370
    50
100
AcDbLine
 10
100.0002708845
 20
180.0756624071
 30
0.0
 11
100.4002708845
 21
180.4756624071
 31
0.0
  0
LINE
  5
35C
330
A
100
AcDbEntity
  8
1
  6
CONTINUOUS
370
    50
100
AcDbLine
 10
97.8002708845
 20
174.0756624071
 30
0.0
 11
98.9002708845
 21
173.6752951494
 31
0.0
  0
LINE
  5
35D
330
A
100
AcDbEntity
  8
1
  6
CONTINUOUS
370
    50
100
AcDbLine
 10
98.9002708845
 20
173.6752951494
 30
0.0
 11
100.0002708845
 21
174.0756624071
 31
0.0
  0
LINE
  5
35E
330
A
100
AcDbEntity
  8
1
  6
CONTINUOUS
370
    50
100
AcDbLine
 10
97.8002708845
 20
176.6656624071
 30
0.0
 11
97.8002708845
 21
174.0756624071
 31
0.0
  0
LINE
  5
35F
330
A
100
AcDbEntity
  8
1
  6
CONTINUOUS
370
    50
100
AcDbLine
 10
100.0002708845
 20
174.0756624071
 30
0.0
 11
100.0002708845
 21
176.6656624071
 31
0.0
  0
LINE
  5
360
330
A
100
AcDbEntity
  8
1
  6
CONTINUOUS
370
    50
100
AcDbLine
 10
97.8002708845
 20
180.0756624071
 30
0.0
 11
97.8002708845
 21
176.6756624071
 31
0.0
  0
LINE
  5
361
330
A
100
AcDbEntity
  8
1
  6
CONTINUOUS
370
    50
100
AcDbLine
 10
100.0002708845
 20
176.6756624071
 30
0.0
 11
100.0002708845
 21
180.0756624071
 31
0.0
  0
LINE
  5
362
330
A
100
AcDbEntity
  8
1
  6
CONTINUOUS
370
    50
100
AcDbLine
 10
95.8620011885
 20
168.1732989054
 30
0.0
 11
81.7559349008
 21
164.1250133845
 31
0.0
  0
LINE
  5
363
330
A
100
AcDbEntity
  8
1
  6
CONTINUOUS
370
    50
100
AcDbLine
 10
83.9506677348
 20
161.3216677175
 30
0.0
 11
96.7723183947
 21
165.0013401125
 31
0.0
  0
LINE
  5
364
330
A
100
AcDbEntity
  8
1
  6
CONTINUOUS
370
    50
100
AcDbLine
 10
97.4775228862
 20
168.6369358234
 30
0.0
 11
95.8696616329
 21
168.1754973685
 31
0.0
  0
LINE
  5
365
330
A
100
AcDbEntity
  8
1
  6
CONTINUOUS
370
    50
100
AcDbLine
 10
104.0085118433
 20
170.5112576572
 30
0.0
 11
98.6006668911
 21
168.9592657714
 31
0.0
  0
LINE
  5
366
330
A
100
AcDbEntity
  8
1
  6
CONTINUOUS
370
    50
100
AcDbLine
 10
96.7799788392
 20
165.0035385756
 30
0.0
 11
104.9188290496
 21
167.3392988643
 31
0.0
  0
LINE
  5
367
330
A
100
AcDbEntity
  8
1
  6
CONTINUOUS
370
    50
100
AcDbLine
 10
88.8002708845
 20
167.9135496152
 30
0.0
 11
97.5400859157
 21
165.8204942907
 31
0.0
  0
LINE
  5
368
330
A
100
AcDbEntity
  8
1
  6
CONTINUOUS
370
    50
100
AcDbLine
 10
98.6027628914
 20
168.9593123309
 30
0.0
 11
88.8002708845
 21
171.3068629386
 31
0.0
  0
LINE
  5
369
330
A
100
AcDbEntity
  8
1
  6
CONTINUOUS
370
    50
100
AcDbLine
 10
102.1502708845
 20
155.5392147387
 30
0.0
 11
102.1502708845
 21
154.1895084126
 31
0.0
  0
LINE
  5
36A
330
A
100
AcDbEntity
  8
1
  6
CONTINUOUS
370
    50
100
AcDbLine
 10
106.8502708845
 20
171.794976147
 30
0.0
 11
104.1720163427
 21
171.0263466183
 31
0.0
  0
LINE
  5
36B
330
A
100
AcDbEntity
  8
1
  6
CONTINUOUS
370
    50
100
AcDbLine
 10
105.330601878
 20
166.9893081545
 30
0.0
 11
106.8502708845
 21
167.4254364068
 31
0.0
  0
LINE
  5
36C
330
A
100
AcDbEntity
  8
1
  6
CONTINUOUS
370
    50
100
AcDbLine
 10
103.4030708905
 20
169.5548988313
 30
0.0
 11
103.4030708905
 21
169.3575826006
 31
0.0
  0
LINE
  5
36D
330
A
100
AcDbEntity
  8
1
  6
CONTINUOUS
370
    50
100
AcDbLine
 10
103.7937354968
 20
167.996329595
 30
0.0
 11
103.8983724811
 21
167.8290430253
 31
0.0
  0
LINE
  5
36E
330
A
100
AcDbEntity
  8
1
  6
CONTINUOUS
370
    50
100
AcDbLine
 10
88.6002708845
 20
182.3006624071
 30
0.0
 11
88.6002708845
 21
138.4506624071
 31
0.0
  0
LINE
  5
36F
330
A
100
AcDbEntity
  8
1
  6
CONTINUOUS
370
    50
100
AcDbLine
 10
88.3431611611
 20
182.3475085136
 30
0.0
 11
88.3431611611
 21
138.4038163006
 31
0.0
  0
LINE
  5
370
330
A
100
AcDbEntity
  8
1
  6
CONTINUOUS
370
    50
100
AcDbLine
 10
88.554470292
 20
182.3006624071
 30
0.0
 11
88.554470292
 21
138.4506624071
 31
0.0
  0
LINE
  5
371
330
A
100
AcDbEntity
  8
1
  6
CONTINUOUS
370
    50
100
AcDbLine
 10
20.3027547782
 20
172.7552704448
 30
0.0
 11
20.3027547782
 21
147.9960543694
 31
0.0
  0
LINE
  5
372
330
A
100
AcDbEntity
  8
1
  6
CONTINUOUS
370
    50
100
AcDbLine
 10
95.0788176086
 20
166.587319509
 30
0.0
 11
95.0338049904
 21
167.2208305907
 31
0.0
  0
LINE
  5
373
330
A
100
AcDbEntity
  8
1
  6
CONTINUOUS
370
    50
100
AcDbLine
 10
95.0338049904
 20
167.2208305907
 30
0.0
 11
95.1278637781
 21
167.7856909167
 31
0.0
  0
LINE
  5
374
330
A
100
AcDbEntity
  8
1
  6
CONTINUOUS
370
    50
100
AcDbLine
 10
95.1278637781
 20
167.7856909167
 30
0.0
 11
95.3508012427
 21
168.2206891061
 31
0.0
  0
LINE
  5
375
330
A
100
AcDbEntity
  8
1
  6
CONTINUOUS
370
    50
100
AcDbLine
 10
95.3508012427
 20
168.2206891061
 30
0.0
 11
95.6784586507
 21
168.4786863553
 31
0.0
  0
LINE
  5
376
330
A
100
AcDbEntity
  8
1
  6
CONTINUOUS
370
    50
100
AcDbLine
 10
95.6784586507
 20
168.4786863553
 30
0.0
 11
96.0753292378
 21
168.5317246591
 31
0.0
  0
LINE
  5
377
330
A
100
AcDbEntity
  8
1
  6
CONTINUOUS
370
    50
100
AcDbLine
 10
96.0753292378
 20
168.5317246591
 30
0.0
 11
96.4984059178
 21
168.3740564944
 31
0.0
  0
LINE
  5
378
330
A
100
AcDbEntity
  8
1
  6
CONTINUOUS
370
    50
100
AcDbLine
 10
96.4984059178
 20
168.3740564944
 30
0.0
 11
96.9018417677
 21
168.0227676531
 31
0.0
  0
LINE
  5
379
330
A
100
AcDbEntity
  8
1
  6
CONTINUOUS
370
    50
100
AcDbLine
 10
96.9018417677
 20
168.0227676531
 30
0.0
 11
97.2419182532
 21
167.5159257322
 31
0.0
  0
LINE
  5
37A
330
A
100
AcDbEntity
  8
1
  6
CONTINUOUS
370
    50
100
AcDbLine
 10
97.2419182532
 20
167.5159257322
 30
0.0
 11
97.4817828102
 21
166.9084549182
 31
0.0
  0
LINE
  5
37B
330
A
100
AcDbEntity
  8
1
  6
CONTINUOUS
370
    50
100
AcDbLine
 10
97.4817828102
 20
166.9084549182
 30
0.0
 11
97.5954423923
 21
166.2661840997
 31
0.0
  0
LINE
  5
37C
330
A
100
AcDbEntity
  8
1
  6
CONTINUOUS
370
    50
100
AcDbLine
 10
97.5954423923
 20
166.2661840997
 30
0.0
 11
97.5705802199
 21
165.6587132857
 31
0.0
  0
LINE
  5
37D
330
A
100
AcDbEntity
  8
1
  6
CONTINUOUS
370
    50
100
AcDbLine
 10
97.5705802199
 20
165.6587132857
 30
0.0
 11
97.4098904953
 21
165.1518713648
 31
0.0
  0
LINE
  5
37E
330
A
100
AcDbEntity
  8
1
  6
CONTINUOUS
370
    50
100
AcDbLine
 10
97.4098904953
 20
165.1518713648
 30
0.0
 11
97.1307864435
 21
164.8005825236
 31
0.0
  0
LINE
  5
37F
330
A
100
AcDbEntity
  8
1
  6
CONTINUOUS
370
    50
100
AcDbLine
 10
97.1307864435
 20
164.8005825236
 30
0.0
 11
96.7635133193
 21
164.6429143588
 31
0.0
  0
LINE
  5
380
330
A
100
AcDbEntity
  8
1
  6
CONTINUOUS
370
    50
100
AcDbLine
 10
96.7635133193
 20
164.6429143588
 30
0.0
 11
96.3478708644
 21
164.6959526626
 31
0.0
  0
LINE
  5
381
330
A
100
AcDbEntity
  8
1
  6
CONTINUOUS
370
    50
100
AcDbLine
 10
96.3478708644
 20
164.6959526626
 30
0.0
 11
95.9289003883
 21
164.9539499118
 31
0.0
  0
LINE
  5
382
330
A
100
AcDbEntity
  8
1
  6
CONTINUOUS
370
    50
100
AcDbLine
 10
95.9289003883
 20
164.9539499118
 30
0.0
 11
95.552003843
 21
165.3889481012
 31
0.0
  0
LINE
  5
383
330
A
100
AcDbEntity
  8
1
  6
CONTINUOUS
370
    50
100
AcDbLine
 10
95.552003843
 20
165.3889481012
 30
0.0
 11
95.2580238173
 21
165.9538084273
 31
0.0
  0
LINE
  5
384
330
A
100
AcDbEntity
  8
1
  6
CONTINUOUS
370
    50
100
AcDbLine
 10
95.2580238173
 20
165.9538084273
 30
0.0
 11
95.0788176086
 21
166.587319509
 31
0.0
  0
LINE
  5
385
330
A
100
AcDbEntity
  8
1
  6
CONTINUOUS
370
    50
100
AcDbLine
 10
103.2530170477
 20
170.0509599094
 30
0.0
 11
103.1781939276
 21
169.4725313654
 31
0.0
  0
LINE
  5
386
330
A
100
AcDbEntity
  8
1
  6
CONTINUOUS
370
    50
100
AcDbLine
 10
103.1781939276
 20
169.4725313654
 30
0.0
 11
103.2426721347
 21
168.834799456
 31
0.0
  0
LINE
  5
387
330
A
100
AcDbEntity
  8
1
  6
CONTINUOUS
370
    50
100
AcDbLine
 10
103.2426721347
 20
168.834799456
 30
0.0
 11
103.4394644545
 21
168.206872329
 31
0.0
  0
LINE
  5
388
330
A
100
AcDbEntity
  8
1
  6
CONTINUOUS
370
    50
100
AcDbLine
 10
103.4394644545
 20
168.206872329
 30
0.0
 11
103.7472453857
 21
167.656795632
 31
0.0
  0
LINE
  5
389
330
A
100
AcDbEntity
  8
1
  6
CONTINUOUS
370
    50
100
AcDbLine
 10
103.7472453857
 20
167.656795632
 30
0.0
 11
104.1326620888
 21
167.2441787103
 31
0.0
  0
LINE
  5
38A
330
A
100
AcDbEntity
  8
1
  6
CONTINUOUS
370
    50
100
AcDbLine
 10
104.1326620888
 20
167.2441787103
 30
0.0
 11
104.5539486835
 21
167.0137350098
 31
0.0
  0
LINE
  5
38B
330
A
100
AcDbEntity
  8
1
  6
CONTINUOUS
370
    50
100
AcDbLine
 10
104.5539486835
 20
167.0137350098
 30
0.0
 11
104.9654522305
 21
166.9904366813
 31
0.0
  0
LINE
  5
38C
330
A
100
AcDbEntity
  8
1
  6
CONTINUOUS
370
    50
100
AcDbLine
 10
104.9654522305
 20
166.9904366813
 30
0.0
 11
105.3225799351
 21
167.17680846
 31
0.0
  0
LINE
  5
38D
330
A
100
AcDbEntity
  8
1
  6
CONTINUOUS
370
    50
100
AcDbLine
 10
105.3225799351
 20
167.17680846
 30
0.0
 11
105.5866314694
 21
167.552654072
 31
0.0
  0
LINE
  5
38E
330
A
100
AcDbEntity
  8
1
  6
CONTINUOUS
370
    50
100
AcDbLine
 10
105.5866314694
 20
167.552654072
 30
0.0
 11
105.7289927522
 21
168.0772448132
 31
0.0
  0
LINE
  5
38F
330
A
100
AcDbEntity
  8
1
  6
CONTINUOUS
370
    50
100
AcDbLine
 10
105.7289927522
 20
168.0772448132
 30
0.0
 11
105.7342367298
 21
168.6937331371
 31
0.0
  0
LINE
  5
390
330
A
100
AcDbEntity
  8
1
  6
CONTINUOUS
370
    50
100
AcDbLine
 10
105.7342367298
 20
168.6937331371
 30
0.0
 11
105.6017951356
 21
169.335312968
 31
0.0
  0
LINE
  5
391
330
A
100
AcDbEntity
  8
1
  6
CONTINUOUS
370
    50
100
AcDbLine
 10
105.6017951356
 20
169.335312968
 30
0.0
 11
105.3460200716
 21
169.9324591759
 31
0.0
  0
LINE
  5
392
330
A
100
AcDbEntity
  8
1
  6
CONTINUOUS
370
    50
100
AcDbLine
 10
105.3460200716
 20
169.9324591759
 30
0.0
 11
104.9946287346
 21
170.4204617037
 31
0.0
  0
LINE
  5
393
330
A
100
AcDbEntity
  8
1
  6
CONTINUOUS
370
    50
100
AcDbLine
 10
104.9946287346
 20
170.4204617037
 30
0.0
 11
104.5856998284
 21
170.7464379053
 31
0.0
  0
LINE
  5
394
330
A
100
AcDbEntity
  8
1
  6
CONTINUOUS
370
    50
100
AcDbLine
 10
104.5856998284
 20
170.7464379053
 30
0.0
 11
104.1635471452
 21
170.8750632012
 31
0.0
  0
LINE
  5
395
330
A
100
AcDbEntity
  8
1
  6
CONTINUOUS
370
    50
100
AcDbLine
 10
104.1635471452
 20
170.8750632012
 30
0.0
 11
103.7739174786
 21
170.7923990447
 31
0.0
  0
LINE
  5
396
330
A
100
AcDbEntity
  8
1
  6
CONTINUOUS
370
    50
100
AcDbLine
 10
103.7739174786
 20
170.7923990447
 30
0.0
 11
103.4590332487
 21
170.50740338
 31
0.0
  0
LINE
  5
397
330
A
100
AcDbEntity
  8
1
  6
CONTINUOUS
370
    50
100
AcDbLine
 10
103.4590332487
 20
170.50740338
 30
0.0
 11
103.2530170477
 21
170.0509599094
 31
0.0
  0
LINE
  5
398
330
A
100
AcDbEntity
  8
1
  6
CONTINUOUS
370
    50
100
AcDbLine
 10
97.563162419
 20
166.5895179721
 30
0.0
 11
97.6081750373
 21
165.9560068904
 31
0.0
  0
LINE
  5
399
330
A
100
AcDbEntity
  8
1
  6
CONTINUOUS
370
    50
100
AcDbLine
 10
97.6081750373
 20
165.9560068904
 30
0.0
 11
97.5141162495
 21
165.3911465643
 31
0.0
  0
LINE
  5
39A
330
A
100
AcDbEntity
  8
1
  6
CONTINUOUS
370
    50
100
AcDbLine
 10
97.5141162495
 20
165.3911465643
 30
0.0
 11
97.2911787849
 21
164.9561483749
 31
0.0
  0
LINE
  5
39B
330
A
100
AcDbEntity
  8
1
  6
CONTINUOUS
370
    50
100
AcDbLine
 10
97.2911787849
 20
164.9561483749
 30
0.0
 11
96.9635213769
 21
164.6981511257
 31
0.0
  0
LINE
  5
39C
330
A
100
AcDbEntity
  8
1
  6
CONTINUOUS
370
    50
100
AcDbLine
 10
96.9635213769
 20
164.6981511257
 30
0.0
 11
96.5666507898
 21
164.6451128219
 31
0.0
  0
LINE
  5
39D
330
A
100
AcDbEntity
  8
1
  6
CONTINUOUS
370
    50
100
AcDbLine
 10
96.5666507898
 20
164.6451128219
 30
0.0
 11
96.1435741099
 21
164.8027809867
 31
0.0
  0
LINE
  5
39E
330
A
100
AcDbEntity
  8
1
  6
CONTINUOUS
370
    50
100
AcDbLine
 10
96.1435741099
 20
164.8027809867
 30
0.0
 11
95.74013826
 21
165.1540698279
 31
0.0
  0
LINE
  5
39F
330
A
100
AcDbEntity
  8
1
  6
CONTINUOUS
370
    50
100
AcDbLine
 10
95.74013826
 20
165.1540698279
 30
0.0
 11
95.4000617745
 21
165.6609117488
 31
0.0
  0
LINE
  5
3A0
330
A
100
AcDbEntity
  8
1
  6
CONTINUOUS
370
    50
100
AcDbLine
 10
95.4000617745
 20
165.6609117488
 30
0.0
 11
95.1601972174
 21
166.2683825628
 31
0.0
  0
LINE
  5
3A1
330
A
100
AcDbEntity
  8
1
  6
CONTINUOUS
370
    50
100
AcDbLine
 10
95.1601972174
 20
166.2683825628
 30
0.0
 11
95.0465376354
 21
166.9106533813
 31
0.0
  0
LINE
  5
3A2
330
A
100
AcDbEntity
  8
1
  6
CONTINUOUS
370
    50
100
AcDbLine
 10
95.0465376354
 20
166.9106533813
 30
0.0
 11
95.0713998077
 21
167.5181241953
 31
0.0
  0
LINE
  5
3A3
330
A
100
AcDbEntity
  8
1
  6
CONTINUOUS
370
    50
100
AcDbLine
 10
95.0713998077
 20
167.5181241953
 30
0.0
 11
95.2320895323
 21
168.0249661163
 31
0.0
  0
LINE
  5
3A4
330
A
100
AcDbEntity
  8
1
  6
CONTINUOUS
370
    50
100
AcDbLine
 10
95.2320895323
 20
168.0249661163
 30
0.0
 11
95.5111935841
 21
168.3762549575
 31
0.0
  0
LINE
  5
3A5
330
A
100
AcDbEntity
  8
1
  6
CONTINUOUS
370
    50
100
AcDbLine
 10
95.5111935841
 20
168.3762549575
 30
0.0
 11
95.8784667084
 21
168.5339231222
 31
0.0
  0
LINE
  5
3A6
330
A
100
AcDbEntity
  8
1
  6
CONTINUOUS
370
    50
100
AcDbLine
 10
95.8784667084
 20
168.5339231222
 30
0.0
 11
96.2941091632
 21
168.4808848184
 31
0.0
  0
LINE
  5
3A7
330
A
100
AcDbEntity
  8
1
  6
CONTINUOUS
370
    50
100
AcDbLine
 10
96.2941091632
 20
168.4808848184
 30
0.0
 11
96.7130796394
 21
168.2228875692
 31
0.0
  0
LINE
  5
3A8
330
A
100
AcDbEntity
  8
1
  6
CONTINUOUS
370
    50
100
AcDbLine
 10
96.7130796394
 20
168.2228875692
 30
0.0
 11
97.0899761847
 21
167.7878893798
 31
0.0
  0
LINE
  5
3A9
330
A
100
AcDbEntity
  8
1
  6
CONTINUOUS
370
    50
100
AcDbLine
 10
97.0899761847
 20
167.7878893798
 30
0.0
 11
97.3839562103
 21
167.2230290538
 31
0.0
  0
LINE
  5
3AA
330
A
100
AcDbEntity
  8
1
  6
CONTINUOUS
370
    50
100
AcDbLine
 10
97.3839562103
 20
167.2230290538
 30
0.0
 11
97.563162419
 21
166.5895179721
 31
0.0
  0
LINE
  5
3AB
330
A
100
AcDbEntity
  8
1
  6
CONTINUOUS
370
    50
100
AcDbLine
 10
95.0788176086
 20
154.1640053052
 30
0.0
 11
95.0338049904
 21
153.5304942235
 31
0.0
  0
LINE
  5
3AC
330
A
100
AcDbEntity
  8
1
  6
CONTINUOUS
370
    50
100
AcDbLine
 10
95.0338049904
 20
153.5304942235
 30
0.0
 11
95.1278637781
 21
152.9656338974
 31
0.0
  0
LINE
  5
3AD
330
A
100
AcDbEntity
  8
1
  6
CONTINUOUS
370
    50
100
AcDbLine
 10
95.1278637781
 20
152.9656338974
 30
0.0
 11
95.3508012427
 21
152.530635708
 31
0.0
  0
LINE
  5
3AE
330
A
100
AcDbEntity
  8
1
  6
CONTINUOUS
370
    50
100
AcDbLine
 10
95.3508012427
 20
152.530635708
 30
0.0
 11
95.6784586507
 21
152.2726384589
 31
0.0
  0
LINE
  5
3AF
330
A
100
AcDbEntity
  8
1
  6
CONTINUOUS
370
    50
100
AcDbLine
 10
95.6784586507
 20
152.2726384589
 30
0.0
 11
96.0753292378
 21
152.219600155
 31
0.0
  0
LINE
  5
3B0
330
A
100
AcDbEntity
  8
1
  6
CONTINUOUS
370
    50
100
AcDbLine
 10
96.0753292378
 20
152.219600155
 30
0.0
 11
96.4984059178
 21
152.3772683198
 31
0.0
  0
LINE
  5
3B1
330
A
100
AcDbEntity
  8
1
  6
CONTINUOUS
370
    50
100
AcDbLine
 10
96.4984059178
 20
152.3772683198
 30
0.0
 11
96.9018417677
 21
152.728557161
 31
0.0
  0
LINE
  5
3B2
330
A
100
AcDbEntity
  8
1
  6
CONTINUOUS
370
    50
100
AcDbLine
 10
96.9018417677
 20
152.728557161
 30
0.0
 11
97.2419182532
 21
153.2353990819
 31
0.0
  0
LINE
  5
3B3
330
A
100
AcDbEntity
  8
1
  6
CONTINUOUS
370
    50
100
AcDbLine
 10
97.2419182532
 20
153.2353990819
 30
0.0
 11
97.4817828102
 21
153.8428698959
 31
0.0
  0
LINE
  5
3B4
330
A
100
AcDbEntity
  8
1
  6
CONTINUOUS
370
    50
100
AcDbLine
 10
97.4817828102
 20
153.8428698959
 30
0.0
 11
97.5954423923
 21
154.4851407145
 31
0.0
  0
LINE
  5
3B5
330
A
100
AcDbEntity
  8
1
  6
CONTINUOUS
370
    50
100
AcDbLine
 10
97.5954423923
 20
154.4851407145
 30
0.0
 11
97.5705802199
 21
155.0926115285
 31
0.0
  0
LINE
  5
3B6
330
A
100
AcDbEntity
  8
1
  6
CONTINUOUS
370
    50
100
AcDbLine
 10
97.5705802199
 20
155.0926115285
 30
0.0
 11
97.4098904953
 21
155.5994534494
 31
0.0
  0
LINE
  5
3B7
330
A
100
AcDbEntity
  8
1
  6
CONTINUOUS
370
    50
100
AcDbLine
 10
97.4098904953
 20
155.5994534494
 30
0.0
 11
97.1307864435
 21
155.9507422906
 31
0.0
  0
LINE
  5
3B8
330
A
100
AcDbEntity
  8
1
  6
CONTINUOUS
370
    50
100
AcDbLine
 10
97.1307864435
 20
155.9507422906
 30
0.0
 11
96.7635133193
 21
156.1084104553
 31
0.0
  0
LINE
  5
3B9
330
A
100
AcDbEntity
  8
1
  6
CONTINUOUS
370
    50
100
AcDbLine
 10
96.7635133193
 20
156.1084104553
 30
0.0
 11
96.3478708644
 21
156.0553721515
 31
0.0
  0
LINE
  5
3BA
330
A
100
AcDbEntity
  8
1
  6
CONTINUOUS
370
    50
100
AcDbLine
 10
96.3478708644
 20
156.0553721515
 30
0.0
 11
95.9289003883
 21
155.7973749023
 31
0.0
  0
LINE
  5
3BB
330
A
100
AcDbEntity
  8
1
  6
CONTINUOUS
370
    50
100
AcDbLine
 10
95.9289003883
 20
155.7973749023
 30
0.0
 11
95.552003843
 21
155.362376713
 31
0.0
  0
LINE
  5
3BC
330
A
100
AcDbEntity
  8
1
  6
CONTINUOUS
370
    50
100
AcDbLine
 10
95.552003843
 20
155.362376713
 30
0.0
 11
95.2580238173
 21
154.7975163869
 31
0.0
  0
LINE
  5
3BD
330
A
100
AcDbEntity
  8
1
  6
CONTINUOUS
370
    50
100
AcDbLine
 10
95.2580238173
 20
154.7975163869
 30
0.0
 11
95.0788176086
 21
154.1640053052
 31
0.0
  0
LINE
  5
3BE
330
A
100
AcDbEntity
  8
1
  6
CONTINUOUS
370
    50
100
AcDbLine
 10
103.2530170477
 20
150.7003649048
 30
0.0
 11
103.1781939276
 21
151.2787934488
 31
0.0
  0
LINE
  5
3BF
330
A
100
AcDbEntity
  8
1
  6
CONTINUOUS
370
    50
100
AcDbLine
 10
103.1781939276
 20
151.2787934488
 30
0.0
 11
103.2426721347
 21
151.9165253582
 31
0.0
  0
LINE
  5
3C0
330
A
100
AcDbEntity
  8
1
  6
CONTINUOUS
370
    50
100
AcDbLine
 10
103.2426721347
 20
151.9165253582
 30
0.0
 11
103.4394644545
 21
152.5444524852
 31
0.0
  0
LINE
  5
3C1
330
A
100
AcDbEntity
  8
1
  6
CONTINUOUS
370
    50
100
AcDbLine
 10
103.4394644545
 20
152.5444524852
 30
0.0
 11
103.7472453857
 21
153.0945291822
 31
0.0
  0
LINE
  5
3C2
330
A
100
AcDbEntity
  8
1
  6
CONTINUOUS
370
    50
100
AcDbLine
 10
103.7472453857
 20
153.0945291822
 30
0.0
 11
104.1326620888
 21
153.5071461039
 31
0.0
  0
LINE
  5
3C3
330
A
100
AcDbEntity
  8
1
  6
CONTINUOUS
370
    50
100
AcDbLine
 10
104.1326620888
 20
153.5071461039
 30
0.0
 11
104.5539486835
 21
153.7375898043
 31
0.0
  0
LINE
  5
3C4
330
A
100
AcDbEntity
  8
1
  6
CONTINUOUS
370
    50
100
AcDbLine
 10
104.5539486835
 20
153.7375898043
 30
0.0
 11
104.9654522305
 21
153.7608881329
 31
0.0
  0
LINE
  5
3C5
330
A
100
AcDbEntity
  8
1
  6
CONTINUOUS
370
    50
100
AcDbLine
 10
104.9654522305
 20
153.7608881329
 30
0.0
 11
105.3225799351
 21
153.5745163542
 31
0.0
  0
LINE
  5
3C6
330
A
100
AcDbEntity
  8
1
  6
CONTINUOUS
370
    50
100
AcDbLine
 10
105.3225799351
 20
153.5745163542
 30
0.0
 11
105.5866314694
 21
153.1986707422
 31
0.0
  0
LINE
  5
3C7
330
A
100
AcDbEntity
  8
1
  6
CONTINUOUS
370
    50
100
AcDbLine
 10
105.5866314694
 20
153.1986707422
 30
0.0
 11
105.7289927522
 21
152.6740800009
 31
0.0
  0
LINE
  5
3C8
330
A
100
AcDbEntity
  8
1
  6
CONTINUOUS
370
    50
100
AcDbLine
 10
105.7289927522
 20
152.6740800009
 30
0.0
 11
105.7342367298
 21
152.057591677
 31
0.0
  0
LINE
  5
3C9
330
A
100
AcDbEntity
  8
1
  6
CONTINUOUS
370
    50
100
AcDbLine
 10
105.7342367298
 20
152.057591677
 30
0.0
 11
105.6017951356
 21
151.4160118462
 31
0.0
  0
LINE
  5
3CA
330
A
100
AcDbEntity
  8
1
  6
CONTINUOUS
370
    50
100
AcDbLine
 10
105.6017951356
 20
151.4160118462
 30
0.0
 11
105.3460200716
 21
150.8188656382
 31
0.0
  0
LINE
  5
3CB
330
A
100
AcDbEntity
  8
1
  6
CONTINUOUS
370
    50
100
AcDbLine
 10
105.3460200716
 20
150.8188656382
 30
0.0
 11
104.9946287346
 21
150.3308631104
 31
0.0
  0
LINE
  5
3CC
330
A
100
AcDbEntity
  8
1
  6
CONTINUOUS
370
    50
100
AcDbLine
 10
104.9946287346
 20
150.3308631104
 30
0.0
 11
104.5856998284
 21
150.0048869089
 31
0.0
  0
LINE
  5
3CD
330
A
100
AcDbEntity
  8
1
  6
CONTINUOUS
370
    50
100
AcDbLine
 10
104.5856998284
 20
150.0048869089
 30
0.0
 11
104.1635471452
 21
149.876261613
 31
0.0
  0
LINE
  5
3CE
330
A
100
AcDbEntity
  8
1
  6
CONTINUOUS
370
    50
100
AcDbLine
 10
104.1635471452
 20
149.876261613
 30
0.0
 11
103.7739174786
 21
149.9589257694
 31
0.0
  0
LINE
  5
3CF
330
A
100
AcDbEntity
  8
1
  6
CONTINUOUS
370
    50
100
AcDbLine
 10
103.7739174786
 20
149.9589257694
 30
0.0
 11
103.4590332487
 21
150.2439214342
 31
0.0
  0
LINE
  5
3D0
330
A
100
AcDbEntity
  8
1
  6
CONTINUOUS
370
    50
100
AcDbLine
 10
103.4590332487
 20
150.2439214342
 30
0.0
 11
103.2530170477
 21
150.7003649048
 31
0.0
  0
LINE
  5
3D1
330
A
100
AcDbEntity
  8
1
  6
CONTINUOUS
370
    50
100
AcDbLine
 10
95.0864780531
 20
154.1618068421
 30
0.0
 11
95.0414654348
 21
153.5282957604
 31
0.0
  0
LINE
  5
3D2
330
A
100
AcDbEntity
  8
1
  6
CONTINUOUS
370
    50
100
AcDbLine
 10
95.0414654348
 20
153.5282957604
 30
0.0
 11
95.1355242225
 21
152.9634354343
 31
0.0
  0
LINE
  5
3D3
330
A
100
AcDbEntity
  8
1
  6
CONTINUOUS
370
    50
100
AcDbLine
 10
95.1355242225
 20
152.9634354343
 30
0.0
 11
95.3584616872
 21
152.5284372449
 31
0.0
  0
LINE
  5
3D4
330
A
100
AcDbEntity
  8
1
  6
CONTINUOUS
370
    50
100
AcDbLine
 10
95.3584616872
 20
152.5284372449
 30
0.0
 11
95.6861190952
 21
152.2704399958
 31
0.0
  0
LINE
  5
3D5
330
A
100
AcDbEntity
  8
1
  6
CONTINUOUS
370
    50
100
AcDbLine
 10
95.6861190952
 20
152.2704399958
 30
0.0
 11
96.0829896823
 21
152.2174016919
 31
0.0
  0
LINE
  5
3D6
330
A
100
AcDbEntity
  8
1
  6
CONTINUOUS
370
    50
100
AcDbLine
 10
96.0829896823
 20
152.2174016919
 30
0.0
 11
96.5060663622
 21
152.3750698567
 31
0.0
  0
LINE
  5
3D7
330
A
100
AcDbEntity
  8
1
  6
CONTINUOUS
370
    50
100
AcDbLine
 10
96.5060663622
 20
152.3750698567
 30
0.0
 11
96.9095022121
 21
152.7263586979
 31
0.0
  0
LINE
  5
3D8
330
A
100
AcDbEntity
  8
1
  6
CONTINUOUS
370
    50
100
AcDbLine
 10
96.9095022121
 20
152.7263586979
 30
0.0
 11
97.2495786976
 21
153.2332006188
 31
0.0
  0
LINE
  5
3D9
330
A
100
AcDbEntity
  8
1
  6
CONTINUOUS
370
    50
100
AcDbLine
 10
97.2495786976
 20
153.2332006188
 30
0.0
 11
97.4894432547
 21
153.8406714328
 31
0.0
  0
LINE
  5
3DA
330
A
100
AcDbEntity
  8
1
  6
CONTINUOUS
370
    50
100
AcDbLine
 10
97.4894432547
 20
153.8406714328
 30
0.0
 11
97.6031028367
 21
154.4829422514
 31
0.0
  0
LINE
  5
3DB
330
A
100
AcDbEntity
  8
1
  6
CONTINUOUS
370
    50
100
AcDbLine
 10
97.6031028367
 20
154.4829422514
 30
0.0
 11
97.5782406643
 21
155.0904130654
 31
0.0
  0
LINE
  5
3DC
330
A
100
AcDbEntity
  8
1
  6
CONTINUOUS
370
    50
100
AcDbLine
 10
97.5782406643
 20
155.0904130654
 30
0.0
 11
97.4175509397
 21
155.5972549863
 31
0.0
  0
LINE
  5
3DD
330
A
100
AcDbEntity
  8
1
  6
CONTINUOUS
370
    50
100
AcDbLine
 10
97.4175509397
 20
155.5972549863
 30
0.0
 11
97.138446888
 21
155.9485438275
 31
0.0
  0
LINE
  5
3DE
330
A
100
AcDbEntity
  8
1
  6
CONTINUOUS
370
    50
100
AcDbLine
 10
97.138446888
 20
155.9485438275
 30
0.0
 11
96.7711737637
 21
156.1062119922
 31
0.0
  0
LINE
  5
3DF
330
A
100
AcDbEntity
  8
1
  6
CONTINUOUS
370
    50
100
AcDbLine
 10
96.7711737637
 20
156.1062119922
 30
0.0
 11
96.3555313088
 21
156.0531736884
 31
0.0
  0
LINE
  5
3E0
330
A
100
AcDbEntity
  8
1
  6
CONTINUOUS
370
    50
100
AcDbLine
 10
96.3555313088
 20
156.0531736884
 30
0.0
 11
95.9365608327
 21
155.7951764392
 31
0.0
  0
LINE
  5
3E1
330
A
100
AcDbEntity
  8
1
  6
CONTINUOUS
370
    50
100
AcDbLine
 10
95.9365608327
 20
155.7951764392
 30
0.0
 11
95.5596642874
 21
155.3601782499
 31
0.0
  0
LINE
  5
3E2
330
A
100
AcDbEntity
  8
1
  6
CONTINUOUS
370
    50
100
AcDbLine
 10
95.5596642874
 20
155.3601782499
 30
0.0
 11
95.2656842617
 21
154.7953179238
 31
0.0
  0
LINE
  5
3E3
330
A
100
AcDbEntity
  8
1
  6
CONTINUOUS
370
    50
100
AcDbLine
 10
95.2656842617
 20
154.7953179238
 30
0.0
 11
95.0864780531
 21
154.1618068421
 31
0.0
  0
LINE
  5
3E4
330
A
100
AcDbEntity
  8
1
  6
CONTINUOUS
370
    50
100
AcDbLine
 10
53.4602708845
 20
168.3756624071
 30
0.0
 11
28.4255485595
 21
168.3756624071
 31
0.0
  0
LINE
  5
3E5
330
A
100
AcDbEntity
  8
1
  6
CONTINUOUS
370
    50
100
AcDbLine
 10
28.4255485595
 20
152.3756624071
 30
0.0
 11
53.4602708845
 21
152.3756624071
 31
0.0
  0
LINE
  5
3E6
330
A
100
AcDbEntity
  8
1
  6
CONTINUOUS
370
    50
100
AcDbLine
 10
53.4602708845
 20
168.3756624071
 30
0.0
 11
53.4602708845
 21
168.3483383511
 31
0.0
  0
LINE
  5
3E7
330
A
100
AcDbEntity
  8
1
  6
CONTINUOUS
370
    50
100
AcDbLine
 10
53.4602708845
 20
168.3483383511
 30
0.0
 11
53.4602708845
 21
152.3756624071
 31
0.0
  0
LINE
  5
3E8
330
A
100
AcDbEntity
  8
1
  6
CONTINUOUS
370
    50
100
AcDbLine
 10
53.4602708845
 20
167.4506624071
 30
0.0
 11
53.4602708845
 21
167.3431772596
 31
0.0
  0
LINE
  5
3E9
330
A
100
AcDbEntity
  8
1
  6
CONTINUOUS
370
    50
100
AcDbLine
 10
53.4602708845
 20
167.3431772596
 30
0.0
 11
53.4602708845
 21
160.3756624071
 31
0.0
  0
LINE
  5
3EA
330
A
100
AcDbEntity
  8
1
  6
CONTINUOUS
370
    50
100
AcDbLine
 10
165.8002708845
 20
164.3756624071
 30
0.0
 11
149.4162962883
 21
164.3756624071
 31
0.0
  0
LINE
  5
3EB
330
A
100
AcDbEntity
  8
1
  6
CONTINUOUS
370
    50
100
AcDbLine
 10
149.4162962883
 20
156.3756624071
 30
0.0
 11
165.8002708845
 21
156.3756624071
 31
0.0
  0
ENDSEC
  0
SECTION
  2
OBJECTS
  0
DICTIONARY
  5
19
330
0
100
AcDbDictionary
281
     1
  3
ACAD_GROUP
350
1A
  3
ACAD_LAYOUT
350
410
  3
ACAD_MATERIAL
350
424
  3
ACAD_MLEADERSTYLE
350
42C
  3
ACAD_MLINESTYLE
350
1B
  3
ACAD_SCALELIST
350
3EE
  3
ACAD_VISUALSTYLE
350
413
  3
ACDB_RECOMPOSE_DATA
350
459
  3
AcDbVariableDictionary
350
42A
  0
DICTIONARY
  5
430
330
7
100
AcDbDictionary
280
     1
281
     1
  3
ACAD_XREC_ROUNDTRIP
360
431
  0
DICTIONARY
  5
1A
102
{ACAD_REACTORS
330
19
102
}
330
19
100
AcDbDictionary
281
     1
  0
DICTIONARY
  5
410
102
{ACAD_REACTORS
330
19
102
}
330
19
100
AcDbDictionary
281
     1
  3
Layout1
350
412
  3
Model
350
411
  0
DICTIONARY
  5
424
102
{ACAD_REACTORS
330
19
102
}
330
19
100
AcDbDictionary
281
     1
  3
ByBlock
350
426
  3
ByLayer
350
425
  3
Global
350
427
  0
DICTIONARY
  5
42C
102
{ACAD_REACTORS
330
19
102
}
330
19
100
AcDbDictionary
281
     1
  0
DICTIONARY
  5
1B
102
{ACAD_REACTORS
330
19
102
}
330
19
100
AcDbDictionary
281
     1
  3
STANDARD
350
1C
  0
DICTIONARY
  5
3EE
102
{ACAD_REACTORS
330
19
102
}
330
19
100
AcDbDictionary
281
     1
  3
A0
350
3EF
  3
A1
350
3F0
  3
A2
350
3F1
  3
A3
350
3F2
  3
A4
350
3F3
  3
A5
350
3F4
  3
A6
350
3F5
  3
A7
350
3F6
  3
A8
350
3F7
  3
A9
350
3F8
  3
B0
350
3F9
  3
B1
350
3FA
  3
B2
350
3FB
  3
B3
350
3FC
  3
B4
350
3FD
  3
B5
350
3FE
  3
B6
350
3FF
  3
B7
350
400
  3
B8
350
401
  3
B9
350
402
  3
C0
350
403
  3
C1
350
404
  3
C2
350
405
  3
C3
350
406
  3
C4
350
407
  3
C5
350
408
  3
C6
350
409
  3
C7
350
40A
  3
C8
350
40B
  3
C9
350
40C
  3
D0
350
40D
  3
D1
350
40E
  3
D2
350
40F
  0
DICTIONARY
  5
413
102
{ACAD_REACTORS
330
19
102
}
330
19
100
AcDbDictionary
281
     1
  3
2dWireframe
350
418
  3
3D Hidden
350
41A
  3
3dWireframe
350
419
  3
Basic
350
41B
  3
Brighten
350
41F
  3
ColorChange
350
423
  3
Conceptual
350
41D
  3
Dim
350
41E
  3
Facepattern
350
422
  3
Flat
350
414
  3
FlatWithEdges
350
415
  3
Gouraud
350
416
  3
GouraudWithEdges
350
417
  3
Linepattern
350
421
  3
Realistic
350
41C
  3
Thicken
350
420
  0
XRECORD
  5
459
102
{ACAD_REACTORS
330
19
102
}
330
19
100
AcDbXrecord
280
     1
  0
DICTIONARY
  5
42A
102
{ACAD_REACTORS
330
19
102
}
330
19
100
AcDbDictionary
281
     1
  3
CANNOSCALE
350
432
  3
DIMASSOC
350
42E
  3
HIDETEXT
350
42F
  3
MSLTSCALE
350
42D
  0
XRECORD
  5
431
102
{ACAD_REACTORS
330
430
102
}
330
430
100
AcDbXrecord
280
     1
102
VTR_0.000_0.000_1.000_1.000_VISUALSTYLE
340
418
102
VTR_0.000_0.000_1.000_1.000_GRIDDISPLAY
 70
     3
102
VTR_0.000_0.000_1.000_1.000_GRIDMAJOR
 70
     5
102
VTR_0.000_0.000_1.000_1.000_DEFAULTLIGHTING
280
     1
102
VTR_0.000_0.000_1.000_1.000_DEFAULTLIGHTINGTYPE
 70
     1
102
VTR_0.000_0.000_1.000_1.000_BRIGHTNESS
141
0.0
102
VTR_0.000_0.000_1.000_1.000_CONTRAST
142
0.0
  0
LAYOUT
  5
412
102
{ACAD_REACTORS
330
410
102
}
330
410
100
AcDbPlotSettings
  1

  2
none_device
  4

  6

 40
0.0
 41
0.0
 42
0.0
 43
0.0
 44
0.0
 45
0.0
 46
0.0
 47
0.0
 48
0.0
 49
0.0
140
0.0
141
0.0
142
1.0
143
1.0
 70
   688
 72
     0
 73
     0
 74
     5
  7

 75
    16
147
1.0
148
0.0
149
0.0
100
AcDbLayout
  1
Layout1
 70
     1
 71
     1
 10
0.0
 20
0.0
 11
12.0
 21
9.0
 12
0.0
 22
0.0
 32
0.0
 14
1.000000000000000E+20
 24
1.000000000000000E+20
 34
1.000000000000000E+20
 15
-1.000000000000000E+20
 25
-1.000000000000000E+20
 35
-1.000000000000000E+20
146
0.0
 13
0.0
 23
0.0
 33
0.0
 16
1.0
 26
0.0
 36
0.0
 17
0.0
 27
1.0
 37
0.0
 76
     0
330
B
  0
LAYOUT
  5
411
102
{ACAD_REACTORS
330
410
102
}
330
410
100
AcDbPlotSettings
  1

  2
none_device
  4

  6

 40
0.0
 41
0.0
 42
0.0
 43
0.0
 44
0.0
 45
0.0
 46
0.0
 47
0.0
 48
0.0
 49
0.0
140
0.0
141
0.0
142
1.0
143
1.0
 70
  1712
 72
     0
 73
     0
 74
     0
  7

 75
     0
147
1.0
148
2667.54428576817
149
0.0
100
AcDbLayout
  1
Model
 70
     1
 71
     0
 10
0.0
 20
0.0
 11
0.0
 21
0.0
 12
0.0
 22
0.0
 32
0.0
 14
0.0
 24
0.0
 34
0.0
 15
210.0
 25
297.0
 35
0.0
146
0.0
 13
0.0
 23
0.0
 33
0.0
 16
1.0
 26
0.0
 36
0.0
 17
0.0
 27
1.0
 37
0.0
 76
     0
330
A
331
15
  0
MATERIAL
  5
426
102
{ACAD_REACTORS
330
424
102
}
102
{ACAD_XDICTIONARY
360
455
102
}
330
424
100
AcDbMaterial
  1
ByBlock
  0
MATERIAL
  5
425
102
{ACAD_REACTORS
330
424
102
}
102
{ACAD_XDICTIONARY
360
453
102
}
330
424
100
AcDbMaterial
  1
ByLayer
  0
MATERIAL
  5
427
102
{ACAD_REACTORS
330
424
102
}
102
{ACAD_XDICTIONARY
360
457
102
}
330
424
100
AcDbMaterial
  1
Global
  0
MLINESTYLE
  5
1C
102
{ACAD_REACTORS
330
1B
102
}
330
1B
100
AcDbMlineStyle
  2
STANDARD
 70
     0
  3

 62
     0
 51
90.0
 52
90.0
 71
     2
 49
0.5
 62
   256
  6
BYLAYER
 49
-0.5
 62
   256
  6
BYLAYER
  0
SCALE
  5
3EF
102
{ACAD_REACTORS
330
3EE
102
}
330
3EE
100
AcDbScale
 70
     0
300
1:1
140
1.0
141
1.0
290
     1
  0
SCALE
  5
3F0
102
{ACAD_REACTORS
330
3EE
102
}
330
3EE
100
AcDbScale
 70
     0
300
1:2
140
1.0
141
2.0
290
     0
  0
SCALE
  5
3F1
102
{ACAD_REACTORS
330
3EE
102
}
330
3EE
100
AcDbScale
 70
     0
300
1:4
140
1.0
141
4.0
290
     0
  0
SCALE
  5
3F2
102
{ACAD_REACTORS
330
3EE
102
}
330
3EE
100
AcDbScale
 70
     0
300
1:5
140
1.0
141
5.0
290
     0
  0
SCALE
  5
3F3
102
{ACAD_REACTORS
330
3EE
102
}
330
3EE
100
AcDbScale
 70
     0
300
1:8
140
1.0
141
8.0
290
     0
  0
SCALE
  5
3F4
102
{ACAD_REACTORS
330
3EE
102
}
330
3EE
100
AcDbScale
 70
     0
300
1:10
140
1.0
141
10.0
290
     0
  0
SCALE
  5
3F5
102
{ACAD_REACTORS
330
3EE
102
}
330
3EE
100
AcDbScale
 70
     0
300
1:16
140
1.0
141
16.0
290
     0
  0
SCALE
  5
3F6
102
{ACAD_REACTORS
330
3EE
102
}
330
3EE
100
AcDbScale
 70
     0
300
1:20
140
1.0
141
20.0
290
     0
  0
SCALE
  5
3F7
102
{ACAD_REACTORS
330
3EE
102
}
330
3EE
100
AcDbScale
 70
     0
300
1:30
140
1.0
141
30.0
290
     0
  0
SCALE
  5
3F8
102
{ACAD_REACTORS
330
3EE
102
}
330
3EE
100
AcDbScale
 70
     0
300
1:40
140
1.0
141
40.0
290
     0
  0
SCALE
  5
3F9
102
{ACAD_REACTORS
330
3EE
102
}
330
3EE
100
AcDbScale
 70
     0
300
1:50
140
1.0
141
50.0
290
     0
  0
SCALE
  5
3FA
102
{ACAD_REACTORS
330
3EE
102
}
330
3EE
100
AcDbScale
 70
     0
300
1:100
140
1.0
141
100.0
290
     0
  0
SCALE
  5
3FB
102
{ACAD_REACTORS
330
3EE
102
}
330
3EE
100
AcDbScale
 70
     0
300
2:1
140
2.0
141
1.0
290
     0
  0
SCALE
  5
3FC
102
{ACAD_REACTORS
330
3EE
102
}
330
3EE
100
AcDbScale
 70
     0
300
4:1
140
4.0
141
1.0
290
     0
  0
SCALE
  5
3FD
102
{ACAD_REACTORS
330
3EE
102
}
330
3EE
100
AcDbScale
 70
     0
300
8:1
140
8.0
141
1.0
290
     0
  0
SCALE
  5
3FE
102
{ACAD_REACTORS
330
3EE
102
}
330
3EE
100
AcDbScale
 70
     0
300
10:1
140
10.0
141
1.0
290
     0
  0
SCALE
  5
3FF
102
{ACAD_REACTORS
330
3EE
102
}
330
3EE
100
AcDbScale
 70
     0
300
100:1
140
100.0
141
1.0
290
     0
  0
SCALE
  5
400
102
{ACAD_REACTORS
330
3EE
102
}
330
3EE
100
AcDbScale
 70
     0
300
1/128" = 1'-0"
140
0.0078125
141
12.0
290
     0
  0
SCALE
  5
401
102
{ACAD_REACTORS
330
3EE
102
}
330
3EE
100
AcDbScale
 70
     0
300
1/64" = 1'-0"
140
0.015625
141
12.0
290
     0
  0
SCALE
  5
402
102
{ACAD_REACTORS
330
3EE
102
}
330
3EE
100
AcDbScale
 70
     0
300
1/32" = 1'-0"
140
0.03125
141
12.0
290
     0
  0
SCALE
  5
403
102
{ACAD_REACTORS
330
3EE
102
}
330
3EE
100
AcDbScale
 70
     0
300
1/16" = 1'-0"
140
0.0625
141
12.0
290
     0
  0
SCALE
  5
404
102
{ACAD_REACTORS
330
3EE
102
}
330
3EE
100
AcDbScale
 70
     0
300
3/32" = 1'-0"
140
0.09375
141
12.0
290
     0
  0
SCALE
  5
405
102
{ACAD_REACTORS
330
3EE
102
}
330
3EE
100
AcDbScale
 70
     0
300
1/8" = 1'-0"
140
0.125
141
12.0
290
     0
  0
SCALE
  5
406
102
{ACAD_REACTORS
330
3EE
102
}
330
3EE
100
AcDbScale
 70
     0
300
3/16" = 1'-0"
140
0.1875
141
12.0
290
     0
  0
SCALE
  5
407
102
{ACAD_REACTORS
330
3EE
102
}
330
3EE
100
AcDbScale
 70
     0
300
1/4" = 1'-0"
140
0.25
141
12.0
290
     0
  0
SCALE
  5
408
102
{ACAD_REACTORS
330
3EE
102
}
330
3EE
100
AcDbScale
 70
     0
300
3/8" = 1'-0"
140
0.375
141
12.0
290
     0
  0
SCALE
  5
409
102
{ACAD_REACTORS
330
3EE
102
}
330
3EE
100
AcDbScale
 70
     0
300
1/2" = 1'-0"
140
0.5
141
12.0
290
     0
  0
SCALE
  5
40A
102
{ACAD_REACTORS
330
3EE
102
}
330
3EE
100
AcDbScale
 70
     0
300
3/4" = 1'-0"
140
0.75
141
12.0
290
     0
  0
SCALE
  5
40B
102
{ACAD_REACTORS
330
3EE
102
}
330
3EE
100
AcDbScale
 70
     0
300
1" = 1'-0"
140
1.0
141
12.0
290
     0
  0
SCALE
  5
40C
102
{ACAD_REACTORS
330
3EE
102
}
330
3EE
100
AcDbScale
 70
     0
300
1-1/2" = 1'-0"
140
1.5
141
12.0
290
     0
  0
SCALE
  5
40D
102
{ACAD_REACTORS
330
3EE
102
}
330
3EE
100
AcDbScale
 70
     0
300
3" = 1'-0"
140
3.0
141
12.0
290
     0
  0
SCALE
  5
40E
102
{ACAD_REACTORS
330
3EE
102
}
330
3EE
100
AcDbScale
 70
     0
300
6" = 1'-0"
140
6.0
141
12.0
290
     0
  0
SCALE
  5
40F
102
{ACAD_REACTORS
330
3EE
102
}
330
3EE
100
AcDbScale
 70
     0
300
1'-0" = 1'-0"
140
12.0
141
12.0
290
     0
  0
VISUALSTYLE
  5
418
102
{ACAD_REACTORS
330
413
102
}
102
{ACAD_XDICTIONARY
360
43B
102
}
330
413
100
AcDbVisualStyle
  2
2dWireframe
 70
     4
 71
     0
 72
     2
 73
     0
 90
        0
 40
-0.6
 41
-30.0
 62
     5
 63
     7
 74
     1
 91
        4
 64
     7
 65
   257
 75
     1
175
     1
 42
1.0
 92
        0
 66
   257
 43
1.0
 76
     1
 77
     6
 78
     2
 67
     7
 79
     5
170
     0
171
     0
290
     0
174
     0
 93
        1
 44
0.0
173
     0
291
     0
 45
0.0
1001
ACAD
1000
AcDbSavedByObjectVersion
1070
     0
  0
VISUALSTYLE
  5
41A
102
{ACAD_REACTORS
330
413
102
}
102
{ACAD_XDICTIONARY
360
43F
102
}
330
413
100
AcDbVisualStyle
  2
3D Hidden
 70
     6
 71
     1
 72
     2
 73
     2
 90
        0
 40
-0.6
 41
-30.0
 62
     5
 63
     7
 74
     2
 91
        2
 64
     7
 65
   257
 75
     2
175
     1
 42
40.0
 92
        0
 66
   257
 43
1.0
 76
     1
 77
     6
 78
     2
 67
     7
 79
     3
170
     0
171
     0
290
     0
174
     0
 93
        1
 44
0.0
173
     0
291
     0
 45
0.0
1001
ACAD
1000
AcDbSavedByObjectVersion
1070
     0
  0
VISUALSTYLE
  5
419
102
{ACAD_REACTORS
330
413
102
}
102
{ACAD_XDICTIONARY
360
43D
102
}
330
413
100
AcDbVisualStyle
  2
3dWireframe
 70
     5
 71
     0
 72
     2
 73
     0
 90
        0
 40
-0.6
 41
-30.0
 62
     5
 63
     7
 74
     1
 91
        4
 64
     7
 65
   257
 75
     1
175
     1
 42
1.0
 92
        0
 66
   257
 43
1.0
 76
     1
 77
     6
 78
     2
 67
     7
 79
     5
170
     0
171
     0
290
     0
174
     0
 93
        1
 44
0.0
173
     0
291
     0
 45
0.0
1001
ACAD
1000
AcDbSavedByObjectVersion
1070
     0
  0
VISUALSTYLE
  5
41B
102
{ACAD_REACTORS
330
413
102
}
102
{ACAD_XDICTIONARY
360
441
102
}
330
413
100
AcDbVisualStyle
  2
Basic
 70
     7
 71
     1
 72
     0
 73
     1
 90
        0
 40
-0.6
 41
-30.0
 62
     5
 63
     7
 74
     0
 91
        4
 64
     7
 65
   257
 75
     1
175
     1
 42
1.0
 92
        8
 66
     7
 43
1.0
 76
     1
 77
     6
 78
     2
 67
     7
 79
     5
170
     0
171
     0
290
     0
174
     0
 93
        1
 44
0.0
173
     0
291
     1
 45
0.0
1001
ACAD
1000
AcDbSavedByObjectVersion
1070
     0
  0
VISUALSTYLE
  5
41F
102
{ACAD_REACTORS
330
413
102
}
102
{ACAD_XDICTIONARY
360
449
102
}
330
413
100
AcDbVisualStyle
  2
Brighten
 70
    12
 71
     2
 72
     2
 73
     0
 90
        0
 40
-0.6
 41
-30.0
 62
     5
 63
     7
 74
     1
 91
        4
 64
     7
 65
   257
 75
     1
175
     1
 42
1.0
 92
        8
 66
     7
 43
1.0
 76
     1
 77
     6
 78
     2
 67
     7
 79
     5
170
     0
171
     0
290
     0
174
     0
 93
        1
 44
50.0
173
     0
291
     1
 45
0.0
1001
ACAD
1000
AcDbSavedByObjectVersion
1070
     0
  0
VISUALSTYLE
  5
423
102
{ACAD_REACTORS
330
413
102
}
102
{ACAD_XDICTIONARY
360
451
102
}
330
413
100
AcDbVisualStyle
  2
ColorChange
 70
    16
 71
     2
 72
     2
 73
     3
 90
        0
 40
-0.6
 41
-30.0
 62
     5
 63
     8
 74
     1
 91
        4
 64
     7
 65
   257
 75
     1
175
     1
 42
1.0
 92
        8
 66
     8
 43
1.0
 76
     1
 77
     6
 78
     2
 67
     7
 79
     5
170
     0
171
     0
290
     0
174
     0
 93
        1
 44
0.0
173
     0
291
     1
 45
0.0
1001
ACAD
1000
AcDbSavedByObjectVersion
1070
     0
  0
VISUALSTYLE
  5
41D
102
{ACAD_REACTORS
330
413
102
}
102
{ACAD_XDICTIONARY
360
445
102
}
330
413
100
AcDbVisualStyle
  2
Conceptual
 70
     9
 71
     3
 72
     2
 73
     0
 90
        0
 40
-0.6
 41
-30.0
 62
     5
 63
     7
 74
     2
 91
        2
 64
     7
 65
   257
 75
     1
175
     1
 42
40.0
 92
        8
 66
     7
 43
1.0
 76
     1
 77
     6
 78
     2
 67
     7
 79
     3
170
     0
171
     0
290
     0
174
     0
 93
        1
 44
0.0
173
     0
291
     0
 45
0.0
1001
ACAD
1000
AcDbSavedByObjectVersion
1070
     0
  0
VISUALSTYLE
  5
41E
102
{ACAD_REACTORS
330
413
102
}
102
{ACAD_XDICTIONARY
360
447
102
}
330
413
100
AcDbVisualStyle
  2
Dim
 70
    11
 71
     2
 72
     2
 73
     0
 90
        0
 40
-0.6
 41
-30.0
 62
     5
 63
     7
 74
     1
 91
        4
 64
     7
 65
   257
 75
     1
175
     1
 42
1.0
 92
        8
 66
     7
 43
1.0
 76
     1
 77
     6
 78
     2
 67
     7
 79
     5
170
     0
171
     0
290
     0
174
     0
 93
        1
 44
-50.0
173
     0
291
     1
 45
0.0
1001
ACAD
1000
AcDbSavedByObjectVersion
1070
     0
  0
VISUALSTYLE
  5
422
102
{ACAD_REACTORS
330
413
102
}
102
{ACAD_XDICTIONARY
360
44F
102
}
330
413
100
AcDbVisualStyle
  2
Facepattern
 70
    15
 71
     2
 72
     2
 73
     0
 90
        0
 40
-0.6
 41
-30.0
 62
     5
 63
     7
 74
     1
 91
        4
 64
     7
 65
   257
 75
     1
175
     1
 42
1.0
 92
        8
 66
     7
 43
1.0
 76
     1
 77
     6
 78
     2
 67
     7
 79
     5
170
     0
171
     0
290
     0
174
     0
 93
        1
 44
0.0
173
     0
291
     1
 45
0.0
1001
ACAD
1000
AcDbSavedByObjectVersion
1070
     0
  0
VISUALSTYLE
  5
414
102
{ACAD_REACTORS
330
413
102
}
102
{ACAD_XDICTIONARY
360
433
102
}
330
413
100
AcDbVisualStyle
  2
Flat
 70
     0
 71
     2
 72
     1
 73
     1
 90
        2
 40
-0.6
 41
30.0
 62
     5
 63
     7
 74
     0
 91
        4
 64
     7
 65
   257
 75
     1
175
     1
 42
1.0
 92
        8
 66
     7
 43
1.0
 76
     1
 77
     6
 78
     2
 67
     7
 79
     5
170
     0
171
     0
290
     0
174
     0
 93
       13
 44
0.0
173
     0
291
     1
 45
0.0
1001
ACAD
1000
AcDbSavedByObjectVersion
1070
     0
  0
VISUALSTYLE
  5
415
102
{ACAD_REACTORS
330
413
102
}
102
{ACAD_XDICTIONARY
360
435
102
}
330
413
100
AcDbVisualStyle
  2
FlatWithEdges
 70
     1
 71
     2
 72
     1
 73
     1
 90
        2
 40
-0.6
 41
30.0
 62
     5
 63
     7
 74
     1
 91
        4
 64
     7
 65
   257
 75
     1
175
     1
 42
1.0
 92
        0
 66
   257
 43
1.0
 76
     1
 77
     6
 78
     2
 67
     7
 79
     5
170
     0
171
     0
290
     0
174
     0
 93
       13
 44
0.0
173
     0
291
     1
 45
0.0
1001
ACAD
1000
AcDbSavedByObjectVersion
1070
     0
  0
VISUALSTYLE
  5
416
102
{ACAD_REACTORS
330
413
102
}
102
{ACAD_XDICTIONARY
360
437
102
}
330
413
100
AcDbVisualStyle
  2
Gouraud
 70
     2
 71
     2
 72
     2
 73
     1
 90
        2
 40
-0.6
 41
30.0
 62
     5
 63
     7
 74
     0
 91
        4
 64
     7
 65
   257
 75
     1
175
     1
 42
1.0
 92
        0
 66
     7
 43
1.0
 76
     1
 77
     6
 78
     2
 67
     7
 79
     5
170
     0
171
     0
290
     0
174
     0
 93
       13
 44
0.0
173
     0
291
     1
 45
0.0
1001
ACAD
1000
AcDbSavedByObjectVersion
1070
     0
  0
VISUALSTYLE
  5
417
102
{ACAD_REACTORS
330
413
102
}
102
{ACAD_XDICTIONARY
360
439
102
}
330
413
100
AcDbVisualStyle
  2
GouraudWithEdges
 70
     3
 71
     2
 72
     2
 73
     1
 90
        2
 40
-0.6
 41
30.0
 62
     5
 63
     7
 74
     1
 91
        4
 64
     7
 65
   257
 75
     1
175
     1
 42
1.0
 92
        0
 66
   257
 43
1.0
 76
     1
 77
     6
 78
     2
 67
     7
 79
     5
170
     0
171
     0
290
     0
174
     0
 93
       13
 44
0.0
173
     0
291
     1
 45
0.0
1001
ACAD
1000
AcDbSavedByObjectVersion
1070
     0
  0
VISUALSTYLE
  5
421
102
{ACAD_REACTORS
330
413
102
}
102
{ACAD_XDICTIONARY
360
44D
102
}
330
413
100
AcDbVisualStyle
  2
Linepattern
 70
    14
 71
     2
 72
     2
 73
     0
 90
        0
 40
-0.6
 41
-30.0
 62
     5
 63
     7
 74
     1
 91
        4
 64
     7
 65
   257
 75
     7
175
     7
 42
1.0
 92
        8
 66
     7
 43
1.0
 76
     1
 77
     6
 78
     2
 67
     7
 79
     5
170
     0
171
     0
290
     0
174
     0
 93
        1
 44
0.0
173
     0
291
     1
 45
0.0
1001
ACAD
1000
AcDbSavedByObjectVersion
1070
     0
  0
VISUALSTYLE
  5
41C
102
{ACAD_REACTORS
330
413
102
}
102
{ACAD_XDICTIONARY
360
443
102
}
330
413
100
AcDbVisualStyle
  2
Realistic
 70
     8
 71
     2
 72
     2
 73
     0
 90
        0
 40
-0.6
 41
-30.0
 62
     5
 63
     7
 74
     1
 91
        0
 64
     7
 65
   257
 75
     1
175
     1
 42
1.0
 92
        8
 66
     8
 43
1.0
 76
     1
 77
     6
 78
     2
 67
     7
 79
     5
170
     0
171
     0
290
     0
174
     0
 93
       13
 44
0.0
173
     0
291
     0
 45
0.0
1001
ACAD
1000
AcDbSavedByObjectVersion
1070
     0
  0
VISUALSTYLE
  5
420
102
{ACAD_REACTORS
330
413
102
}
102
{ACAD_XDICTIONARY
360
44B
102
}
330
413
100
AcDbVisualStyle
  2
Thicken
 70
    13
 71
     2
 72
     2
 73
     0
 90
        0
 40
-0.6
 41
-30.0
 62
     5
 63
     7
 74
     1
 91
        4
 64
     7
 65
   257
 75
     1
175
     1
 42
1.0
 92
       12
 66
     7
 43
1.0
 76
     1
 77
     6
 78
     2
 67
     7
 79
     5
170
     0
171
     0
290
     0
174
     0
 93
        1
 44
0.0
173
     0
291
     1
 45
0.0
1001
ACAD
1000
AcDbSavedByObjectVersion
1070
     0
  0
DICTIONARYVAR
  5
432
102
{ACAD_REACTORS
330
42A
102
}
330
42A
100
DictionaryVariables
280
     0
  1
1:1
  0
DICTIONARYVAR
  5
42E
102
{ACAD_REACTORS
330
42A
102
}
330
42A
100
DictionaryVariables
280
     0
  1
2
  0
DICTIONARYVAR
  5
42F
102
{ACAD_REACTORS
330
42A
102
}
330
42A
100
DictionaryVariables
280
     0
  1
1
  0
DICTIONARYVAR
  5
42D
102
{ACAD_REACTORS
330
42A
102
}
330
42A
100
DictionaryVariables
280
     0
  1
0
  0
DICTIONARY
  5
455
330
426
100
AcDbDictionary
280
     1
281
     1
  3
ACAD_XREC_ROUNDTRIP
360
456
  0
DICTIONARY
  5
453
330
425
100
AcDbDictionary
280
     1
281
     1
  3
ACAD_XREC_ROUNDTRIP
360
454
  0
DICTIONARY
  5
457
330
427
100
AcDbDictionary
280
     1
281
     1
  3
ACAD_XREC_ROUNDTRIP
360
458
  0
DICTIONARY
  5
43B
330
418
100
AcDbDictionary
280
     1
281
     1
  3
ACAD_XREC_ROUNDTRIP
360
43C
  0
DICTIONARY
  5
43F
330
41A
100
AcDbDictionary
280
     1
281
     1
  3
ACAD_XREC_ROUNDTRIP
360
440
  0
DICTIONARY
  5
43D
330
419
100
AcDbDictionary
280
     1
281
     1
  3
ACAD_XREC_ROUNDTRIP
360
43E
  0
DICTIONARY
  5
441
330
41B
100
AcDbDictionary
280
     1
281
     1
  3
ACAD_XREC_ROUNDTRIP
360
442
  0
DICTIONARY
  5
449
330
41F
100
AcDbDictionary
280
     1
281
     1
  3
ACAD_XREC_ROUNDTRIP
360
44A
  0
DICTIONARY
  5
451
330
423
100
AcDbDictionary
280
     1
281
     1
  3
ACAD_XREC_ROUNDTRIP
360
452
  0
DICTIONARY
  5
445
330
41D
100
AcDbDictionary
280
     1
281
     1
  3
ACAD_XREC_ROUNDTRIP
360
446
  0
DICTIONARY
  5
447
330
41E
100
AcDbDictionary
280
     1
281
     1
  3
ACAD_XREC_ROUNDTRIP
360
448
  0
DICTIONARY
  5
44F
330
422
100
AcDbDictionary
280
     1
281
     1
  3
ACAD_XREC_ROUNDTRIP
360
450
  0
DICTIONARY
  5
433
330
414
100
AcDbDictionary
280
     1
281
     1
  3
ACAD_XREC_ROUNDTRIP
360
434
  0
DICTIONARY
  5
435
330
415
100
AcDbDictionary
280
     1
281
     1
  3
ACAD_XREC_ROUNDTRIP
360
436
  0
DICTIONARY
  5
437
330
416
100
AcDbDictionary
280
     1
281
     1
  3
ACAD_XREC_ROUNDTRIP
360
438
  0
DICTIONARY
  5
439
330
417
100
AcDbDictionary
280
     1
281
     1
  3
ACAD_XREC_ROUNDTRIP
360
43A
  0
DICTIONARY
  5
44D
330
421
100
AcDbDictionary
280
     1
281
     1
  3
ACAD_XREC_ROUNDTRIP
360
44E
  0
DICTIONARY
  5
443
330
41C
100
AcDbDictionary
280
     1
281
     1
  3
ACAD_XREC_ROUNDTRIP
360
444
  0
DICTIONARY
  5
44B
330
420
100
AcDbDictionary
280
     1
281
     1
  3
ACAD_XREC_ROUNDTRIP
360
44C
  0
XRECORD
  5
456
102
{ACAD_REACTORS
330
455
102
}
330
455
100
AcDbXrecord
280
     1
102
MATERIAL
148
0.0
149
0.0
149
0.0
 93
        0
 94
      127
282
     0
 72
     1
 77
     1
171
     1
175
     1
179
     1
273
     0
  0
XRECORD
  5
454
102
{ACAD_REACTORS
330
453
102
}
330
453
100
AcDbXrecord
280
     1
102
MATERIAL
148
0.0
149
0.0
149
0.0
 93
        0
 94
      127
282
     0
 72
     1
 77
     1
171
     1
175
     1
179
     1
273
     0
  0
XRECORD
  5
458
102
{ACAD_REACTORS
330
457
102
}
330
457
100
AcDbXrecord
280
     1
102
MATERIAL
148
0.0
149
0.0
149
0.0
 93
        0
 94
      127
282
     0
 72
     1
 77
     1
171
     1
175
     1
179
     1
273
     0
  0
XRECORD
  5
43C
102
{ACAD_REACTORS
330
43B
102
}
330
43B
100
AcDbXrecord
280
     1
102
RTVSPropertyOp0
 70
     1
102
RTVSPropertyOp1
 70
     1
102
RTVSPropertyOp2
 70
     1
102
RTVSPropertyOp3
 70
     1
102
RTVSPropertyOp4
 70
     1
102
RTVSPropertyOp5
 70
     1
102
RTVSPropertyOp6
 70
     1
102
RTVSPropertyOp7
 70
     1
102
RTVSPropertyOp8
 70
     1
102
RTVSPropertyOp9
 70
     1
102
RTVSPropertyOp10
 70
     1
102
RTVSPropertyOp11
 70
     1
102
RTVSPropertyOp12
 70
     1
102
RTVSPropertyOp13
 70
     1
102
RTVSPropertyOp14
 70
     1
102
RTVSPropertyOp15
 70
     1
102
RTVSPropertyOp16
 70
     1
102
RTVSPropertyOp17
 70
     1
102
RTVSPropertyOp18
 70
     1
102
RTVSPropertyOp19
 70
     1
102
RTVSPropertyOp20
 70
     1
102
RTVSPropertyOp21
 70
     1
102
RTVSPropertyOp22
 70
     1
102
RTVSPropertyOp23
 70
     1
102
RTVSPropertyOp24
 70
     1
102
RTVSPropertyOp25
 70
     1
102
RTVSPropertyOp26
 70
     1
102
RTVSPropertyOp27
 70
     1
102
RTVSPropertyOp28
 70
     1
102
RTVSPropertyOp29
 70
     1
102
RTVSPropertyOp30
 70
     1
102
RTVSPropertyOp31
 70
     1
102
RTVSPropertyOp32
 70
     1
  0
XRECORD
  5
440
102
{ACAD_REACTORS
330
43F
102
}
330
43F
100
AcDbXrecord
280
     1
102
RTVSPropertyOp0
 70
     1
102
RTVSPropertyOp1
 70
     1
102
RTVSPropertyOp2
 70
     1
102
RTVSPropertyOp3
 70
     1
102
RTVSPropertyOp4
 70
     1
102
RTVSPropertyOp5
 70
     1
102
RTVSPropertyOp6
 70
     1
102
RTVSPropertyOp7
 70
     1
102
RTVSPropertyOp8
 70
     1
102
RTVSPropertyOp9
 70
     1
102
RTVSPropertyOp10
 70
     1
102
RTVSPropertyOp11
 70
     1
102
RTVSPropertyOp12
 70
     1
102
RTVSPropertyOp13
 70
     1
102
RTVSPropertyOp14
 70
     1
102
RTVSPropertyOp15
 70
     1
102
RTVSPropertyOp16
 70
     1
102
RTVSPropertyOp17
 70
     1
102
RTVSPropertyOp18
 70
     1
102
RTVSPropertyOp19
 70
     1
102
RTVSPropertyOp20
 70
     1
102
RTVSPropertyOp21
 70
     1
102
RTVSPropertyOp22
 70
     1
102
RTVSPropertyOp23
 70
     1
102
RTVSPropertyOp24
 70
     1
102
RTVSPropertyOp25
 70
     1
102
RTVSPropertyOp26
 70
     1
102
RTVSPropertyOp27
 70
     1
102
RTVSPropertyOp28
 70
     1
102
RTVSPropertyOp29
 70
     1
102
RTVSPropertyOp30
 70
     1
102
RTVSPropertyOp31
 70
     1
102
RTVSPropertyOp32
 70
     1
  0
XRECORD
  5
43E
102
{ACAD_REACTORS
330
43D
102
}
330
43D
100
AcDbXrecord
280
     1
102
RTVSPropertyOp0
 70
     1
102
RTVSPropertyOp1
 70
     1
102
RTVSPropertyOp2
 70
     1
102
RTVSPropertyOp3
 70
     1
102
RTVSPropertyOp4
 70
     1
102
RTVSPropertyOp5
 70
     1
102
RTVSPropertyOp6
 70
     1
102
RTVSPropertyOp7
 70
     1
102
RTVSPropertyOp8
 70
     1
102
RTVSPropertyOp9
 70
     1
102
RTVSPropertyOp10
 70
     1
102
RTVSPropertyOp11
 70
     1
102
RTVSPropertyOp12
 70
     1
102
RTVSPropertyOp13
 70
     1
102
RTVSPropertyOp14
 70
     1
102
RTVSPropertyOp15
 70
     1
102
RTVSPropertyOp16
 70
     1
102
RTVSPropertyOp17
 70
     1
102
RTVSPropertyOp18
 70
     1
102
RTVSPropertyOp19
 70
     1
102
RTVSPropertyOp20
 70
     1
102
RTVSPropertyOp21
 70
     1
102
RTVSPropertyOp22
 70
     1
102
RTVSPropertyOp23
 70
     1
102
RTVSPropertyOp24
 70
     1
102
RTVSPropertyOp25
 70
     1
102
RTVSPropertyOp26
 70
     1
102
RTVSPropertyOp27
 70
     1
102
RTVSPropertyOp28
 70
     1
102
RTVSPropertyOp29
 70
     1
102
RTVSPropertyOp30
 70
     1
102
RTVSPropertyOp31
 70
     1
102
RTVSPropertyOp32
 70
     1
  0
XRECORD
  5
442
102
{ACAD_REACTORS
330
441
102
}
330
441
100
AcDbXrecord
280
     1
102
RTVSPropertyOp0
 70
     1
102
RTVSPropertyOp1
 70
     1
102
RTVSPropertyOp2
 70
     1
102
RTVSPropertyOp3
 70
     1
102
RTVSPropertyOp4
 70
     1
102
RTVSPropertyOp5
 70
     1
102
RTVSPropertyOp6
 70
     1
102
RTVSPropertyOp7
 70
     1
102
RTVSPropertyOp8
 70
     1
102
RTVSPropertyOp9
 70
     1
102
RTVSPropertyOp10
 70
     1
102
RTVSPropertyOp11
 70
     1
102
RTVSPropertyOp12
 70
     1
102
RTVSPropertyOp13
 70
     1
102
RTVSPropertyOp14
 70
     1
102
RTVSPropertyOp15
 70
     1
102
RTVSPropertyOp16
 70
     1
102
RTVSPropertyOp17
 70
     1
102
RTVSPropertyOp18
 70
     1
102
RTVSPropertyOp19
 70
     1
102
RTVSPropertyOp20
 70
     1
102
RTVSPropertyOp21
 70
     1
102
RTVSPropertyOp22
 70
     1
102
RTVSPropertyOp23
 70
     1
102
RTVSPropertyOp24
 70
     1
102
RTVSPropertyOp25
 70
     1
102
RTVSPropertyOp26
 70
     1
102
RTVSPropertyOp27
 70
     1
102
RTVSPropertyOp28
 70
     1
102
RTVSPropertyOp29
 70
     1
102
RTVSPropertyOp30
 70
     1
102
RTVSPropertyOp31
 70
     1
102
RTVSPropertyOp32
 70
     1
  0
XRECORD
  5
44A
102
{ACAD_REACTORS
330
449
102
}
330
449
100
AcDbXrecord
280
     1
102
RTVSPropertyOp0
 70
     1
102
RTVSPropertyOp1
 70
     1
102
RTVSPropertyOp2
 70
     1
102
RTVSPropertyOp3
 70
     1
102
RTVSPropertyOp4
 70
     1
102
RTVSPropertyOp5
 70
     1
102
RTVSPropertyOp6
 70
     1
102
RTVSPropertyOp7
 70
     1
102
RTVSPropertyOp8
 70
     1
102
RTVSPropertyOp9
 70
     1
102
RTVSPropertyOp10
 70
     1
102
RTVSPropertyOp11
 70
     1
102
RTVSPropertyOp12
 70
     1
102
RTVSPropertyOp13
 70
     1
102
RTVSPropertyOp14
 70
     1
102
RTVSPropertyOp15
 70
     1
102
RTVSPropertyOp16
 70
     1
102
RTVSPropertyOp17
 70
     1
102
RTVSPropertyOp18
 70
     1
102
RTVSPropertyOp19
 70
     1
102
RTVSPropertyOp20
 70
     1
102
RTVSPropertyOp21
 70
     1
102
RTVSPropertyOp22
 70
     1
102
RTVSPropertyOp23
 70
     1
102
RTVSPropertyOp24
 70
     1
102
RTVSPropertyOp25
 70
     1
102
RTVSPropertyOp26
 70
     1
102
RTVSPropertyOp27
 70
     1
102
RTVSPropertyOp28
 70
     1
102
RTVSPropertyOp29
 70
     1
102
RTVSPropertyOp30
 70
     1
102
RTVSPropertyOp31
 70
     1
102
RTVSPropertyOp32
 70
     1
  0
XRECORD
  5
452
102
{ACAD_REACTORS
330
451
102
}
330
451
100
AcDbXrecord
280
     1
102
RTVSPropertyOp0
 70
     1
102
RTVSPropertyOp1
 70
     1
102
RTVSPropertyOp2
 70
     1
102
RTVSPropertyOp3
 70
     1
102
RTVSPropertyOp4
 70
     1
102
RTVSPropertyOp5
 70
     1
102
RTVSPropertyOp6
 70
     1
102
RTVSPropertyOp7
 70
     1
102
RTVSPropertyOp8
 70
     1
102
RTVSPropertyOp9
 70
     1
102
RTVSPropertyOp10
 70
     1
102
RTVSPropertyOp11
 70
     1
102
RTVSPropertyOp12
 70
     1
102
RTVSPropertyOp13
 70
     1
102
RTVSPropertyOp14
 70
     1
102
RTVSPropertyOp15
 70
     1
102
RTVSPropertyOp16
 70
     1
102
RTVSPropertyOp17
 70
     1
102
RTVSPropertyOp18
 70
     1
102
RTVSPropertyOp19
 70
     1
102
RTVSPropertyOp20
 70
     1
102
RTVSPropertyOp21
 70
     1
102
RTVSPropertyOp22
 70
     1
102
RTVSPropertyOp23
 70
     1
102
RTVSPropertyOp24
 70
     1
102
RTVSPropertyOp25
 70
     1
102
RTVSPropertyOp26
 70
     1
102
RTVSPropertyOp27
 70
     1
102
RTVSPropertyOp28
 70
     1
102
RTVSPropertyOp29
 70
     1
102
RTVSPropertyOp30
 70
     1
102
RTVSPropertyOp31
 70
     1
102
RTVSPropertyOp32
 70
     1
  0
XRECORD
  5
446
102
{ACAD_REACTORS
330
445
102
}
330
445
100
AcDbXrecord
280
     1
102
RTVSPropertyOp0
 70
     1
102
RTVSPropertyOp1
 70
     1
102
RTVSPropertyOp2
 70
     1
102
RTVSPropertyOp3
 70
     1
102
RTVSPropertyOp4
 70
     1
102
RTVSPropertyOp5
 70
     1
102
RTVSPropertyOp6
 70
     1
102
RTVSPropertyOp7
 70
     1
102
RTVSPropertyOp8
 70
     1
102
RTVSPropertyOp9
 70
     1
102
RTVSPropertyOp10
 70
     1
102
RTVSPropertyOp11
 70
     1
102
RTVSPropertyOp12
 70
     1
102
RTVSPropertyOp13
 70
     1
102
RTVSPropertyOp14
 70
     1
102
RTVSPropertyOp15
 70
     1
102
RTVSPropertyOp16
 70
     1
102
RTVSPropertyOp17
 70
     1
102
RTVSPropertyOp18
 70
     1
102
RTVSPropertyOp19
 70
     1
102
RTVSPropertyOp20
 70
     1
102
RTVSPropertyOp21
 70
     1
102
RTVSPropertyOp22
 70
     1
102
RTVSPropertyOp23
 70
     1
102
RTVSPropertyOp24
 70
     1
102
RTVSPropertyOp25
 70
     1
102
RTVSPropertyOp26
 70
     1
102
RTVSPropertyOp27
 70
     1
102
RTVSPropertyOp28
 70
     1
102
RTVSPropertyOp29
 70
     1
102
RTVSPropertyOp30
 70
     1
102
RTVSPropertyOp31
 70
     1
102
RTVSPropertyOp32
 70
     1
  0
XRECORD
  5
448
102
{ACAD_REACTORS
330
447
102
}
330
447
100
AcDbXrecord
280
     1
102
RTVSPropertyOp0
 70
     1
102
RTVSPropertyOp1
 70
     1
102
RTVSPropertyOp2
 70
     1
102
RTVSPropertyOp3
 70
     1
102
RTVSPropertyOp4
 70
     1
102
RTVSPropertyOp5
 70
     1
102
RTVSPropertyOp6
 70
     1
102
RTVSPropertyOp7
 70
     1
102
RTVSPropertyOp8
 70
     1
102
RTVSPropertyOp9
 70
     1
102
RTVSPropertyOp10
 70
     1
102
RTVSPropertyOp11
 70
     1
102
RTVSPropertyOp12
 70
     1
102
RTVSPropertyOp13
 70
     1
102
RTVSPropertyOp14
 70
     1
102
RTVSPropertyOp15
 70
     1
102
RTVSPropertyOp16
 70
     1
102
RTVSPropertyOp17
 70
     1
102
RTVSPropertyOp18
 70
     1
102
RTVSPropertyOp19
 70
     1
102
RTVSPropertyOp20
 70
     1
102
RTVSPropertyOp21
 70
     1
102
RTVSPropertyOp22
 70
     1
102
RTVSPropertyOp23
 70
     1
102
RTVSPropertyOp24
 70
     1
102
RTVSPropertyOp25
 70
     1
102
RTVSPropertyOp26
 70
     1
102
RTVSPropertyOp27
 70
     1
102
RTVSPropertyOp28
 70
     1
102
RTVSPropertyOp29
 70
     1
102
RTVSPropertyOp30
 70
     1
102
RTVSPropertyOp31
 70
     1
102
RTVSPropertyOp32
 70
     1
  0
XRECORD
  5
450
102
{ACAD_REACTORS
330
44F
102
}
330
44F
100
AcDbXrecord
280
     1
102
RTVSPropertyOp0
 70
     1
102
RTVSPropertyOp1
 70
     1
102
RTVSPropertyOp2
 70
     1
102
RTVSPropertyOp3
 70
     1
102
RTVSPropertyOp4
 70
     1
102
RTVSPropertyOp5
 70
     1
102
RTVSPropertyOp6
 70
     1
102
RTVSPropertyOp7
 70
     1
102
RTVSPropertyOp8
 70
     1
102
RTVSPropertyOp9
 70
     1
102
RTVSPropertyOp10
 70
     1
102
RTVSPropertyOp11
 70
     1
102
RTVSPropertyOp12
 70
     1
102
RTVSPropertyOp13
 70
     1
102
RTVSPropertyOp14
 70
     1
102
RTVSPropertyOp15
 70
     1
102
RTVSPropertyOp16
 70
     1
102
RTVSPropertyOp17
 70
     1
102
RTVSPropertyOp18
 70
     1
102
RTVSPropertyOp19
 70
     1
102
RTVSPropertyOp20
 70
     1
102
RTVSPropertyOp21
 70
     1
102
RTVSPropertyOp22
 70
     1
102
RTVSPropertyOp23
 70
     1
102
RTVSPropertyOp24
 70
     1
102
RTVSPropertyOp25
 70
     1
102
RTVSPropertyOp26
 70
     1
102
RTVSPropertyOp27
 70
     1
102
RTVSPropertyOp28
 70
     1
102
RTVSPropertyOp29
 70
     1
102
RTVSPropertyOp30
 70
     1
102
RTVSPropertyOp31
 70
     1
102
RTVSPropertyOp32
 70
     1
  0
XRECORD
  5
434
102
{ACAD_REACTORS
330
433
102
}
330
433
100
AcDbXrecord
280
     1
102
RTVSPropertyOp0
 70
     1
102
RTVSPropertyOp1
 70
     1
102
RTVSPropertyOp2
 70
     1
102
RTVSPropertyOp3
 70
     1
102
RTVSPropertyOp4
 70
     1
102
RTVSPropertyOp5
 70
     1
102
RTVSPropertyOp6
 70
     1
102
RTVSPropertyOp7
 70
     1
102
RTVSPropertyOp8
 70
     1
102
RTVSPropertyOp9
 70
     1
102
RTVSPropertyOp10
 70
     1
102
RTVSPropertyOp11
 70
     1
102
RTVSPropertyOp12
 70
     1
102
RTVSPropertyOp13
 70
     1
102
RTVSPropertyOp14
 70
     1
102
RTVSPropertyOp15
 70
     1
102
RTVSPropertyOp16
 70
     1
102
RTVSPropertyOp17
 70
     1
102
RTVSPropertyOp18
 70
     1
102
RTVSPropertyOp19
 70
     1
102
RTVSPropertyOp20
 70
     1
102
RTVSPropertyOp21
 70
     1
102
RTVSPropertyOp22
 70
     1
102
RTVSPropertyOp23
 70
     1
102
RTVSPropertyOp24
 70
     1
102
RTVSPropertyOp25
 70
     1
102
RTVSPropertyOp26
 70
     1
102
RTVSPropertyOp27
 70
     1
102
RTVSPropertyOp28
 70
     1
102
RTVSPropertyOp29
 70
     1
102
RTVSPropertyOp30
 70
     1
102
RTVSPropertyOp31
 70
     1
102
RTVSPropertyOp32
 70
     1
  0
XRECORD
  5
436
102
{ACAD_REACTORS
330
435
102
}
330
435
100
AcDbXrecord
280
     1
102
RTVSPropertyOp0
 70
     1
102
RTVSPropertyOp1
 70
     1
102
RTVSPropertyOp2
 70
     1
102
RTVSPropertyOp3
 70
     1
102
RTVSPropertyOp4
 70
     1
102
RTVSPropertyOp5
 70
     1
102
RTVSPropertyOp6
 70
     1
102
RTVSPropertyOp7
 70
     1
102
RTVSPropertyOp8
 70
     1
102
RTVSPropertyOp9
 70
     1
102
RTVSPropertyOp10
 70
     1
102
RTVSPropertyOp11
 70
     1
102
RTVSPropertyOp12
 70
     1
102
RTVSPropertyOp13
 70
     1
102
RTVSPropertyOp14
 70
     1
102
RTVSPropertyOp15
 70
     1
102
RTVSPropertyOp16
 70
     1
102
RTVSPropertyOp17
 70
     1
102
RTVSPropertyOp18
 70
     1
102
RTVSPropertyOp19
 70
     1
102
RTVSPropertyOp20
 70
     1
102
RTVSPropertyOp21
 70
     1
102
RTVSPropertyOp22
 70
     1
102
RTVSPropertyOp23
 70
     1
102
RTVSPropertyOp24
 70
     1
102
RTVSPropertyOp25
 70
     1
102
RTVSPropertyOp26
 70
     1
102
RTVSPropertyOp27
 70
     1
102
RTVSPropertyOp28
 70
     1
102
RTVSPropertyOp29
 70
     1
102
RTVSPropertyOp30
 70
     1
102
RTVSPropertyOp31
 70
     1
102
RTVSPropertyOp32
 70
     1
  0
XRECORD
  5
438
102
{ACAD_REACTORS
330
437
102
}
330
437
100
AcDbXrecord
280
     1
102
RTVSPropertyOp0
 70
     1
102
RTVSPropertyOp1
 70
     1
102
RTVSPropertyOp2
 70
     1
102
RTVSPropertyOp3
 70
     1
102
RTVSPropertyOp4
 70
     1
102
RTVSPropertyOp5
 70
     1
102
RTVSPropertyOp6
 70
     1
102
RTVSPropertyOp7
 70
     1
102
RTVSPropertyOp8
 70
     1
102
RTVSPropertyOp9
 70
     1
102
RTVSPropertyOp10
 70
     1
102
RTVSPropertyOp11
 70
     1
102
RTVSPropertyOp12
 70
     1
102
RTVSPropertyOp13
 70
     1
102
RTVSPropertyOp14
 70
     1
102
RTVSPropertyOp15
 70
     1
102
RTVSPropertyOp16
 70
     1
102
RTVSPropertyOp17
 70
     1
102
RTVSPropertyOp18
 70
     1
102
RTVSPropertyOp19
 70
     1
102
RTVSPropertyOp20
 70
     1
102
RTVSPropertyOp21
 70
     1
102
RTVSPropertyOp22
 70
     1
102
RTVSPropertyOp23
 70
     1
102
RTVSPropertyOp24
 70
     1
102
RTVSPropertyOp25
 70
     1
102
RTVSPropertyOp26
 70
     1
102
RTVSPropertyOp27
 70
     1
102
RTVSPropertyOp28
 70
     1
102
RTVSPropertyOp29
 70
     1
102
RTVSPropertyOp30
 70
     1
102
RTVSPropertyOp31
 70
     1
102
RTVSPropertyOp32
 70
     1
  0
XRECORD
  5
43A
102
{ACAD_REACTORS
330
439
102
}
330
439
100
AcDbXrecord
280
     1
102
RTVSPropertyOp0
 70
     1
102
RTVSPropertyOp1
 70
     1
102
RTVSPropertyOp2
 70
     1
102
RTVSPropertyOp3
 70
     1
102
RTVSPropertyOp4
 70
     1
102
RTVSPropertyOp5
 70
     1
102
RTVSPropertyOp6
 70
     1
102
RTVSPropertyOp7
 70
     1
102
RTVSPropertyOp8
 70
     1
102
RTVSPropertyOp9
 70
     1
102
RTVSPropertyOp10
 70
     1
102
RTVSPropertyOp11
 70
     1
102
RTVSPropertyOp12
 70
     1
102
RTVSPropertyOp13
 70
     1
102
RTVSPropertyOp14
 70
     1
102
RTVSPropertyOp15
 70
     1
102
RTVSPropertyOp16
 70
     1
102
RTVSPropertyOp17
 70
     1
102
RTVSPropertyOp18
 70
     1
102
RTVSPropertyOp19
 70
     1
102
RTVSPropertyOp20
 70
     1
102
RTVSPropertyOp21
 70
     1
102
RTVSPropertyOp22
 70
     1
102
RTVSPropertyOp23
 70
     1
102
RTVSPropertyOp24
 70
     1
102
RTVSPropertyOp25
 70
     1
102
RTVSPropertyOp26
 70
     1
102
RTVSPropertyOp27
 70
     1
102
RTVSPropertyOp28
 70
     1
102
RTVSPropertyOp29
 70
     1
102
RTVSPropertyOp30
 70
     1
102
RTVSPropertyOp31
 70
     1
102
RTVSPropertyOp32
 70
     1
  0
XRECORD
  5
44E
102
{ACAD_REACTORS
330
44D
102
}
330
44D
100
AcDbXrecord
280
     1
102
RTVSPropertyOp0
 70
     1
102
RTVSPropertyOp1
 70
     1
102
RTVSPropertyOp2
 70
     1
102
RTVSPropertyOp3
 70
     1
102
RTVSPropertyOp4
 70
     1
102
RTVSPropertyOp5
 70
     1
102
RTVSPropertyOp6
 70
     1
102
RTVSPropertyOp7
 70
     1
102
RTVSPropertyOp8
 70
     1
102
RTVSPropertyOp9
 70
     1
102
RTVSPropertyOp10
 70
     1
102
RTVSPropertyOp11
 70
     1
102
RTVSPropertyOp12
 70
     1
102
RTVSPropertyOp13
 70
     1
102
RTVSPropertyOp14
 70
     1
102
RTVSPropertyOp15
 70
     1
102
RTVSPropertyOp16
 70
     1
102
RTVSPropertyOp17
 70
     1
102
RTVSPropertyOp18
 70
     1
102
RTVSPropertyOp19
 70
     1
102
RTVSPropertyOp20
 70
     1
102
RTVSPropertyOp21
 70
     1
102
RTVSPropertyOp22
 70
     1
102
RTVSPropertyOp23
 70
     1
102
RTVSPropertyOp24
 70
     1
102
RTVSPropertyOp25
 70
     1
102
RTVSPropertyOp26
 70
     1
102
RTVSPropertyOp27
 70
     1
102
RTVSPropertyOp28
 70
     1
102
RTVSPropertyOp29
 70
     1
102
RTVSPropertyOp30
 70
     1
102
RTVSPropertyOp31
 70
     1
102
RTVSPropertyOp32
 70
     1
  0
XRECORD
  5
444
102
{ACAD_REACTORS
330
443
102
}
330
443
100
AcDbXrecord
280
     1
102
RTVSPropertyOp0
 70
     1
102
RTVSPropertyOp1
 70
     1
102
RTVSPropertyOp2
 70
     1
102
RTVSPropertyOp3
 70
     1
102
RTVSPropertyOp4
 70
     1
102
RTVSPropertyOp5
 70
     1
102
RTVSPropertyOp6
 70
     1
102
RTVSPropertyOp7
 70
     1
102
RTVSPropertyOp8
 70
     1
102
RTVSPropertyOp9
 70
     1
102
RTVSPropertyOp10
 70
     1
102
RTVSPropertyOp11
 70
     1
102
RTVSPropertyOp12
 70
     1
102
RTVSPropertyOp13
 70
     1
102
RTVSPropertyOp14
 70
     1
102
RTVSPropertyOp15
 70
     1
102
RTVSPropertyOp16
 70
     1
102
RTVSPropertyOp17
 70
     1
102
RTVSPropertyOp18
 70
     1
102
RTVSPropertyOp19
 70
     1
102
RTVSPropertyOp20
 70
     1
102
RTVSPropertyOp21
 70
     1
102
RTVSPropertyOp22
 70
     1
102
RTVSPropertyOp23
 70
     1
102
RTVSPropertyOp24
 70
     1
102
RTVSPropertyOp25
 70
     1
102
RTVSPropertyOp26
 70
     1
102
RTVSPropertyOp27
 70
     1
102
RTVSPropertyOp28
 70
     1
102
RTVSPropertyOp29
 70
     1
102
RTVSPropertyOp30
 70
     1
102
RTVSPropertyOp31
 70
     1
102
RTVSPropertyOp32
 70
     1
  0
XRECORD
  5
44C
102
{ACAD_REACTORS
330
44B
102
}
330
44B
100
AcDbXrecord
280
     1
102
RTVSPropertyOp0
 70
     1
102
RTVSPropertyOp1
 70
     1
102
RTVSPropertyOp2
 70
     1
102
RTVSPropertyOp3
 70
     1
102
RTVSPropertyOp4
 70
     1
102
RTVSPropertyOp5
 70
     1
102
RTVSPropertyOp6
 70
     1
102
RTVSPropertyOp7
 70
     1
102
RTVSPropertyOp8
 70
     1
102
RTVSPropertyOp9
 70
     1
102
RTVSPropertyOp10
 70
     1
102
RTVSPropertyOp11
 70
     1
102
RTVSPropertyOp12
 70
     1
102
RTVSPropertyOp13
 70
     1
102
RTVSPropertyOp14
 70
     1
102
RTVSPropertyOp15
 70
     1
102
RTVSPropertyOp16
 70
     1
102
RTVSPropertyOp17
 70
     1
102
RTVSPropertyOp18
 70
     1
102
RTVSPropertyOp19
 70
     1
102
RTVSPropertyOp20
 70
     1
102
RTVSPropertyOp21
 70
     1
102
RTVSPropertyOp22
 70
     1
102
RTVSPropertyOp23
 70
     1
102
RTVSPropertyOp24
 70
     1
102
RTVSPropertyOp25
 70
     1
102
RTVSPropertyOp26
 70
     1
102
RTVSPropertyOp27
 70
     1
102
RTVSPropertyOp28
 70
     1
102
RTVSPropertyOp29
 70
     1
102
RTVSPropertyOp30
 70
     1
102
RTVSPropertyOp31
 70
     1
102
RTVSPropertyOp32
 70
     1
  0
ENDSEC
  0
EOF
