  0
SECTION
  2
HEADER
  9
$ACADVER
  1
AC1015
  9
$ACADMAINTVER
 70
     6
  9
$DWGCODEPAGE
  3
ANSI_1252
  9
$INSBASE
 10
0.0
 20
0.0
 30
0.0
  9
$EXTMIN
 10
0.0
 20
0.0
 30
0.0
  9
$EXTMAX
 10
210.0
 20
297.0
 30
0.0
  9
$LIMMIN
 10
0.0
 20
0.0
  9
$LIMMAX
 10
0.0
 20
0.0
  9
$ORTHOMODE
 70
     0
  9
$REGENMODE
 70
     1
  9
$FILLMODE
 70
     1
  9
$QTEXTMODE
 70
     0
  9
$MIRRTEXT
 70
     1
  9
$LTSCALE
 40
1.0
  9
$ATTMODE
 70
     1
  9
$TEXTSIZE
 40
0.0
  9
$TRACEWID
 40
0.05
  9
$TEXTSTYLE
  7
STANDARD
  9
$CLAYER
  8
0
  9
$CELTYPE
  6
CONTINUOUS
  9
$CECOLOR
 62
   256
  9
$CELTSCALE
 40
1.0
  9
$DISPSILH
 70
     0
  9
$DIMSCALE
 40
1.0
  9
$DIMASZ
 40
0.0
  9
$DIMEXO
 40
0.0
  9
$DIMDLI
 40
0.38
  9
$DIMRND
 40
0.0
  9
$DIMDLE
 40
1000.0
  9
$DIMEXE
 40
0.18
  9
$DIMTP
 40
0.0
  9
$DIMTM
 40
0.0
  9
$DIMTXT
 40
3.5
  9
$DIMCEN
 40
0.09
  9
$DIMTSZ
 40
0.0
  9
$DIMTOL
 70
     0
  9
$DIMLIM
 70
     0
  9
$DIMTIH
 70
     1
  9
$DIMTOH
 70
     1
  9
$DIMSE1
 70
     0
  9
$DIMSE2
 70
     0
  9
$DIMTAD
 70
     1
  9
$DIMZIN
 70
     0
  9
$DIMBLK
  1

  9
$DIMASO
 70
     1
  9
$DIMSHO
 70
     1
  9
$DIMPOST
  1

  9
$DIMAPOST
  1

  9
$DIMALT
 70
     0
  9
$DIMALTD
 70
     2
  9
$DIMALTF
 40
0.0394
  9
$DIMLFAC
 40
1.0
  9
$DIMTOFL
 70
     0
  9
$DIMTVP
 40
0.0
  9
$DIMTIX
 70
     0
  9
$DIMSOXD
 70
     0
  9
$DIMSAH
 70
     0
  9
$DIMBLK1
  1

  9
$DIMBLK2
  1

  9
$DIMSTYLE
  2
STANDARD
  9
$DIMCLRD
 70
     0
  9
$DIMCLRE
 70
     0
  9
$DIMCLRT
 70
     0
  9
$DIMTFAC
 40
1.0
  9
$DIMGAP
 40
0.0
  9
$DIMJUST
 70
     0
  9
$DIMSD1
 70
     0
  9
$DIMSD2
 70
     0
  9
$DIMTOLJ
 70
     1
  9
$DIMTZIN
 70
     0
  9
$DIMALTZ
 70
     0
  9
$DIMALTTZ
 70
     0
  9
$DIMUPT
 70
     0
  9
$DIMDEC
 70
     4
  9
$DIMTDEC
 70
     4
  9
$DIMALTU
 70
     2
  9
$DIMALTTD
 70
     2
  9
$DIMTXSTY
  7
STANDARD
  9
$DIMAUNIT
 70
     0
  9
$DIMADEC
 70
     0
  9
$DIMALTRND
 40
0.0
  9
$DIMAZIN
 70
     0
  9
$DIMDSEP
 70
    46
  9
$DIMATFIT
 70
     3
  9
$DIMFRAC
 70
     0
  9
$DIMLDRBLK
  1

  9
$DIMLUNIT
 70
     2
  9
$DIMLWD
 70
    -2
  9
$DIMLWE
 70
    -2
  9
$DIMTMOVE
 70
     2
  9
$LUNITS
 70
     2
  9
$LUPREC
 70
     2
  9
$SKETCHINC
 40
0.1
  9
$FILLETRAD
 40
0.0
  9
$AUNITS
 70
     0
  9
$AUPREC
 70
     2
  9
$MENU
  1
acad
  9
$ELEVATION
 40
0.0
  9
$PELEVATION
 40
0.0
  9
$THICKNESS
 40
0.0
  9
$LIMCHECK
 70
     0
  9
$CHAMFERA
 40
0.0
  9
$CHAMFERB
 40
0.0
  9
$CHAMFERC
 40
0.0
  9
$CHAMFERD
 40
0.0
  9
$SKPOLY
 70
     0
  9
$TDCREATE
 40
2447893.0
  9
$TDUCREATE
 40
2447892.916666667
  9
$TDUPDATE
 40
2458327.548783079
  9
$TDUUPDATE
 40
2458327.465449745
  9
$TDINDWG
 40
0.0
  9
$TDUSRTIMER
 40
0.0
  9
$USRTIMER
 70
     1
  9
$ANGBASE
 50
0.0
  9
$ANGDIR
 70
     0
  9
$PDMODE
 70
     0
  9
$PDSIZE
 40
-1.0
  9
$PLINEWID
 40
0.0
  9
$SPLFRAME
 70
     0
  9
$SPLINETYPE
 70
     6
  9
$SPLINESEGS
 70
     8
  9
$HANDSEED
  5
46B
  9
$SURFTAB1
 70
     6
  9
$SURFTAB2
 70
     6
  9
$SURFTYPE
 70
     6
  9
$SURFU
 70
     6
  9
$SURFV
 70
     6
  9
$UCSBASE
  2

  9
$UCSNAME
  2

  9
$UCSORG
 10
0.0
 20
0.0
 30
0.0
  9
$UCSXDIR
 10
1.0
 20
0.0
 30
0.0
  9
$UCSYDIR
 10
0.0
 20
1.0
 30
0.0
  9
$UCSORTHOREF
  2

  9
$UCSORTHOVIEW
 70
     0
  9
$UCSORGTOP
 10
0.0
 20
0.0
 30
0.0
  9
$UCSORGBOTTOM
 10
0.0
 20
0.0
 30
0.0
  9
$UCSORGLEFT
 10
0.0
 20
0.0
 30
0.0
  9
$UCSORGRIGHT
 10
0.0
 20
0.0
 30
0.0
  9
$UCSORGFRONT
 10
0.0
 20
0.0
 30
0.0
  9
$UCSORGBACK
 10
0.0
 20
0.0
 30
0.0
  9
$PUCSBASE
  2

  9
$PUCSNAME
  2

  9
$PUCSORG
 10
0.0
 20
0.0
 30
0.0
  9
$PUCSXDIR
 10
1.0
 20
0.0
 30
0.0
  9
$PUCSYDIR
 10
0.0
 20
1.0
 30
0.0
  9
$PUCSORTHOREF
  2

  9
$PUCSORTHOVIEW
 70
     0
  9
$PUCSORGTOP
 10
0.0
 20
0.0
 30
0.0
  9
$PUCSORGBOTTOM
 10
0.0
 20
0.0
 30
0.0
  9
$PUCSORGLEFT
 10
0.0
 20
0.0
 30
0.0
  9
$PUCSORGRIGHT
 10
0.0
 20
0.0
 30
0.0
  9
$PUCSORGFRONT
 10
0.0
 20
0.0
 30
0.0
  9
$PUCSORGBACK
 10
0.0
 20
0.0
 30
0.0
  9
$USERI1
 70
     0
  9
$USERI2
 70
     0
  9
$USERI3
 70
     0
  9
$USERI4
 70
     0
  9
$USERI5
 70
     0
  9
$USERR1
 40
0.0
  9
$USERR2
 40
0.0
  9
$USERR3
 40
0.0
  9
$USERR4
 40
0.0
  9
$USERR5
 40
0.0
  9
$WORLDVIEW
 70
     1
  9
$SHADEDGE
 70
     3
  9
$SHADEDIF
 70
    70
  9
$TILEMODE
 70
     1
  9
$MAXACTVP
 70
    16
  9
$PINSBASE
 10
0.0
 20
0.0
 30
0.0
  9
$PLIMCHECK
 70
     0
  9
$PEXTMIN
 10
1.000000000000000E+20
 20
1.000000000000000E+20
 30
1.000000000000000E+20
  9
$PEXTMAX
 10
-1.000000000000000E+20
 20
-1.000000000000000E+20
 30
-1.000000000000000E+20
  9
$PLIMMIN
 10
0.0
 20
0.0
  9
$PLIMMAX
 10
12.0
 20
9.0
  9
$UNITMODE
 70
     0
  9
$VISRETAIN
 70
     0
  9
$PLINEGEN
 70
     1
  9
$PSLTSCALE
 70
     1
  9
$TREEDEPTH
 70
  3020
  9
$CMLSTYLE
  2
STANDARD
  9
$CMLJUST
 70
     0
  9
$CMLSCALE
 40
1.0
  9
$PROXYGRAPHICS
 70
     1
  9
$MEASUREMENT
 70
     0
  9
$CELWEIGHT
370
    -1
  9
$ENDCAPS
280
     0
  9
$JOINSTYLE
280
     0
  9
$LWDISPLAY
290
     0
  9
$INSUNITS
 70
     0
  9
$HYPERLINKBASE
  1

  9
$STYLESHEET
  1

  9
$XEDIT
290
     1
  9
$CEPSNTYPE
380
     0
  9
$PSTYLEMODE
290
     1
  9
$FINGERPRINTGUID
  2
{26E31E3C-639F-4118-8159-5DDB3EA13C6F}
  9
$VERSIONGUID
  2
{FAEB1C32-E019-11D5-929B-00C0DF256EC4}
  9
$EXTNAMES
290
     1
  9
$PSVPSCALE
 40
0.0
  9
$OLESTARTUP
290
     0
  0
ENDSEC
  0
SECTION
  2
CLASSES
  0
CLASS
  1
LWPOLYLINE
  2
AcDbPolyline
  3
ObjectDBX Classes
 90
        0
280
     0
281
     1
  0
CLASS
  1
IMAGE
  2
AcDbRasterImage
  3
ISM
 90
      127
280
     0
281
     1
  0
CLASS
  1
OLE2FRAME
  2
AcDbOle2Frame
  3
ObjectDBX Classes
 90
        0
280
     0
281
     1
  0
CLASS
  1
HATCH
  2
AcDbHatch
  3
ObjectDBX Classes
 90
        0
280
     0
281
     1
  0
CLASS
  1
DICTIONARYVAR
  2
AcDbDictionaryVar
  3
ObjectDBX Classes
 90
        0
280
     0
281
     0
  0
CLASS
  1
RASTERVARIABLES
  2
AcDbRasterVariables
  3
ISM
 90
        0
280
     0
281
     0
  0
CLASS
  1
IMAGEDEF
  2
AcDbRasterImageDef
  3
ISM
 90
        0
280
     0
281
     0
  0
CLASS
  1
IMAGEDEF_REACTOR
  2
AcDbRasterImageDefReactor
  3
ISM
 90
        1
280
     0
281
     0
  0
CLASS
  1
IDBUFFER
  2
AcDbIdBuffer
  3
ObjectDBX Classes
 90
        0
280
     0
281
     0
  0
CLASS
  1
SPATIAL_FILTER
  2
AcDbSpatialFilter
  3
ObjectDBX Classes
 90
        0
280
     0
281
     0
  0
CLASS
  1
XRECORD
  2
AcDbXrecord
  3
ObjectDBX Classes
 90
        0
280
     0
281
     0
  0
CLASS
  1
SORTENTSTABLE
  2
AcDbSortentsTable
  3
ObjectDBX Classes
 90
        0
280
     0
281
     0
  0
CLASS
  1
LAYER_INDEX
  2
AcDbLayerIndex
  3
ObjectDBX Classes
 90
        0
280
     0
281
     0
  0
CLASS
  1
SPATIAL_INDEX
  2
AcDbSpatialIndex
  3
AutoCAD 2000
 90
        0
280
     0
281
     0
  0
CLASS
  1
OBJECT_PTR
  2
CAseDLPNTableRecord
  3
ASE-LPNTableRecord
 90
        1
280
     0
281
     0
  0
CLASS
  1
LAYOUT
  2
AcDbLayout
  3
ObjectDBX Classes
 90
        0
280
     0
281
     0
  0
CLASS
  1
PLOTSETTINGS
  2
AcDbPlotSettings
  3
ObjectDBX Classes
 90
        0
280
     0
281
     0
  0
CLASS
  1
ACDBDICTIONARYWDFLT
  2
AcDbDictionaryWithDefault
  3
ObjectDBX Classes
 90
        0
280
     0
281
     0
  0
CLASS
  1
ACDBPLACEHOLDER
  2
AcDbPlaceHolder
  3
ObjectDBX Classes
 90
        0
280
     0
281
     0
  0
CLASS
  1
VBA_PROJECT
  2
AcDbVbaProject
  3
ObjectDBX Classes
 90
        0
280
     0
281
     0
  0
CLASS
  1
WIPEOUT
  2
AcDbWipeout
  3
WipeOut|AutoCAD Express Tool|expresstools@autodesk.com
 90
      127
280
     0
281
     1
  0
CLASS
  1
WIPEOUTVARIABLES
  2
AcDbWipeoutVariables
  3
WipeOut|AutoCAD Express Tool|expresstools@autodesk.com
 90
        0
280
     0
281
     0
  0
CLASS
  1
RTEXT
  2
RText
  3
RText|AutoCAD Express Tool|expresstools@autodesk.com
 90
        0
280
     0
281
     1
  0
CLASS
  1
ARCALIGNEDTEXT
  2
AcDbArcAlignedText
  3
ATEXT|AutoCAD Express Tool|expresstools@autodesk.com
 90
        0
280
     0
281
     1
  0
CLASS
  1
SCALE
  2
AcDbScale
  3
ObjectDBX Classes
 90
     1153
280
     0
281
     0
  0
CLASS
  1
VISUALSTYLE
  2
AcDbVisualStyle
  3
ObjectDBX Classes
 90
     4095
280
     0
281
     0
  0
CLASS
  1
MATERIAL
  2
AcDbMaterial
  3
ObjectDBX Classes
 90
     1153
280
     0
281
     0
  0
ENDSEC
  0
SECTION
  2
TABLES
  0
TABLE
  2
VPORT
  5
7
102
{ACAD_XDICTIONARY
360
430
102
}
330
0
100
AcDbSymbolTable
 70
     1
  0
VPORT
  5
15
330
7
100
AcDbSymbolTableRecord
100
AcDbViewportTableRecord
  2
*ACTIVE
 70
     0
 10
0.0
 20
0.0
 11
1.0
 21
1.0
 12
105.0
 22
148.5
 13
0.0
 23
0.0
 14
1.0
 24
1.0
 15
0.0
 25
0.0
 16
0.0
 26
0.0
 36
1.0
 17
0.0
 27
0.0
 37
0.0
 40
297.0
 41
1.4142857143
 42
50.0
 43
0.0
 44
0.0
 50
0.0
 51
0.0
 71
     0
 72
  2000
 73
     1
 74
     1
 75
     0
 76
     0
 77
     0
 78
     0
281
     0
 65
     1
110
0.0
120
0.0
130
0.0
111
1.0
121
0.0
131
0.0
112
0.0
122
1.0
132
0.0
 79
     0
146
0.0
  0
ENDTAB
  0
TABLE
  2
LTYPE
  5
4
330
0
100
AcDbSymbolTable
 70
     6
  0
LTYPE
  5
11
330
4
100
AcDbSymbolTableRecord
100
AcDbLinetypeTableRecord
  2
BYBLOCK
 70
     0
  3

 72
    65
 73
     0
 40
0.0
  0
LTYPE
  5
12
330
4
100
AcDbSymbolTableRecord
100
AcDbLinetypeTableRecord
  2
BYLAYER
 70
     0
  3

 72
    65
 73
     0
 40
0.0
  0
LTYPE
  5
13
330
4
100
AcDbSymbolTableRecord
100
AcDbLinetypeTableRecord
  2
CONTINUOUS
 70
     0
  3
Solid line
 72
    65
 73
     0
 40
0.0
  0
LTYPE
  5
1D
330
4
100
AcDbSymbolTableRecord
100
AcDbLinetypeTableRecord
  2
HIDDEN
 70
     0
  3
Hidden __ __ __ __ __ __ __ __ __ __ __ __ __ __
 72
    65
 73
     2
 40
1.905
 49
1.27
 74
     0
 49
-0.635
 74
     0
  0
LTYPE
  5
1E
330
4
100
AcDbSymbolTableRecord
100
AcDbLinetypeTableRecord
  2
PHANTOM
 70
     0
  3
Phantom ______  __  __  ______  __  __  ______
 72
    65
 73
     6
 40
12.7
 49
6.35
 74
     0
 49
-1.27
 74
     0
 49
1.27
 74
     0
 49
-1.27
 74
     0
 49
1.27
 74
     0
 49
-1.27
 74
     0
  0
LTYPE
  5
1F
330
4
100
AcDbSymbolTableRecord
100
AcDbLinetypeTableRecord
  2
CENTER
 70
     0
  3
Center ____ _ ____ _ ____ _ ____ _ ____ _ ____
 72
    65
 73
     4
 40
10.16
 49
6.35
 74
     0
 49
-1.27
 74
     0
 49
1.27
 74
     0
 49
-1.27
 74
     0
  0
LTYPE
  5
20
330
4
100
AcDbSymbolTableRecord
100
AcDbLinetypeTableRecord
  2
CENTERX2
 70
     0
  3
Center (2x) ________  __  ________  __  _____
 72
    65
 73
     4
 40
20.32
 49
12.7
 74
     0
 49
-2.54
 74
     0
 49
2.54
 74
     0
 49
-2.54
 74
     0
  0
LTYPE
  5
21
330
4
100
AcDbSymbolTableRecord
100
AcDbLinetypeTableRecord
  2
DOT2
 70
     0
  3
Dot (.5x) ........................................
 72
    65
 73
     2
 40
0.635
 49
0.0
 74
     0
 49
-0.635
 74
     0
  0
LTYPE
  5
45A
330
5
100
AcDbSymbolTableRecord
100
AcDbLinetypeTableRecord
  2
DASH
 70
     0
  3
DASH _ _ _ _ _
 72
    65
 73
     2
 40
0.75
 49
0.40
 74
     0
 49
-0.35
 74
     0
  0
LTYPE
  5
45B
330
5
100
AcDbSymbolTableRecord
100
AcDbLinetypeTableRecord
  2
LONGDASH_DASH
 70
     0
  3
LONGDASH_DASH __ . __ . __
 72
    65
 73
     4
 40
0.85
 49
0.40
 74
     0
 49
-0.20
 74
     0
 49
0.05
 74
     0
 49
-0.20
 74
     0
  0
LTYPE
  5
45C
330
5
100
AcDbSymbolTableRecord
100
AcDbLinetypeTableRecord
  2
LONGDASH_DASH_DASH
 70
     0
  3
LONGDASH_DASH_DASH __ . . __ . . __
 72
    65
 73
     6
 40
1.10
 49
0.40
 74
     0
 49
-0.20
 74
     0
 49
0.05
 74
     0
 49
-0.20
 74
     0
 49
0.05
 74
     0
 49
-0.20
 74
     0
  0
ENDTAB
  0
TABLE
  2
LAYER
  5
2
330
0
100
AcDbSymbolTable
 70
     8
  0
LAYER
  5
23
330
2
100
AcDbSymbolTableRecord
100
AcDbLayerTableRecord
  2
DEFPOINTS
 70
     0
 62
     7
  6
CONTINUOUS
290
     0
370
    -3
390
0
  0
LAYER
  5
45D
330
2
100
AcDbSymbolTableRecord
100
AcDbLayerTableRecord
  2
0
 70
     0
 62
     -1
  6
CONTINUOUS
370
    -3
390
F
  0
LAYER
  5
45E
330
2
100
AcDbSymbolTableRecord
100
AcDbLayerTableRecord
  2
1
 70
     0
 62
     4
  6
CONTINUOUS
370
    50
390
F
  0
LAYER
  5
45F
330
2
100
AcDbSymbolTableRecord
100
AcDbLayerTableRecord
  2
2
 70
     0
 62
     7
  6
CONTINUOUS
370
    25
390
F
  0
LAYER
  5
460
330
2
100
AcDbSymbolTableRecord
100
AcDbLayerTableRecord
  2
3
 70
     0
 62
     1
  6
DASH
370
    35
390
F
  0
LAYER
  5
461
330
2
100
AcDbSymbolTableRecord
100
AcDbLayerTableRecord
  2
4
 70
     0
 62
     2
  6
LONGDASH_DASH
370
    25
390
F
  0
LAYER
  5
462
330
2
100
AcDbSymbolTableRecord
100
AcDbLayerTableRecord
  2
6
 70
     0
 62
     5
  6
CONTINUOUS
370
    -3
390
F
  0
LAYER
  5
463
330
2
100
AcDbSymbolTableRecord
100
AcDbLayerTableRecord
  2
CUT
 70
     0
 62
     1
  6
CONTINUOUS
370
    25
390
F
  0
LAYER
  5
464
330
2
100
AcDbSymbolTableRecord
100
AcDbLayerTableRecord
  2
NOCUT
 70
     0
 62
     7
  6
CONTINUOUS
370
    25
390
F
  0
LAYER
  5
465
330
2
100
AcDbSymbolTableRecord
100
AcDbLayerTableRecord
  2
SK1
 70
     0
 62
     4
  6
CONTINUOUS
370
    50
390
F
  0
LAYER
  5
466
330
2
100
AcDbSymbolTableRecord
100
AcDbLayerTableRecord
  2
SK2
 70
     0
 62
     7
  6
CONTINUOUS
370
    25
390
F
  0
LAYER
  5
467
330
2
100
AcDbSymbolTableRecord
100
AcDbLayerTableRecord
  2
SK3
 70
     0
 62
     1
  6
DASH
370
    35
390
F
  0
LAYER
  5
468
330
2
100
AcDbSymbolTableRecord
100
AcDbLayerTableRecord
  2
SK4
 70
     0
 62
     2
  6
LONGDASH_DASH
370
    25
390
F
  0
LAYER
  5
469
330
2
100
AcDbSymbolTableRecord
100
AcDbLayerTableRecord
  2
SK6
 70
     0
 62
     5
  6
CONTINUOUS
370
    -3
390
F
  0
LAYER
  5
46A
330
2
100
AcDbSymbolTableRecord
100
AcDbLayerTableRecord
  2
INFTOTAL
 70
     0
 62
     9
  6
CONTINUOUS
370
    18
390
F
  0
ENDTAB
  0
TABLE
  2
STYLE
  5
3
330
0
100
AcDbSymbolTable
 70
     2
  0
STYLE
  5
17
330
3
100
AcDbSymbolTableRecord
100
AcDbTextStyleTableRecord
  2
STANDARD
 70
     0
 40
0.0
 41
1.0
 50
0.0
 71
     0
 42
0.2
  3
txt
  4

  0
STYLE
  5
428
330
3
100
AcDbSymbolTableRecord
100
AcDbTextStyleTableRecord
  2
BMG_Text
 70
     0
 40
3.5
 41
1.0
 50
0.0
 71
     0
 42
0.0
  3
monos.ttf
  4

1001
ACAD
1000
Monospac821 BT
1071
       49
  0
ENDTAB
  0
TABLE
  2
VIEW
  5
5
330
0
100
AcDbSymbolTable
 70
     0
  0
ENDTAB
  0
TABLE
  2
UCS
  5
6
330
0
100
AcDbSymbolTable
 70
     0
  0
ENDTAB
  0
TABLE
  2
APPID
  5
8
330
0
100
AcDbSymbolTable
 70
     1
  0
APPID
  5
16
330
8
100
AcDbSymbolTableRecord
100
AcDbRegAppTableRecord
  2
ACAD
 70
     0
  0
ENDTAB
  0
TABLE
  2
DIMSTYLE
  5
9
330
0
100
AcDbSymbolTable
 70
     1
100
AcDbDimStyleTable
  0
DIMSTYLE
105
18
330
9
100
AcDbSymbolTableRecord
100
AcDbDimStyleTableRecord
  2
STANDARD
 70
     0
178
     0
340
17
  0
ENDTAB
  0
TABLE
  2
BLOCK_RECORD
  5
1
330
0
100
AcDbSymbolTable
 70
     0
  0
BLOCK_RECORD
  5
A
330
1
100
AcDbSymbolTableRecord
100
AcDbBlockTableRecord
  2
*MODEL_SPACE
340
411
  0
BLOCK_RECORD
  5
B
330
1
100
AcDbSymbolTableRecord
100
AcDbBlockTableRecord
  2
*PAPER_SPACE
340
412
  0
ENDTAB
  0
ENDSEC
  0
SECTION
  2
BLOCKS
  0
BLOCK
  5
D
330
A
100
AcDbEntity
  8
0
100
AcDbBlockBegin
  2
*MODEL_SPACE
 70
     0
 10
0.0
 20
0.0
 30
0.0
  3
*MODEL_SPACE
  1

  0
ENDBLK
  5
E
330
A
100
AcDbEntity
  8
0
100
AcDbBlockEnd
  0
BLOCK
  5
F
330
B
100
AcDbEntity
 67
     1
  8
0
100
AcDbBlockBegin
  2
*PAPER_SPACE
 70
     0
 10
0.0
 20
0.0
 30
0.0
  3
*PAPER_SPACE
  1

  0
ENDBLK
  5
10
330
B
100
AcDbEntity
 67
     1
  8
0
100
AcDbBlockEnd
  0
ENDSEC
  0
SECTION
  2
ENTITIES
  0
ARC
  5
29
330
A
100
AcDbEntity
  8
1
  6
CONTINUOUS
370
    50
100
AcDbCircle
 10
79.6744648571
 20
149.0186618811
 30
0.0
 40
0.5
100
AcDbArc
 50
66.4218215218
 51
90.0
  0
ARC
  5
2A
330
A
100
AcDbEntity
  8
1
  6
CONTINUOUS
370
    50
100
AcDbCircle
 10
79.6744648571
 20
193.8686618811
 30
0.0
 40
0.5
100
AcDbArc
 50
270.0
 51
293.5781784782001
  0
LINE
  5
2B
330
A
100
AcDbEntity
  8
1
  6
CONTINUOUS
370
    50
100
AcDbLine
 10
78.8744648571
 20
193.6686618811
 30
0.0
 11
11.4069862156
 21
183.829654579
 31
0.0
  0
LINE
  5
2C
330
A
100
AcDbEntity
  8
1
  6
CONTINUOUS
370
    50
100
AcDbLine
 10
11.4069862156
 20
159.0576691831
 30
0.0
 11
78.8744648571
 21
149.2186618811
 31
0.0
  0
LINE
  5
2D
330
A
100
AcDbEntity
  8
1
  6
CONTINUOUS
370
    50
100
AcDbLine
 10
78.8744648571
 20
149.2186618811
 30
0.0
 11
79.4173551337
 21
149.4718157746
 31
0.0
  0
LINE
  5
2E
330
A
100
AcDbEntity
  8
1
  6
CONTINUOUS
370
    50
100
AcDbLine
 10
79.4173551337
 20
193.4155079876
 30
0.0
 11
78.8744648571
 21
193.6686618811
 31
0.0
  0
ARC
  5
2F
330
A
100
AcDbEntity
  8
1
  6
CONTINUOUS
370
    50
100
AcDbCircle
 10
79.6286642646
 20
149.0186618811
 30
0.0
 40
0.5
100
AcDbArc
 50
90.0
 51
115.0
  0
ARC
  5
30
330
A
100
AcDbEntity
  8
1
  6
CONTINUOUS
370
    50
100
AcDbCircle
 10
79.6286642646
 20
193.8686618811
 30
0.0
 40
0.5
100
AcDbArc
 50
245.0
 51
270.0
  0
ARC
  5
31
330
A
100
AcDbEntity
  8
1
  6
CONTINUOUS
370
    50
100
AcDbCircle
 10
102.9244648571
 20
150.4936618811
 30
0.0
 40
5.0
100
AcDbArc
 50
81.890385544
 51
180.0
  0
ARC
  5
32
330
A
100
AcDbEntity
  8
1
  6
CONTINUOUS
370
    50
100
AcDbCircle
 10
102.9244648571
 20
192.3936618811
 30
0.0
 40
5.0
100
AcDbArc
 50
180.0
 51
278.109614456
  0
LINE
  5
33
330
A
100
AcDbEntity
  8
1
  6
CONTINUOUS
370
    50
100
AcDbLine
 10
148.0496459124
 20
155.4436618811
 30
0.0
 11
197.8413367531
 21
159.3623529359
 31
0.0
  0
LINE
  5
34
330
A
100
AcDbEntity
  8
1
  6
CONTINUOUS
370
    50
100
AcDbLine
 10
197.8413367531
 20
183.5249708262
 30
0.0
 11
148.0496459124
 21
187.4436618811
 31
0.0
  0
LINE
  5
35
330
A
100
AcDbEntity
  8
1
  6
CONTINUOUS
370
    50
100
AcDbLine
 10
103.6298016561
 20
155.4436618811
 30
0.0
 11
148.0496459124
 21
155.4436618811
 31
0.0
  0
LINE
  5
36
330
A
100
AcDbEntity
  8
1
  6
CONTINUOUS
370
    50
100
AcDbLine
 10
148.0496459124
 20
187.4436618811
 30
0.0
 11
103.6298016561
 21
187.4436618811
 31
0.0
  0
ARC
  5
37
330
A
100
AcDbEntity
  8
1
  6
CONTINUOUS
370
    50
100
AcDbCircle
 10
11.5744648571
 20
159.9932940641
 30
0.0
 40
0.95
100
AcDbArc
 50
180.0
 51
258.0
  0
ARC
  5
38
330
A
100
AcDbEntity
  8
1
  6
CONTINUOUS
370
    50
100
AcDbCircle
 10
11.5744648571
 20
182.8940296981
 30
0.0
 40
0.95
100
AcDbArc
 50
102.0
 51
180.0
  0
ARC
  5
39
330
A
100
AcDbEntity
  8
1
  6
CONTINUOUS
370
    50
100
AcDbCircle
 10
196.8744648571
 20
161.1131124102
 30
0.0
 40
2.0
100
AcDbArc
 50
298.9100507074
 51
0.0
  0
ARC
  5
3A
330
A
100
AcDbEntity
  8
1
  6
CONTINUOUS
370
    50
100
AcDbCircle
 10
196.8744648571
 20
181.774211352
 30
0.0
 40
2.0
100
AcDbArc
 50
0.0
 51
61.0899492926
  0
LINE
  5
3B
330
A
100
AcDbEntity
  8
1
  6
CONTINUOUS
370
    50
100
AcDbLine
 10
97.9244648571
 20
189.7936618811
 30
0.0
 11
97.9244648571
 21
141.3707067269
 31
0.0
  0
LINE
  5
3C
330
A
100
AcDbEntity
  8
1
  6
CONTINUOUS
370
    50
100
AcDbLine
 10
97.9244648571
 20
141.3707067269
 30
0.0
 11
97.4244648571
 21
140.9665803286
 31
0.0
  0
LINE
  5
3D
330
A
100
AcDbEntity
  8
1
  6
CONTINUOUS
370
    50
100
AcDbLine
 10
97.4244648571
 20
140.9665803286
 30
0.0
 11
97.4244648571
 21
189.7936618811
 31
0.0
  0
LINE
  5
3E
330
A
100
AcDbEntity
  8
1
  6
CONTINUOUS
370
    50
100
AcDbLine
 10
97.4244648571
 20
189.7936618811
 30
0.0
 11
97.9244648571
 21
189.7936618811
 31
0.0
  0
LINE
  5
3F
330
A
100
AcDbEntity
  8
1
  6
CONTINUOUS
370
    50
100
AcDbLine
 10
80.3744648571
 20
189.7936618811
 30
0.0
 11
80.3744648571
 21
141.3937034784
 31
0.0
  0
LINE
  5
40
330
A
100
AcDbEntity
  8
1
  6
CONTINUOUS
370
    50
100
AcDbLine
 10
80.3744648571
 20
141.3937034784
 30
0.0
 11
79.8744648571
 21
142.1008603788
 31
0.0
  0
LINE
  5
41
330
A
100
AcDbEntity
  8
1
  6
CONTINUOUS
370
    50
100
AcDbLine
 10
79.8744648571
 20
142.1008603788
 30
0.0
 11
79.8744648571
 21
189.7936618811
 31
0.0
  0
LINE
  5
42
330
A
100
AcDbEntity
  8
1
  6
CONTINUOUS
370
    50
100
AcDbLine
 10
79.8744648571
 20
189.7936618811
 30
0.0
 11
80.3744648571
 21
189.7936618811
 31
0.0
  0
LINE
  5
43
330
A
100
AcDbEntity
  8
1
  6
CONTINUOUS
370
    50
100
AcDbLine
 10
93.4963014991
 20
140.9665803286
 30
0.0
 11
93.4963014991
 21
189.7936618811
 31
0.0
  0
LINE
  5
44
330
A
100
AcDbEntity
  8
1
  6
CONTINUOUS
370
    50
100
AcDbLine
 10
97.4244648571
 20
189.7936618811
 30
0.0
 11
93.4963014991
 21
189.7936618811
 31
0.0
  0
LINE
  5
45
330
A
100
AcDbEntity
  8
1
  6
CONTINUOUS
370
    50
100
AcDbLine
 10
97.4244648571
 20
140.9665803286
 30
0.0
 11
93.4963014991
 21
140.9665803286
 31
0.0
  0
LINE
  5
46
330
A
100
AcDbEntity
  8
1
  6
CONTINUOUS
370
    50
100
AcDbLine
 10
93.4963014991
 20
140.9665803286
 30
0.0
 11
92.8908026738
 21
141.8165803311
 31
0.0
  0
LWPOLYLINE
  5
47
330
A
100
AcDbEntity
  8
1
  6
CONTINUOUS
370
    50
100
AcDbPolyline
 90
        3
 70
   128
 43
0.0
 10
91.8994648571
 20
143.5997896221
 10
92.4786302489
 20
142.5570185735
 10
92.8908026738
 20
141.8165803311
  0
LINE
  5
4C
330
A
100
AcDbEntity
  8
1
  6
CONTINUOUS
370
    50
100
AcDbLine
 10
91.8994648571
 20
189.7936618811
 30
0.0
 11
91.8994648571
 21
143.5997896221
 31
0.0
  0
LINE
  5
4D
330
A
100
AcDbEntity
  8
1
  6
CONTINUOUS
370
    50
100
AcDbLine
 10
93.4963014991
 20
189.7936618811
 30
0.0
 11
91.8994648571
 21
189.7936618811
 31
0.0
  0
LINE
  5
4E
330
A
100
AcDbEntity
  8
1
  6
CONTINUOUS
370
    50
100
AcDbLine
 10
87.0581270403
 20
141.8165803311
 30
0.0
 11
86.452628215
 21
140.9665803286
 31
0.0
  0
LINE
  5
4F
330
A
100
AcDbEntity
  8
1
  6
CONTINUOUS
370
    50
100
AcDbLine
 10
86.452628215
 20
140.9665803286
 30
0.0
 11
86.452628215
 21
189.7936618811
 31
0.0
  0
LINE
  5
50
330
A
100
AcDbEntity
  8
1
  6
CONTINUOUS
370
    50
100
AcDbLine
 10
88.0494648571
 20
189.7936618811
 30
0.0
 11
86.452628215
 21
189.7936618811
 31
0.0
  0
LINE
  5
51
330
A
100
AcDbEntity
  8
1
  6
CONTINUOUS
370
    50
100
AcDbLine
 10
88.0494648571
 20
143.5997896221
 30
0.0
 11
88.0494648571
 21
189.7936618811
 31
0.0
  0
LWPOLYLINE
  5
52
330
A
100
AcDbEntity
  8
1
  6
CONTINUOUS
370
    50
100
AcDbPolyline
 90
        3
 70
   128
 43
0.0
 10
87.0581270403
 20
141.8165803311
 10
87.4702994653
 20
142.5570185735
 10
88.0494648571
 20
143.5997896221
  0
LINE
  5
57
330
A
100
AcDbEntity
  8
1
  6
CONTINUOUS
370
    50
100
AcDbLine
 10
86.452628215
 20
140.9665803286
 30
0.0
 11
81.7244648546
 21
140.9665803286
 31
0.0
  0
LWPOLYLINE
  5
58
330
A
100
AcDbEntity
  8
1
  6
CONTINUOUS
370
    50
100
AcDbPolyline
 90
        3
 70
   128
 43
0.0
 10
80.3744648571
 20
141.3937034784
 10
81.0470835046
 20
141.1726152122
 10
81.7244648546
 20
140.9665803286
  0
LINE
  5
5D
330
A
100
AcDbEntity
  8
1
  6
CONTINUOUS
370
    50
100
AcDbLine
 10
86.452628215
 20
189.7936618811
 30
0.0
 11
80.3744648571
 21
189.7936618811
 31
0.0
  0
ARC
  5
5E
330
A
100
AcDbEntity
  8
1
  6
CONTINUOUS
370
    50
100
AcDbCircle
 10
91.3897623666
 20
144.1160554429
 30
0.0
 40
0.5098409115
100
AcDbArc
 50
358.6648465171999
 51
88.90957100320001
  0
LINE
  5
5F
330
A
100
AcDbEntity
  8
1
  6
CONTINUOUS
370
    50
100
AcDbLine
 10
91.3994648571
 20
189.7936618811
 30
0.0
 11
91.3994648571
 21
144.6258040248
 31
0.0
  0
LINE
  5
60
330
A
100
AcDbEntity
  8
1
  6
CONTINUOUS
370
    50
100
AcDbLine
 10
91.3994648571
 20
189.7936618811
 30
0.0
 11
91.8994648571
 21
189.7936618811
 31
0.0
  0
ARC
  5
61
330
A
100
AcDbEntity
  8
1
  6
CONTINUOUS
370
    50
100
AcDbCircle
 10
88.5608607958
 20
144.11443221
 30
0.0
 40
0.5114987785
100
AcDbArc
 50
91.2766271413
 51
181.1489553383
  0
LINE
  5
62
330
A
100
AcDbEntity
  8
1
  6
CONTINUOUS
370
    50
100
AcDbLine
 10
88.0494648571
 20
189.7936618811
 30
0.0
 11
88.5494648571
 21
189.7936618811
 31
0.0
  0
LINE
  5
63
330
A
100
AcDbEntity
  8
1
  6
CONTINUOUS
370
    50
100
AcDbLine
 10
88.5494648571
 20
189.7936618811
 30
0.0
 11
88.5494648571
 21
144.6258040248
 31
0.0
  0
LINE
  5
64
330
A
100
AcDbEntity
  8
1
  6
CONTINUOUS
370
    50
100
AcDbLine
 10
91.3994648571
 20
144.6258040248
 30
0.0
 11
88.5494648571
 21
144.6258040248
 31
0.0
  0
LINE
  5
65
330
A
100
AcDbEntity
  8
1
  6
CONTINUOUS
370
    50
100
AcDbLine
 10
88.5494648571
 20
189.7936618811
 30
0.0
 11
91.3994648571
 21
189.7936618811
 31
0.0
  0
LINE
  5
66
330
A
100
AcDbEntity
  8
1
  6
CONTINUOUS
370
    50
100
AcDbLine
 10
11.4069862156
 20
183.829654579
 30
0.0
 11
11.4069862156
 21
159.0576691831
 31
0.0
  0
LINE
  5
67
330
A
100
AcDbEntity
  8
1
  6
CONTINUOUS
370
    50
100
AcDbLine
 10
78.8744648571
 20
149.2186618811
 30
0.0
 11
78.8744648571
 21
193.6686618811
 31
0.0
  0
LINE
  5
68
330
A
100
AcDbEntity
  8
1
  6
CONTINUOUS
370
    50
100
AcDbLine
 10
103.6298016561
 20
155.4436618811
 30
0.0
 11
103.6298016561
 21
187.4436618811
 31
0.0
  0
LINE
  5
69
330
A
100
AcDbEntity
  8
1
  6
CONTINUOUS
370
    50
100
AcDbLine
 10
80.3744648571
 20
197.3538915211
 30
0.0
 11
79.8744648571
 21
196.7387206871
 31
0.0
  0
LINE
  5
6A
330
A
100
AcDbEntity
  8
1
  6
CONTINUOUS
370
    50
100
AcDbLine
 10
80.3744648571
 20
197.3538915211
 30
0.0
 11
86.452628215
 21
197.3538915211
 31
0.0
  0
LINE
  5
6B
330
A
100
AcDbEntity
  8
1
  6
CONTINUOUS
370
    50
100
AcDbLine
 10
86.452628215
 20
197.3538915211
 30
0.0
 11
88.0494648571
 21
193.8793749826
 31
0.0
  0
LINE
  5
6C
330
A
100
AcDbEntity
  8
1
  6
CONTINUOUS
370
    50
100
AcDbLine
 10
88.0494648571
 20
193.2502549208
 30
0.0
 11
88.0494648571
 21
193.8793749826
 31
0.0
  0
ARC
  5
6D
330
A
100
AcDbEntity
  8
1
  6
CONTINUOUS
370
    50
100
AcDbCircle
 10
88.6231851679
 20
193.1675428843
 30
0.0
 40
0.5796518576
100
AcDbArc
 50
171.7963139127
 51
262.6933157902
  0
LINE
  5
6E
330
A
100
AcDbEntity
  8
1
  6
CONTINUOUS
370
    50
100
AcDbLine
 10
91.3994648571
 20
192.5925980245
 30
0.0
 11
88.5494648571
 21
192.5925980245
 31
0.0
  0
LWPOLYLINE
  5
6F
330
A
100
AcDbEntity
  8
1
  6
CONTINUOUS
370
    50
100
AcDbPolyline
 90
        7
 70
   128
 43
0.0
 10
91.8994648571
 20
193.2502549208
 10
91.8549563288
 20
192.9800351296
 10
91.7500715733
 20
192.7822527334
 10
91.6281639542
 20
192.6658490899
 10
91.557160441
 20
192.6263723297
 10
91.4306821821
 20
192.5938894788
 10
91.3994648571
 20
192.5925980245
  0
LINE
  5
78
330
A
100
AcDbEntity
  8
1
  6
CONTINUOUS
370
    50
100
AcDbLine
 10
91.8994648571
 20
193.8793749826
 30
0.0
 11
91.8994648571
 21
193.2502549208
 31
0.0
  0
LINE
  5
79
330
A
100
AcDbEntity
  8
1
  6
CONTINUOUS
370
    50
100
AcDbLine
 10
91.8994648571
 20
193.8793749826
 30
0.0
 11
93.4963014991
 21
197.3538915211
 31
0.0
  0
LINE
  5
7A
330
A
100
AcDbEntity
  8
1
  6
CONTINUOUS
370
    50
100
AcDbLine
 10
93.4963014991
 20
197.3538915211
 30
0.0
 11
97.4244648571
 21
197.3538915211
 31
0.0
  0
LINE
  5
7B
330
A
100
AcDbEntity
  8
1
  6
CONTINUOUS
370
    50
100
AcDbLine
 10
97.9244648571
 20
196.7387206871
 30
0.0
 11
97.4244648571
 21
197.3538915211
 31
0.0
  0
LINE
  5
7C
330
A
100
AcDbEntity
  8
1
  6
CONTINUOUS
370
    50
100
AcDbLine
 10
79.8744648571
 20
196.7387206871
 30
0.0
 11
79.8744648571
 21
189.7936618811
 31
0.0
  0
LINE
  5
7D
330
A
100
AcDbEntity
  8
1
  6
CONTINUOUS
370
    50
100
AcDbLine
 10
97.9244648571
 20
196.7387206871
 30
0.0
 11
97.9244648571
 21
189.7936618811
 31
0.0
  0
LINE
  5
7E
330
A
100
AcDbEntity
  8
1
  6
CONTINUOUS
370
    50
100
AcDbLine
 10
88.5494648571
 20
198.2615197374
 30
0.0
 11
88.5494648571
 21
192.5925980245
 31
0.0
  0
ARC
  5
7F
330
A
100
AcDbEntity
  8
1
  6
CONTINUOUS
370
    50
100
AcDbCircle
 10
88.5617585107
 20
198.7737520452
 30
0.0
 40
0.5123798114
100
AcDbArc
 50
178.9492610517
 51
268.6251564687
  0
LINE
  5
80
330
A
100
AcDbEntity
  8
1
  6
CONTINUOUS
370
    50
100
AcDbLine
 10
91.3994648571
 20
198.2615197374
 30
0.0
 11
91.3994648571
 21
192.5925980245
 31
0.0
  0
LINE
  5
81
330
A
100
AcDbEntity
  8
1
  6
CONTINUOUS
370
    50
100
AcDbLine
 10
91.3994648571
 20
198.2615197374
 30
0.0
 11
88.5494648571
 21
198.2615197374
 31
0.0
  0
ARC
  5
82
330
A
100
AcDbEntity
  8
1
  6
CONTINUOUS
370
    50
100
AcDbCircle
 10
91.3888314488
 20
198.7721606385
 30
0.0
 40
0.5107516023
100
AcDbArc
 50
271.1929349491
 51
1.2326475305
  0
LINE
  5
83
330
A
100
AcDbEntity
  8
1
  6
CONTINUOUS
370
    50
100
AcDbLine
 10
86.452628215
 20
201.9207434335
 30
0.0
 11
87.0581270403
 21
201.0707434311
 31
0.0
  0
LINE
  5
84
330
A
100
AcDbEntity
  8
1
  6
CONTINUOUS
370
    50
100
AcDbLine
 10
87.0581270403
 20
201.0707434311
 30
0.0
 11
88.0494648571
 21
199.2875341401
 31
0.0
  0
LINE
  5
85
330
A
100
AcDbEntity
  8
1
  6
CONTINUOUS
370
    50
100
AcDbLine
 10
86.452628215
 20
197.3538915211
 30
0.0
 11
86.452628215
 21
201.9207434335
 31
0.0
  0
LINE
  5
86
330
A
100
AcDbEntity
  8
1
  6
CONTINUOUS
370
    50
100
AcDbLine
 10
88.0494648571
 20
193.8793749826
 30
0.0
 11
88.0494648571
 21
199.2875341401
 31
0.0
  0
LINE
  5
87
330
A
100
AcDbEntity
  8
1
  6
CONTINUOUS
370
    50
100
AcDbLine
 10
92.8908026738
 20
201.0707434311
 30
0.0
 11
93.4963014991
 21
201.9207434335
 31
0.0
  0
LINE
  5
88
330
A
100
AcDbEntity
  8
1
  6
CONTINUOUS
370
    50
100
AcDbLine
 10
93.4963014991
 20
197.3538915211
 30
0.0
 11
93.4963014991
 21
201.9207434335
 31
0.0
  0
LINE
  5
89
330
A
100
AcDbEntity
  8
1
  6
CONTINUOUS
370
    50
100
AcDbLine
 10
91.8994648571
 20
199.2875341401
 30
0.0
 11
92.8908026738
 21
201.0707434311
 31
0.0
  0
LINE
  5
8A
330
A
100
AcDbEntity
  8
1
  6
CONTINUOUS
370
    50
100
AcDbLine
 10
91.8994648571
 20
199.2875341401
 30
0.0
 11
91.8994648571
 21
193.8793749826
 31
0.0
  0
LINE
  5
8B
330
A
100
AcDbEntity
  8
1
  6
CONTINUOUS
370
    50
100
AcDbLine
 10
80.3744648571
 20
201.4936202837
 30
0.0
 11
80.3744648571
 21
197.3538915211
 31
0.0
  0
LINE
  5
8C
330
A
100
AcDbEntity
  8
1
  6
CONTINUOUS
370
    50
100
AcDbLine
 10
79.8744648571
 20
200.7864633833
 30
0.0
 11
80.3744648571
 21
201.4936202837
 31
0.0
  0
LINE
  5
8D
330
A
100
AcDbEntity
  8
1
  6
CONTINUOUS
370
    50
100
AcDbLine
 10
79.8744648571
 20
196.7387206871
 30
0.0
 11
79.8744648571
 21
200.7864633833
 31
0.0
  0
LINE
  5
8E
330
A
100
AcDbEntity
  8
1
  6
CONTINUOUS
370
    50
100
AcDbLine
 10
97.4244648571
 20
197.3538915211
 30
0.0
 11
97.4244648571
 21
201.9207434335
 31
0.0
  0
LINE
  5
8F
330
A
100
AcDbEntity
  8
1
  6
CONTINUOUS
370
    50
100
AcDbLine
 10
97.4244648571
 20
201.9207434335
 30
0.0
 11
97.9244648571
 21
201.5166170352
 31
0.0
  0
LINE
  5
90
330
A
100
AcDbEntity
  8
1
  6
CONTINUOUS
370
    50
100
AcDbLine
 10
97.9244648571
 20
201.5166170352
 30
0.0
 11
97.9244648571
 21
196.7387206871
 31
0.0
  0
LINE
  5
91
330
A
100
AcDbEntity
  8
1
  6
CONTINUOUS
370
    50
100
AcDbLine
 10
93.4963014991
 20
201.9207434335
 30
0.0
 11
97.4244648571
 21
201.9207434335
 31
0.0
  0
LINE
  5
92
330
A
100
AcDbEntity
  8
1
  6
CONTINUOUS
370
    50
100
AcDbLine
 10
81.7244648546
 20
201.9207434335
 30
0.0
 11
86.452628215
 21
201.9207434335
 31
0.0
  0
LWPOLYLINE
  5
93
330
A
100
AcDbEntity
  8
1
  6
CONTINUOUS
370
    50
100
AcDbPolyline
 90
        3
 70
   128
 43
0.0
 10
80.3744648571
 20
201.4936202837
 10
81.0470835046
 20
201.71470855
 10
81.7244648546
 20
201.9207434335
  0
LINE
  5
98
330
A
100
AcDbEntity
  8
1
  6
CONTINUOUS
370
    50
100
AcDbLine
 10
197.8413367531
 20
183.5249708262
 30
0.0
 11
197.8413367531
 21
159.3623529359
 31
0.0
  0
LINE
  5
99
330
A
100
AcDbEntity
  8
1
  6
CONTINUOUS
370
    50
100
AcDbLine
 10
148.0496459124
 20
155.4436618811
 30
0.0
 11
148.0496459124
 21
187.4436618811
 31
0.0
  0
LINE
  5
9A
330
A
100
AcDbEntity
  8
1
  6
CONTINUOUS
370
    50
100
AcDbLine
 10
10.6244648571
 20
159.9932940913
 30
0.0
 11
10.6244648571
 21
182.8940296981
 31
0.0
  0
LINE
  5
9B
330
A
100
AcDbEntity
  8
1
  6
CONTINUOUS
370
    50
100
AcDbLine
 10
198.8744648571
 20
161.1131124244
 30
0.0
 11
198.8744648571
 21
181.774211352
 31
0.0
  0
LINE
  5
9C
330
A
100
AcDbEntity
  8
1
  6
CONTINUOUS
370
    50
100
AcDbLine
 10
79.6744648571
 20
149.5186618811
 30
0.0
 11
79.6744648571
 21
193.3686618811
 31
0.0
  0
LINE
  5
9D
330
A
100
AcDbEntity
  8
1
  6
CONTINUOUS
370
    50
100
AcDbLine
 10
79.4173551337
 20
149.4718157746
 30
0.0
 11
79.4173551337
 21
193.4155079876
 31
0.0
  0
LINE
  5
9E
330
A
100
AcDbEntity
  8
1
  6
CONTINUOUS
370
    50
100
AcDbLine
 10
79.6286642646
 20
149.5186618811
 30
0.0
 11
79.6286642646
 21
193.3686618811
 31
0.0
  0
LINE
  5
9F
330
A
100
AcDbEntity
  8
1
  6
CONTINUOUS
370
    50
100
AcDbLine
 10
11.3769487508
 20
159.0640538434
 30
0.0
 11
11.3769487508
 21
183.8232699188
 31
0.0
  0
LWPOLYLINE
  5
A0
330
A
100
AcDbEntity
  8
1
  6
CONTINUOUS
370
    50
100
AcDbPolyline
 90
       25
 70
   128
 43
0.0
 10
94.5252437908
 20
162.8114969018
 10
94.4757181195
 20
162.2812743846
 10
94.5181780629
 20
161.7871856557
 10
94.6497300459
 20
161.3629020455
 10
94.8614090183
 20
161.0373377808
 10
95.138789408
 20
160.8326795283
 10
95.4629681997
 20
160.7628744097
 10
95.8118531447
 20
160.8326795283
 10
96.1616683104
 20
161.0373377808
 10
96.4885743714
 20
161.3629020455
 10
96.7702932198
 20
161.7871856557
 10
96.9876261818
 20
162.2812743846
 10
97.125762375
 20
162.8114969018
 10
97.1752880463
 20
163.3417194189
 10
97.132828103
 20
163.8358081478
 10
97.00127612
 20
164.260091758
 10
96.7895971476
 20
164.5856560227
 10
96.5122167579
 20
164.7903142752
 10
96.1880379661
 20
164.8601193939
 10
95.8391530212
 20
164.7903142752
 10
95.4893378555
 20
164.5856560227
 10
95.1624317945
 20
164.260091758
 10
94.8807129461
 20
163.8358081478
 10
94.6633799841
 20
163.3417194189
 10
94.5252437908
 20
162.8114969018
  0
LWPOLYLINE
  5
BB
330
A
100
AcDbEntity
  8
1
  6
CONTINUOUS
370
    50
100
AcDbPolyline
 90
       18
 70
   128
 43
0.0
 10
89.7137929938
 20
163.0149974983
 10
89.6971234751
 20
162.910816091
 10
89.6810216169
 20
162.86298263
 10
89.6660357487
 20
162.8731260266
 10
89.6526761961
 20
162.9409008596
 10
89.6413979028
 20
163.0639991382
 10
89.6325849375
 20
163.2382288982
 10
89.6265374151
 20
163.4576569542
 10
89.6234612769
 20
163.7148109469
 10
89.6234612769
 20
164.0009338054
 10
89.6265374151
 20
164.306281959
 10
89.6325849375
 20
164.6204571425
 10
89.6413979028
 20
164.9327604969
 10
89.6526761961
 20
165.2325569061
 10
89.6660357487
 20
165.5096371627
 10
89.6810216169
 20
165.7545656311
 10
89.6971234751
 20
165.959001566
 10
89.7137929938
 20
166.1159831469
  0
LWPOLYLINE
  5
CF
330
A
100
AcDbEntity
  8
1
  6
CONTINUOUS
370
    50
100
AcDbPolyline
 90
       18
 70
   128
 43
0.0
 10
89.7137929938
 20
166.1159831469
 10
89.2162283923
 20
166.0970131535
 10
88.7356077565
 20
166.0258889869
 10
88.2882980458
 20
165.9050326954
 10
87.8895318558
 20
165.738559895
 10
87.552888691
 20
165.5321396173
 10
87.2898325304
 20
165.2928012571
 10
87.1093214362
 20
165.0286951955
 10
87.0175024972
 20
164.7488152474
 10
87.0175024972
 20
164.4626923889
 10
87.1093214362
 20
164.1800701907
 10
87.2898325304
 20
163.9105730129
 10
87.552888691
 20
163.6633782585
 10
87.8895318558
 20
163.4469038485
 10
88.2882980458
 20
163.2685215593
 10
88.7356077565
 20
163.1343059858
 10
89.2162283923
 20
163.0488276784
 10
89.7137929938
 20
163.0149974983
  0
LWPOLYLINE
  5
E3
330
A
100
AcDbEntity
  8
1
  6
CONTINUOUS
370
    50
100
AcDbPolyline
 90
       25
 70
   128
 43
0.0
 10
94.5266692449
 20
162.812519714
 10
94.6642753776
 20
163.3407076443
 10
94.8807743825
 20
163.83290044
 10
95.1614122103
 20
164.2555559754
 10
95.4870638568
 20
164.5798709744
 10
95.8355367005
 20
164.7837439057
 10
96.1830828929
 20
164.8532811659
 10
96.5060177354
 20
164.7837439057
 10
96.7823337521
 20
164.5798709744
 10
96.9932004631
 20
164.2555559754
 10
97.1242476506
 20
163.83290044
 10
97.1665446653
 20
163.3407076443
 10
97.1172090355
 20
162.812519714
 10
96.9796029029
 20
162.2843317838
 10
96.763103898
 20
161.7921389881
 10
96.4824660701
 20
161.3694834526
 10
96.1568144236
 20
161.0451684536
 10
95.80834158
 20
160.8412955223
 10
95.4607953876
 20
160.7717582621
 10
95.1378605451
 20
160.8412955223
 10
94.8615445284
 20
161.0451684536
 10
94.6506778173
 20
161.3694834526
 10
94.5196306298
 20
161.7921389881
 10
94.4773336151
 20
162.2843317838
 10
94.5266692449
 20
162.812519714
  0
LWPOLYLINE
  5
FE
330
A
100
AcDbEntity
  8
1
  6
CONTINUOUS
370
    50
100
AcDbPolyline
 90
       22
 70
   128
 43
0.0
 10
96.55949672
 20
162.8940460274
 10
96.4301477948
 20
162.4195986789
 10
96.2215155759
 20
161.9873080593
 10
95.9521379516
 20
161.6355850874
 10
95.6459503059
 20
161.3956818926
 10
95.3301587548
 20
161.2889149267
 10
95.0328227635
 20
161.3247709031
 10
94.7803619397
 20
161.500063861
 10
94.5952085353
 20
161.7992182517
 10
94.493814243
 20
162.1956528948
 10
94.4851883906
 20
162.6541428327
 10
94.5700974229
 20
163.1339492221
 10
94.7409967998
 20
163.59243916
 10
94.9827013617
 20
163.9888738031
 10
95.2737345975
 20
164.2880281938
 10
95.588236927
 20
164.4633211517
 10
95.8982634382
 20
164.4991771281
 10
96.1762669149
 20
164.3924101622
 10
96.3975455283
 20
164.1525069674
 10
96.5424377024
 20
163.8007839955
 10
96.5980691319
 20
163.3684933759
 10
96.55949672
 20
162.8940460274
  0
ARC
  5
116
330
A
100
AcDbEntity
  8
1
  6
CONTINUOUS
370
    50
100
AcDbCircle
 10
91.2858117476
 20
165.9209625923
 30
0.0
 40
1.5840694363
100
AcDbArc
 50
169.5837820585
 51
172.9281661025
  0
ARC
  5
117
330
A
100
AcDbEntity
  8
1
  6
CONTINUOUS
370
    50
100
AcDbCircle
 10
85.4877756372
 20
156.1609452123
 30
0.0
 40
10.9045232045
100
AcDbArc
 50
65.7827110029
 51
67.11790628769998
  0
ARC
  5
118
330
A
100
AcDbEntity
  8
1
  6
CONTINUOUS
370
    50
100
AcDbCircle
 10
89.6434035855
 20
161.3936878317
 30
0.0
 40
4.7228198899
100
AcDbArc
 50
86.1466391329
 51
89.14602601060001
  0
ARC
  5
119
330
A
100
AcDbEntity
  8
1
  6
CONTINUOUS
370
    50
100
AcDbCircle
 10
89.7843205509
 20
167.7306467866
 30
0.0
 40
4.7161766662
100
AcDbArc
 50
269.143144484
 51
272.1444122424999
  0
ARC
  5
11A
330
A
100
AcDbEntity
  8
1
  6
CONTINUOUS
370
    50
100
AcDbCircle
 10
95.7341881411
 20
173.9664517638
 30
0.0
 40
12.3776278961
100
AcDbArc
 50
240.9706336713
 51
242.1966722695
  0
ARC
  5
11B
330
A
100
AcDbEntity
  8
1
  6
CONTINUOUS
370
    50
100
AcDbCircle
 10
85.4584977135
 20
163.5444450771
 30
0.0
 40
4.2881059526
100
AcDbArc
 50
352.9076566907
 51
354.6390928971
  0
LWPOLYLINE
  5
11C
330
A
100
AcDbEntity
  8
1
  6
CONTINUOUS
370
    50
100
AcDbPolyline
 90
       22
 70
   128
 43
0.0
 10
86.3773819077
 20
165.2298063161
 10
86.3388094958
 20
164.7553589675
 10
86.3944409252
 20
164.323068348
 10
86.5393330994
 20
163.9713453761
 10
86.7606117128
 20
163.7314421813
 10
87.0386151895
 20
163.6246752154
 10
87.3486417006
 20
163.6605311918
 10
87.6631440302
 20
163.8358241496
 10
87.954177266
 20
164.1349785403
 10
88.1958818278
 20
164.5314131835
 10
88.3667812047
 20
164.9899031213
 10
88.451690237
 20
165.4697095108
 10
88.4430643846
 20
165.9281994487
 10
88.3416700923
 20
166.3246340918
 10
88.156516688
 20
166.6237884825
 10
87.9040558641
 20
166.7990814404
 10
87.6067198728
 20
166.8349374167
 10
87.2909283218
 20
166.7281704508
 10
86.9847406761
 20
166.4882672561
 10
86.7153630518
 20
166.1365442842
 10
86.5067308329
 20
165.7042536646
 10
86.3773819077
 20
165.2298063161
  0
LINE
  5
134
330
A
100
AcDbEntity
  8
1
  6
CONTINUOUS
370
    50
100
AcDbLine
 10
80.1276187506
 20
148.8436618811
 30
0.0
 11
80.1276187506
 21
194.4184584497
 31
0.0
  0
LINE
  5
135
330
A
100
AcDbEntity
  8
1
  6
CONTINUOUS
370
    50
100
AcDbLine
 10
80.1744648571
 20
148.8436618811
 30
0.0
 11
80.1744648571
 21
194.2250117815
 31
0.0
  0
LWPOLYLINE
  5
136
330
A
100
AcDbEntity
  8
1
  6
CONTINUOUS
370
    50
100
AcDbPolyline
 90
        9
 70
   128
 43
0.0
 10
89.9607919439
 20
166.1058309049
 10
89.931669994
 20
166.1236844813
 10
89.9024935649
 20
166.14009076
 10
89.8732904428
 20
166.1550341165
 10
89.8440884391
 20
166.1685003197
 10
89.8149153643
 20
166.1804765449
 10
89.7857990013
 20
166.1909513867
 10
89.7567670791
 20
166.1999148693
 10
89.727847246
 20
166.2073584564
  0
LWPOLYLINE
  5
141
330
A
100
AcDbEntity
  8
1
  6
CONTINUOUS
370
    50
100
AcDbPolyline
 90
       24
 70
   128
 43
0.0
 10
86.1530115812
 20
165.2320047792
 10
86.105779582
 20
164.7056126519
 10
86.1538927387
 20
164.2182606205
 10
86.2937827187
 20
163.8060933559
 10
86.5150745221
 20
163.4996794184
 10
86.8013559481
 20
163.3217441281
 10
87.1313948131
 20
163.2854841313
 10
87.4807136443
 20
163.3935886663
 10
87.823405062
 20
163.6380401142
 10
88.1340532114
 20
164.0007086294
 10
88.3896187404
 20
164.4546967472
 10
88.5711475229
 20
164.9663342458
 10
88.6651763995
 20
165.4976753125
 10
88.6647316787
 20
166.0093128111
 10
88.5698463432
 20
166.4633009289
 10
88.3875576043
 20
166.8259694441
 10
88.131384984
 20
167.070420892
 10
87.8203276335
 20
167.178525427
 10
87.4774552536
 20
167.1422654303
 10
87.1281971201
 20
166.96433014
 10
86.798456111
 20
166.6579162025
 10
86.5126876085
 20
166.2457489378
 10
86.2920857552
 20
165.7583969065
 10
86.1530115812
 20
165.2320047792
  0
LWPOLYLINE
  5
15B
330
A
100
AcDbEntity
  8
1
  6
CONTINUOUS
370
    50
100
AcDbPolyline
 90
       24
 70
   128
 43
0.0
 10
86.1606720257
 20
165.2298063161
 10
86.1134400264
 20
164.7034141888
 10
86.1615531831
 20
164.2160621574
 10
86.3014431631
 20
163.8038948928
 10
86.5227349665
 20
163.4974809553
 10
86.8090163926
 20
163.319545665
 10
87.1390552576
 20
163.2832856682
 10
87.4883740887
 20
163.3913902032
 10
87.8310655064
 20
163.6358416511
 10
88.1417136558
 20
163.9985101663
 10
88.3972791849
 20
164.4524982841
 10
88.5788079674
 20
164.9641357827
 10
88.672836844
 20
165.4954768494
 10
88.6723921231
 20
166.007114348
 10
88.5775067876
 20
166.4611024658
 10
88.3952180488
 20
166.823770981
 10
88.1390454284
 20
167.0682224289
 10
87.827988078
 20
167.1763269639
 10
87.485115698
 20
167.1400669672
 10
87.1358575645
 20
166.9621316769
 10
86.8061165554
 20
166.6557177394
 10
86.5203480529
 20
166.2435504747
 10
86.2997461996
 20
165.7561984434
 10
86.1606720257
 20
165.2298063161
  0
LWPOLYLINE
  5
175
330
A
100
AcDbEntity
  8
1
  6
CONTINUOUS
370
    50
100
AcDbPolyline
 90
       22
 70
   128
 43
0.0
 10
86.3697214633
 20
165.2320047792
 10
86.3311490513
 20
164.7575574306
 10
86.3867804808
 20
164.3252668111
 10
86.531672655
 20
163.9735438392
 10
86.7529512683
 20
163.7336406444
 10
87.0309547451
 20
163.6268736785
 10
87.3409812562
 20
163.6627296549
 10
87.6554835858
 20
163.8380226127
 10
87.9465168215
 20
164.1371770035
 10
88.1882213834
 20
164.5336116466
 10
88.3591207603
 20
164.9921015844
 10
88.4440297926
 20
165.4719079739
 10
88.4354039402
 20
165.9303979118
 10
88.3340096479
 20
166.3268325549
 10
88.1488562436
 20
166.6259869456
 10
87.8963954197
 20
166.8012799035
 10
87.5990594284
 20
166.8371358798
 10
87.2832678773
 20
166.7303689139
 10
86.9770802317
 20
166.4904657192
 10
86.7077026073
 20
166.1387427473
 10
86.4990703885
 20
165.7064521277
 10
86.3697214633
 20
165.2320047792
  0
LWPOLYLINE
  5
18D
330
A
100
AcDbEntity
  8
1
  6
CONTINUOUS
370
    50
100
AcDbPolyline
 90
       21
 70
   128
 43
0.0
 10
71.6298801846
 20
169.4621767359
 10
71.5523363286
 20
169.0556128868
 10
71.6198163199
 20
168.6560865695
 10
71.8178826096
 20
168.3070797201
 10
72.1477261812
 20
168.0048227544
 10
72.7839109447
 20
167.7079293084
 10
73.7989840327
 20
167.5584905162
 10
75.1592343527
 20
167.7288625166
 10
75.9919157127
 20
168.073247207
 10
76.399533132
 20
168.3925026994
 10
76.6112283359
 20
168.7012266964
 10
76.6843151143
 20
168.9873643425
 10
76.6488322771
 20
169.2852823621
 10
76.5223323362
 20
169.5519252789
 10
76.1811060846
 20
169.9236070404
 10
75.4370996798
 20
170.3551327064
 10
74.1247035416
 20
170.6514317976
 10
73.0024633025
 20
170.548808474
 10
72.3133371608
 20
170.256013137
 10
71.8746580843
 20
169.8782538745
 10
71.6298801846
 20
169.4621767359
  0
LWPOLYLINE
  5
1A4
330
A
100
AcDbEntity
  8
1
  6
CONTINUOUS
370
    50
100
AcDbPolyline
 90
        9
 70
   128
 43
0.0
 10
89.727847246
 20
163.1438115413
 10
89.7567670791
 20
163.123003032
 10
89.7857990013
 20
163.103604917
 10
89.8149153643
 20
163.0856356702
 10
89.8440884391
 20
163.0691124044
 10
89.8732904428
 20
163.0540508555
 10
89.9024935649
 20
163.0404653675
 10
89.931669994
 20
163.0283688784
 10
89.9607919439
 20
163.0177729082
  0
LINE
  5
1AF
330
A
100
AcDbEntity
  8
1
  6
CONTINUOUS
370
    50
100
AcDbLine
 10
79.8744648571
 20
148.0936618811
 30
0.0
 11
82.5744648571
 21
148.0936618811
 31
0.0
  0
LINE
  5
1B0
330
A
100
AcDbEntity
  8
1
  6
CONTINUOUS
370
    50
100
AcDbLine
 10
82.5744648571
 20
196.9936618811
 30
0.0
 11
79.8744648571
 21
196.9936618811
 31
0.0
  0
LINE
  5
1B1
330
A
100
AcDbEntity
  8
1
  6
CONTINUOUS
370
    50
100
AcDbLine
 10
82.2638046853
 20
148.8436618811
 30
0.0
 11
79.8744648571
 21
148.8436618811
 31
0.0
  0
LINE
  5
1B2
330
A
100
AcDbEntity
  8
1
  6
CONTINUOUS
370
    50
100
AcDbLine
 10
79.8744648571
 20
196.2436618811
 30
0.0
 11
82.2638046853
 21
196.2436618811
 31
0.0
  0
LINE
  5
1B3
330
A
100
AcDbEntity
  8
1
  6
CONTINUOUS
370
    50
100
AcDbLine
 10
10.8957513032
 20
162.6284805114
 30
0.0
 11
10.8957513032
 21
180.2588432508
 31
0.0
  0
LINE
  5
1B4
330
A
100
AcDbEntity
  8
1
  6
CONTINUOUS
370
    50
100
AcDbLine
 10
81.7244648546
 20
140.9665803286
 30
0.0
 11
82.5744648571
 21
141.8165803311
 31
0.0
  0
LINE
  5
1B5
330
A
100
AcDbEntity
  8
1
  6
CONTINUOUS
370
    50
100
AcDbLine
 10
81.7244648546
 20
201.9207434335
 30
0.0
 11
82.5744648571
 21
201.0707434311
 31
0.0
  0
LINE
  5
1B6
330
A
100
AcDbEntity
  8
1
  6
CONTINUOUS
370
    50
100
AcDbLine
 10
11.3957513032
 20
162.917155646
 30
0.0
 11
11.3957513032
 21
179.9701681162
 31
0.0
  0
LINE
  5
1B7
330
A
100
AcDbEntity
  8
1
  6
CONTINUOUS
370
    50
100
AcDbLine
 10
16.5543686676
 20
179.9436618811
 30
0.0
 11
16.5543686676
 21
162.9436618811
 31
0.0
  0
LINE
  5
1B8
330
A
100
AcDbEntity
  8
1
  6
CONTINUOUS
370
    50
100
AcDbLine
 10
16.8141762888
 20
180.0936618811
 30
0.0
 11
16.8141762888
 21
162.7936618811
 31
0.0
  0
LINE
  5
1B9
330
A
100
AcDbEntity
  8
1
  6
CONTINUOUS
370
    50
100
AcDbLine
 10
20.0337915311
 20
178.5186618811
 30
0.0
 11
20.0337915311
 21
164.3686618811
 31
0.0
  0
LINE
  5
1BA
330
A
100
AcDbEntity
  8
1
  6
CONTINUOUS
370
    50
100
AcDbLine
 10
19.1244648571
 20
180.0936618811
 30
0.0
 11
19.1244648571
 21
162.7936618811
 31
0.0
  0
LINE
  5
1BB
330
A
100
AcDbEntity
  8
1
  6
CONTINUOUS
370
    50
100
AcDbLine
 10
11.6244648571
 20
179.9436618811
 30
0.0
 11
11.6244648571
 21
162.9436618811
 31
0.0
  0
LINE
  5
1BC
330
A
100
AcDbEntity
  8
1
  6
CONTINUOUS
370
    50
100
AcDbLine
 10
82.5744648571
 20
141.8165803311
 30
0.0
 11
87.0581270403
 21
141.8165803311
 31
0.0
  0
LINE
  5
1BD
330
A
100
AcDbEntity
  8
1
  6
CONTINUOUS
370
    50
100
AcDbLine
 10
92.8908026738
 20
141.8165803311
 30
0.0
 11
97.9244648571
 21
141.8165803311
 31
0.0
  0
LINE
  5
1BE
330
A
100
AcDbEntity
  8
1
  6
CONTINUOUS
370
    50
100
AcDbLine
 10
82.5744648571
 20
141.8165803311
 30
0.0
 11
82.5744648571
 21
148.0936618811
 31
0.0
  0
LINE
  5
1BF
330
A
100
AcDbEntity
  8
1
  6
CONTINUOUS
370
    50
100
AcDbLine
 10
82.5744648571
 20
148.0936618811
 30
0.0
 11
97.9244648571
 21
148.0936618811
 31
0.0
  0
LINE
  5
1C0
330
A
100
AcDbEntity
  8
1
  6
CONTINUOUS
370
    50
100
AcDbLine
 10
97.9244648571
 20
148.8436618811
 30
0.0
 11
82.2638046853
 21
148.8436618811
 31
0.0
  0
LINE
  5
1C1
330
A
100
AcDbEntity
  8
1
  6
CONTINUOUS
370
    50
100
AcDbLine
 10
82.5744648571
 20
148.0936618811
 30
0.0
 11
82.2638046853
 21
148.8436618811
 31
0.0
  0
LINE
  5
1C2
330
A
100
AcDbEntity
  8
1
  6
CONTINUOUS
370
    50
100
AcDbLine
 10
82.2638046853
 20
196.2436618811
 30
0.0
 11
97.9244648571
 21
196.2436618811
 31
0.0
  0
LINE
  5
1C3
330
A
100
AcDbEntity
  8
1
  6
CONTINUOUS
370
    50
100
AcDbLine
 10
82.5744648571
 20
196.9936618811
 30
0.0
 11
82.2638046853
 21
196.2436618811
 31
0.0
  0
LINE
  5
1C4
330
A
100
AcDbEntity
  8
1
  6
CONTINUOUS
370
    50
100
AcDbLine
 10
97.9244648571
 20
196.9936618811
 30
0.0
 11
82.5744648571
 21
196.9936618811
 31
0.0
  0
LINE
  5
1C5
330
A
100
AcDbEntity
  8
1
  6
CONTINUOUS
370
    50
100
AcDbLine
 10
92.8908026738
 20
201.0707434311
 30
0.0
 11
97.9244648571
 21
201.0707434311
 31
0.0
  0
LINE
  5
1C6
330
A
100
AcDbEntity
  8
1
  6
CONTINUOUS
370
    50
100
AcDbLine
 10
82.5744648571
 20
201.0707434311
 30
0.0
 11
87.0581270403
 21
201.0707434311
 31
0.0
  0
LINE
  5
1C7
330
A
100
AcDbEntity
  8
1
  6
CONTINUOUS
370
    50
100
AcDbLine
 10
82.5744648571
 20
201.0707434311
 30
0.0
 11
82.5744648571
 21
196.9936618811
 31
0.0
  0
LINE
  5
1C8
330
A
100
AcDbEntity
  8
1
  6
CONTINUOUS
370
    50
100
AcDbLine
 10
44.6144648571
 20
179.4436618811
 30
0.0
 11
44.6144648571
 21
163.4436618811
 31
0.0
  0
LINE
  5
1C9
330
A
100
AcDbEntity
  8
1
  6
CONTINUOUS
370
    50
100
AcDbLine
 10
44.6244648571
 20
179.4436618811
 30
0.0
 11
44.6244648571
 21
163.4436618811
 31
0.0
  0
LINE
  5
1CA
330
A
100
AcDbEntity
  8
1
  6
CONTINUOUS
370
    50
100
AcDbLine
 10
197.8112428327
 20
165.4436618811
 30
0.0
 11
197.8112428327
 21
177.4436618811
 31
0.0
  0
LINE
  5
1CB
330
A
100
AcDbEntity
  8
1
  6
CONTINUOUS
370
    50
100
AcDbLine
 10
55.6244648571
 20
178.5186618811
 30
0.0
 11
55.6244648571
 21
164.3686618811
 31
0.0
  0
LINE
  5
1CC
330
A
100
AcDbEntity
  8
1
  6
CONTINUOUS
370
    50
100
AcDbLine
 10
55.6426633688
 20
178.4686618811
 30
0.0
 11
55.6426633688
 21
164.4186618811
 31
0.0
  0
LINE
  5
1CD
330
A
100
AcDbEntity
  8
1
  6
CONTINUOUS
370
    50
100
AcDbLine
 10
89.6244648571
 20
178.4686618811
 30
0.0
 11
89.6244648571
 21
164.4186618811
 31
0.0
  0
LWPOLYLINE
  5
1CE
330
A
100
AcDbEntity
  8
1
  6
CONTINUOUS
370
    50
100
AcDbPolyline
 90
       21
 70
   128
 43
0.0
 10
71.6298801846
 20
173.4251470262
 10
71.5523363286
 20
173.8317108753
 10
71.6198163199
 20
174.2312371926
 10
71.8178826096
 20
174.5802440421
 10
72.1477261812
 20
174.8825010078
 10
72.7839109447
 20
175.1793944537
 10
73.7989840327
 20
175.328833246
 10
75.1592343527
 20
175.1584612455
 10
75.9919157127
 20
174.8140765551
 10
76.399533132
 20
174.4948210628
 10
76.6112283359
 20
174.1860970658
 10
76.6843151143
 20
173.8999594196
 10
76.6488322771
 20
173.6020414001
 10
76.5223323362
 20
173.3353984833
 10
76.1811060846
 20
172.9637167218
 10
75.4370996798
 20
172.5321910557
 10
74.1247035416
 20
172.2358919645
 10
73.0024633025
 20
172.3385152881
 10
72.3133371608
 20
172.6313106251
 10
71.8746580843
 20
173.0090698877
 10
71.6298801846
 20
173.4251470262
  0
LINE
  5
1E5
330
A
100
AcDbEntity
  8
1
  6
CONTINUOUS
370
    50
100
AcDbLine
 10
90.216248883
 20
165.4436618811
 30
0.0
 11
90.216248883
 21
177.4436618811
 31
0.0
  0
LINE
  5
1E6
330
A
100
AcDbEntity
  8
1
  6
CONTINUOUS
370
    50
100
AcDbLine
 10
161.7589948071
 20
165.2436618811
 30
0.0
 11
161.7589948071
 21
177.6436618811
 31
0.0
  0
LINE
  5
1E7
330
A
100
AcDbEntity
  8
1
  6
CONTINUOUS
370
    50
100
AcDbLine
 10
152.3744648571
 20
177.6436618811
 30
0.0
 11
152.3744648571
 21
165.2618539137
 31
0.0
  0
LINE
  5
1E8
330
A
100
AcDbEntity
  8
1
  6
CONTINUOUS
370
    50
100
AcDbLine
 10
151.8744648571
 20
165.74366192
 30
0.0
 11
151.8744648571
 21
177.1436618811
 31
0.0
  0
LINE
  5
1E9
330
A
100
AcDbEntity
  8
1
  6
CONTINUOUS
370
    50
100
AcDbLine
 10
161.8744648609
 20
177.4436618811
 30
0.0
 11
161.8744648609
 21
165.4436618811
 31
0.0
  0
LINE
  5
1EA
330
A
100
AcDbEntity
  8
1
  6
CONTINUOUS
370
    50
100
AcDbLine
 10
129.6244648571
 20
165.4436618811
 30
0.0
 11
129.6244648571
 21
177.4436618811
 31
0.0
  0
LINE
  5
1EB
330
A
100
AcDbEntity
  8
1
  6
CONTINUOUS
370
    50
100
AcDbLine
 10
130.4904902609
 20
166.9436618811
 30
0.0
 11
130.4904902609
 21
175.9436618811
 31
0.0
  0
LINE
  5
1EC
330
A
100
AcDbEntity
  8
1
  6
CONTINUOUS
370
    50
100
AcDbLine
 10
84.9744648571
 20
196.0436618811
 30
0.0
 11
94.9744648571
 21
196.0436618811
 31
0.0
  0
LINE
  5
1ED
330
A
100
AcDbEntity
  8
1
  6
CONTINUOUS
370
    50
100
AcDbLine
 10
94.6744648571
 20
191.5436618811
 30
0.0
 11
85.2744648571
 21
191.5436618811
 31
0.0
  0
LINE
  5
1EE
330
A
100
AcDbEntity
  8
1
  6
CONTINUOUS
370
    50
100
AcDbLine
 10
94.9744648571
 20
191.8436618811
 30
0.0
 11
84.9924774144
 21
191.8436618811
 31
0.0
  0
LINE
  5
1EF
330
A
100
AcDbEntity
  8
1
  6
CONTINUOUS
370
    50
100
AcDbLine
 10
88.8744648571
 20
191.1436618811
 30
0.0
 11
91.0744648571
 21
191.1436618811
 31
0.0
  0
LINE
  5
1F0
330
A
100
AcDbEntity
  8
1
  6
CONTINUOUS
370
    50
100
AcDbLine
 10
88.7244648571
 20
187.7336618811
 30
0.0
 11
91.2244648571
 21
187.7336618811
 31
0.0
  0
LINE
  5
1F1
330
A
100
AcDbEntity
  8
1
  6
CONTINUOUS
370
    50
100
AcDbLine
 10
88.7244648571
 20
187.7436618811
 30
0.0
 11
91.2244648571
 21
187.7436618811
 31
0.0
  0
LINE
  5
1F2
330
A
100
AcDbEntity
  8
1
  6
CONTINUOUS
370
    50
100
AcDbLine
 10
88.8744648571
 20
185.1436618811
 30
0.0
 11
91.0744648571
 21
185.1436618811
 31
0.0
  0
LWPOLYLINE
  5
1F3
330
A
100
AcDbEntity
  8
1
  6
CONTINUOUS
370
    50
100
AcDbPolyline
 90
       22
 70
   128
 43
0.0
 10
86.3697214633
 20
177.655318983
 10
86.3311490513
 20
178.1297663315
 10
86.3867804808
 20
178.5620569511
 10
86.531672655
 20
178.913779923
 10
86.7529512683
 20
179.1536831177
 10
87.0309547451
 20
179.2604500836
 10
87.3409812562
 20
179.2245941072
 10
87.6554835858
 20
179.0493011494
 10
87.9465168215
 20
178.7501467587
 10
88.1882213834
 20
178.3537121155
 10
88.3591207603
 20
177.8952221777
 10
88.4440297926
 20
177.4154157882
 10
88.4354039402
 20
176.9569258504
 10
88.3340096479
 20
176.5604912072
 10
88.1488562436
 20
176.2613368165
 10
87.8963954197
 20
176.0860438587
 10
87.5990594284
 20
176.0501878823
 10
87.2832678773
 20
176.1569548482
 10
86.9770802317
 20
176.396858043
 10
86.7077026073
 20
176.7485810149
 10
86.4990703885
 20
177.1808716344
 10
86.3697214633
 20
177.655318983
  0
LINE
  5
20B
330
A
100
AcDbEntity
  8
1
  6
CONTINUOUS
370
    50
100
AcDbLine
 10
91.3994648571
 20
144.6258040248
 30
0.0
 11
91.3994648571
 21
198.2615197374
 31
0.0
  0
LINE
  5
20C
330
A
100
AcDbEntity
  8
1
  6
CONTINUOUS
370
    50
100
AcDbLine
 10
91.8994648571
 20
189.7936618811
 30
0.0
 11
91.8994648571
 21
193.2502549208
 31
0.0
  0
LINE
  5
20D
330
A
100
AcDbEntity
  8
1
  6
CONTINUOUS
370
    50
100
AcDbLine
 10
88.5494648571
 20
144.6258040248
 30
0.0
 11
88.5494648571
 21
198.2615197374
 31
0.0
  0
LINE
  5
20E
330
A
100
AcDbEntity
  8
1
  6
CONTINUOUS
370
    50
100
AcDbLine
 10
88.0494648571
 20
189.7936618811
 30
0.0
 11
88.0494648571
 21
193.2502549208
 31
0.0
  0
LINE
  5
20F
330
A
100
AcDbEntity
  8
1
  6
CONTINUOUS
370
    50
100
AcDbLine
 10
86.452628215
 20
197.3538915211
 30
0.0
 11
86.452628215
 21
189.7936618811
 31
0.0
  0
LINE
  5
210
330
A
100
AcDbEntity
  8
1
  6
CONTINUOUS
370
    50
100
AcDbLine
 10
97.4244648571
 20
197.3538915211
 30
0.0
 11
97.4244648571
 21
189.7936618811
 31
0.0
  0
LINE
  5
211
330
A
100
AcDbEntity
  8
1
  6
CONTINUOUS
370
    50
100
AcDbLine
 10
93.4963014991
 20
197.3538915211
 30
0.0
 11
93.4963014991
 21
189.7936618811
 31
0.0
  0
LINE
  5
212
330
A
100
AcDbEntity
  8
1
  6
CONTINUOUS
370
    50
100
AcDbLine
 10
80.3744648571
 20
189.7936618811
 30
0.0
 11
80.3744648571
 21
197.3538915211
 31
0.0
  0
LWPOLYLINE
  5
213
330
A
100
AcDbEntity
  8
1
  6
CONTINUOUS
370
    50
100
AcDbPolyline
 90
       24
 70
   128
 43
0.0
 10
86.1530115812
 20
177.655318983
 10
86.105779582
 20
178.1817111103
 10
86.1538927387
 20
178.6690631416
 10
86.2937827187
 20
179.0812304063
 10
86.5150745221
 20
179.3876443437
 10
86.8013559481
 20
179.5655796341
 10
87.1313948131
 20
179.6018396308
 10
87.4807136443
 20
179.4937350958
 10
87.823405062
 20
179.2492836479
 10
88.1340532114
 20
178.8866151327
 10
88.3896187404
 20
178.4326270149
 10
88.5711475229
 20
177.9209895163
 10
88.6651763995
 20
177.3896484496
 10
88.6647316787
 20
176.878010951
 10
88.5698463432
 20
176.4240228332
 10
88.3875576043
 20
176.061354318
 10
88.131384984
 20
175.8169028701
 10
87.8203276335
 20
175.7087983351
 10
87.4774552536
 20
175.7450583318
 10
87.1281971201
 20
175.9229936222
 10
86.798456111
 20
176.2294075597
 10
86.5126876085
 20
176.6415748243
 10
86.2920857552
 20
177.1289268556
 10
86.1530115812
 20
177.655318983
  0
LWPOLYLINE
  5
22D
330
A
100
AcDbEntity
  8
1
  6
CONTINUOUS
370
    50
100
AcDbPolyline
 90
       24
 70
   128
 43
0.0
 10
86.1606720257
 20
177.6575174461
 10
86.1134400264
 20
178.1839095734
 10
86.1615531831
 20
178.6712616047
 10
86.3014431631
 20
179.0834288694
 10
86.5227349665
 20
179.3898428069
 10
86.8090163926
 20
179.5677780972
 10
87.1390552576
 20
179.6040380939
 10
87.4883740887
 20
179.4959335589
 10
87.8310655064
 20
179.251482111
 10
88.1417136558
 20
178.8888135958
 10
88.3972791849
 20
178.434825478
 10
88.5788079674
 20
177.9231879794
 10
88.672836844
 20
177.3918469127
 10
88.6723921231
 20
176.8802094141
 10
88.5775067876
 20
176.4262212963
 10
88.3952180488
 20
176.0635527811
 10
88.1390454284
 20
175.8191013332
 10
87.827988078
 20
175.7109967982
 10
87.485115698
 20
175.7472567949
 10
87.1358575645
 20
175.9251920853
 10
86.8061165554
 20
176.2316060228
 10
86.5203480529
 20
176.6437732874
 10
86.2997461996
 20
177.1311253187
 10
86.1606720257
 20
177.6575174461
  0
LWPOLYLINE
  5
247
330
A
100
AcDbEntity
  8
1
  6
CONTINUOUS
370
    50
100
AcDbPolyline
 90
       22
 70
   128
 43
0.0
 10
86.3773819077
 20
177.6575174461
 10
86.3388094958
 20
178.1319647946
 10
86.3944409252
 20
178.5642554142
 10
86.5393330994
 20
178.9159783861
 10
86.7606117128
 20
179.1558815808
 10
87.0386151895
 20
179.2626485467
 10
87.3486417006
 20
179.2267925703
 10
87.6631440302
 20
179.0514996125
 10
87.954177266
 20
178.7523452218
 10
88.1958818278
 20
178.3559105786
 10
88.3667812047
 20
177.8974206408
 10
88.451690237
 20
177.4176142513
 10
88.4430643846
 20
176.9591243135
 10
88.3416700923
 20
176.5626896703
 10
88.156516688
 20
176.2635352796
 10
87.9040558641
 20
176.0882423218
 10
87.6067198728
 20
176.0523863454
 10
87.2909283218
 20
176.1591533113
 10
86.9847406761
 20
176.3990565061
 10
86.7153630518
 20
176.750779478
 10
86.5067308329
 20
177.1830700975
 10
86.3773819077
 20
177.6575174461
  0
LWPOLYLINE
  5
25F
330
A
100
AcDbEntity
  8
1
  6
CONTINUOUS
370
    50
100
AcDbPolyline
 90
       22
 70
   128
 43
0.0
 10
96.55949672
 20
179.9932777347
 10
96.4301477948
 20
180.4677250833
 10
96.2215155759
 20
180.9000157028
 10
95.9521379516
 20
181.2517386748
 10
95.6459503059
 20
181.4916418695
 10
95.3301587548
 20
181.5984088354
 10
95.0328227635
 20
181.562552859
 10
94.7803619397
 20
181.3872599012
 10
94.5952085353
 20
181.0881055105
 10
94.493814243
 20
180.6916708673
 10
94.4851883906
 20
180.2331809295
 10
94.5700974229
 20
179.75337454
 10
94.7409967998
 20
179.2948846022
 10
94.9827013617
 20
178.898449959
 10
95.2737345975
 20
178.5992955683
 10
95.588236927
 20
178.4240026105
 10
95.8982634382
 20
178.3881466341
 10
96.1762669149
 20
178.4949136
 10
96.3975455283
 20
178.7348167947
 10
96.5424377024
 20
179.0865397667
 10
96.5980691319
 20
179.5188303862
 10
96.55949672
 20
179.9932777347
  0
ARC
  5
277
330
A
100
AcDbEntity
  8
1
  6
CONTINUOUS
370
    50
100
AcDbCircle
 10
91.2858117463
 20
176.9663611696
 30
0.0
 40
1.584069435
100
AcDbArc
 50
187.0718338961
 51
190.4162179429
  0
ARC
  5
278
330
A
100
AcDbEntity
  8
1
  6
CONTINUOUS
370
    50
100
AcDbCircle
 10
85.4877756373
 20
186.7263785496
 30
0.0
 40
10.9045232043
100
AcDbArc
 50
292.8820937122
 51
294.2172889971
  0
ARC
  5
279
330
A
100
AcDbEntity
  8
1
  6
CONTINUOUS
370
    50
100
AcDbCircle
 10
89.6434035855
 20
181.4936359307
 30
0.0
 40
4.7228198901
100
AcDbArc
 50
270.8539739894
 51
273.853360867
  0
LWPOLYLINE
  5
27A
330
A
100
AcDbEntity
  8
1
  6
CONTINUOUS
370
    50
100
AcDbPolyline
 90
       18
 70
   128
 43
0.0
 10
89.7137929938
 20
179.8723262639
 10
89.6971234751
 20
179.9765076712
 10
89.6810216169
 20
180.0243411321
 10
89.6660357487
 20
180.0141977355
 10
89.6526761961
 20
179.9464229026
 10
89.6413979028
 20
179.823324624
 10
89.6325849375
 20
179.6490948639
 10
89.6265374151
 20
179.4296668079
 10
89.6234612769
 20
179.1725128153
 10
89.6234612769
 20
178.8863899567
 10
89.6265374151
 20
178.5810418031
 10
89.6325849375
 20
178.2668666196
 10
89.6413979028
 20
177.9545632652
 10
89.6526761961
 20
177.6547668561
 10
89.6660357487
 20
177.3776865994
 10
89.6810216169
 20
177.132758131
 10
89.6971234751
 20
176.9283221961
 10
89.7137929938
 20
176.7713406153
  0
ARC
  5
28E
330
A
100
AcDbEntity
  8
1
  6
CONTINUOUS
370
    50
100
AcDbCircle
 10
89.7843205509
 20
175.1566769764
 30
0.0
 40
4.7161766654
100
AcDbArc
 50
87.8555877572
 51
90.85685551630002
  0
ARC
  5
28F
330
A
100
AcDbEntity
  8
1
  6
CONTINUOUS
370
    50
100
AcDbCircle
 10
95.7341881411
 20
168.9208719985
 30
0.0
 40
12.377627896
100
AcDbArc
 50
117.8033277305
 51
119.0293663288
  0
ARC
  5
290
330
A
100
AcDbEntity
  8
1
  6
CONTINUOUS
370
    50
100
AcDbCircle
 10
85.4584977163
 20
179.3428786854
 30
0.0
 40
4.2881059499
100
AcDbArc
 50
5.360907102300001
 51
7.0923433098
  0
LWPOLYLINE
  5
291
330
A
100
AcDbEntity
  8
1
  6
CONTINUOUS
370
    50
100
AcDbPolyline
 90
       18
 70
   128
 43
0.0
 10
89.7137929938
 20
176.7713406153
 10
89.2162283923
 20
176.7903106087
 10
88.7356077565
 20
176.8614347752
 10
88.2882980458
 20
176.9822910667
 10
87.8895318558
 20
177.1487638671
 10
87.552888691
 20
177.3551841449
 10
87.2898325304
 20
177.594522505
 10
87.1093214362
 20
177.8586285667
 10
87.0175024972
 20
178.1385085148
 10
87.0175024972
 20
178.4246313733
 10
87.1093214362
 20
178.7072535714
 10
87.2898325304
 20
178.9767507493
 10
87.552888691
 20
179.2239455036
 10
87.8895318558
 20
179.4404199136
 10
88.2882980458
 20
179.6188022028
 10
88.7356077565
 20
179.7530177763
 10
89.2162283923
 20
179.8384960837
 10
89.7137929938
 20
179.8723262639
  0
LWPOLYLINE
  5
2A5
330
A
100
AcDbEntity
  8
1
  6
CONTINUOUS
370
    50
100
AcDbPolyline
 90
        9
 70
   128
 43
0.0
 10
89.727847246
 20
179.7435122209
 10
89.7567670791
 20
179.7643207302
 10
89.7857990013
 20
179.7837188451
 10
89.8149153643
 20
179.801688092
 10
89.8440884391
 20
179.8182113578
 10
89.8732904428
 20
179.8332729066
 10
89.9024935649
 20
179.8468583946
 10
89.931669994
 20
179.8589548838
 10
89.9607919439
 20
179.869550854
  0
LWPOLYLINE
  5
2B0
330
A
100
AcDbEntity
  8
1
  6
CONTINUOUS
370
    50
100
AcDbPolyline
 90
       17
 70
   128
 43
0.0
 10
97.9244648571
 20
157.5215072417
 10
96.8855192529
 20
158.3662583985
 10
95.9546041782
 20
159.3231497392
 10
95.1443872153
 20
160.3791602047
 10
94.465893527
 20
161.5199199563
 10
93.9283558297
 20
162.7299059148
 10
93.5390887573
 20
163.9926529942
 10
93.3033893266
 20
165.2909781523
 10
93.2244648571
 20
166.6072142127
 10
93.3033893266
 20
167.923450273
 10
93.5390887573
 20
169.2217754312
 10
93.9283558297
 20
170.4845225105
 10
94.465893527
 20
171.6945084691
 10
95.1443872153
 20
172.8352682206
 10
95.9546041782
 20
173.8912786862
 10
96.8855192529
 20
174.8481700268
 10
97.9244648571
 20
175.6929211837
  0
LWPOLYLINE
  5
2C3
330
A
100
AcDbEntity
  8
1
  6
CONTINUOUS
370
    50
100
AcDbPolyline
 90
       17
 70
   128
 43
0.0
 10
97.9244648571
 20
156.1718009156
 10
96.8855192529
 20
157.0165520725
 10
95.9546041782
 20
157.9734434131
 10
95.1443872153
 20
159.0294538787
 10
94.465893527
 20
160.1702136302
 10
93.9283558297
 20
161.3801995888
 10
93.5390887573
 20
162.6429466681
 10
93.3033893266
 20
163.9412718263
 10
93.2244648571
 20
165.2575078866
 10
93.3033893266
 20
166.573743947
 10
93.5390887573
 20
167.8720691051
 10
93.9283558297
 20
169.1348161845
 10
94.465893527
 20
170.344802143
 10
95.1443872153
 20
171.4855618946
 10
95.9546041782
 20
172.5415723601
 10
96.8855192529
 20
173.4984637008
 10
97.9244648571
 20
174.3432148576
  0
LWPOLYLINE
  5
2D6
330
A
100
AcDbEntity
  8
1
  6
CONTINUOUS
370
    50
100
AcDbPolyline
 90
        9
 70
   128
 43
0.0
 10
89.9607919439
 20
176.7814928572
 10
89.931669994
 20
176.7636392809
 10
89.9024935649
 20
176.7472330022
 10
89.8732904428
 20
176.7322896456
 10
89.8440884391
 20
176.7188234425
 10
89.8149153643
 20
176.7068472173
 10
89.7857990013
 20
176.6963723755
 10
89.7567670791
 20
176.6874088929
 10
89.727847246
 20
176.6799653057
  0
LWPOLYLINE
  5
2E1
330
A
100
AcDbEntity
  8
1
  6
CONTINUOUS
370
    50
100
AcDbPolyline
 90
       25
 70
   128
 43
0.0
 10
94.5252437908
 20
180.0758268604
 10
94.4757181195
 20
180.6060493776
 10
94.5181780629
 20
181.1001381064
 10
94.6497300459
 20
181.5244217166
 10
94.8614090183
 20
181.8499859813
 10
95.138789408
 20
182.0546442338
 10
95.4629681997
 20
182.1244493525
 10
95.8118531447
 20
182.0546442338
 10
96.1616683104
 20
181.8499859813
 10
96.4885743714
 20
181.5244217166
 10
96.7702932198
 20
181.1001381064
 10
96.9876261818
 20
180.6060493776
 10
97.125762375
 20
180.0758268604
 10
97.1752880463
 20
179.5456043432
 10
97.132828103
 20
179.0515156143
 10
97.00127612
 20
178.6272320041
 10
96.7895971476
 20
178.3016677395
 10
96.5122167579
 20
178.097009487
 10
96.1880379661
 20
178.0272043683
 10
95.8391530212
 20
178.097009487
 10
95.4893378555
 20
178.3016677395
 10
95.1624317945
 20
178.6272320041
 10
94.8807129461
 20
179.0515156143
 10
94.6633799841
 20
179.5456043432
 10
94.5252437908
 20
180.0758268604
  0
LWPOLYLINE
  5
2FC
330
A
100
AcDbEntity
  8
1
  6
CONTINUOUS
370
    50
100
AcDbPolyline
 90
       25
 70
   128
 43
0.0
 10
97.1172090355
 20
180.0748040481
 10
96.9796029029
 20
180.6029919784
 10
96.763103898
 20
181.0951847741
 10
96.4824660701
 20
181.5178403095
 10
96.1568144236
 20
181.8421553085
 10
95.80834158
 20
182.0460282398
 10
95.4607953876
 20
182.1155655
 10
95.1378605451
 20
182.0460282398
 10
94.8615445284
 20
181.8421553085
 10
94.6506778173
 20
181.5178403095
 10
94.5196306298
 20
181.0951847741
 10
94.4773336151
 20
180.6029919784
 10
94.5266692449
 20
180.0748040481
 10
94.6642753776
 20
179.5466161179
 10
94.8807743825
 20
179.0544233222
 10
95.1614122103
 20
178.6317677867
 10
95.4870638568
 20
178.3074527877
 10
95.8355367005
 20
178.1035798564
 10
96.1830828929
 20
178.0340425962
 10
96.5060177354
 20
178.1035798564
 10
96.7823337521
 20
178.3074527877
 10
96.9932004631
 20
178.6317677867
 10
97.1242476506
 20
179.0544233222
 10
97.1665446653
 20
179.5466161179
 10
97.1172090355
 20
180.0748040481
  0
LINE
  5
317
330
A
100
AcDbEntity
  8
1
  6
CONTINUOUS
370
    50
100
AcDbLine
 10
96.4744648571
 20
151.4436618811
 30
0.0
 11
96.4744648571
 21
191.4436618811
 31
0.0
  0
LINE
  5
318
330
A
100
AcDbEntity
  8
1
  6
CONTINUOUS
370
    50
100
AcDbLine
 10
94.4744648571
 20
151.4436618811
 30
0.0
 11
96.4744648571
 21
151.4436618811
 31
0.0
  0
LINE
  5
319
330
A
100
AcDbEntity
  8
1
  6
CONTINUOUS
370
    50
100
AcDbLine
 10
94.4744648571
 20
191.4436618811
 30
0.0
 11
94.4744648571
 21
151.4436618811
 31
0.0
  0
LINE
  5
31A
330
A
100
AcDbEntity
  8
1
  6
CONTINUOUS
370
    50
100
AcDbLine
 10
85.6744648571
 20
151.4436618811
 30
0.0
 11
85.6744648571
 21
191.4436618811
 31
0.0
  0
LINE
  5
31B
330
A
100
AcDbEntity
  8
1
  6
CONTINUOUS
370
    50
100
AcDbLine
 10
81.0744648571
 20
191.4436618811
 30
0.0
 11
81.0744648571
 21
151.4436618811
 31
0.0
  0
LINE
  5
31C
330
A
100
AcDbEntity
  8
1
  6
CONTINUOUS
370
    50
100
AcDbLine
 10
81.0744648571
 20
151.4436618811
 30
0.0
 11
85.6744648571
 21
151.4436618811
 31
0.0
  0
LINE
  5
31D
330
A
100
AcDbEntity
  8
1
  6
CONTINUOUS
370
    50
100
AcDbLine
 10
85.6744648571
 20
191.4436618811
 30
0.0
 11
81.0744648571
 21
191.4436618811
 31
0.0
  0
LINE
  5
31E
330
A
100
AcDbEntity
  8
1
  6
CONTINUOUS
370
    50
100
AcDbLine
 10
96.4744648571
 20
191.4436618811
 30
0.0
 11
94.4744648571
 21
191.4436618811
 31
0.0
  0
LINE
  5
31F
330
A
100
AcDbEntity
  8
1
  6
CONTINUOUS
370
    50
100
AcDbLine
 10
97.9244648571
 20
164.3938878814
 30
0.0
 11
96.4047958506
 21
164.8300161336
 31
0.0
  0
LINE
  5
320
330
A
100
AcDbEntity
  8
1
  6
CONTINUOUS
370
    50
100
AcDbLine
 10
95.2462103153
 20
160.7929776699
 30
0.0
 11
97.9244648571
 21
160.0243481412
 31
0.0
  0
LINE
  5
321
330
A
100
AcDbEntity
  8
1
  6
CONTINUOUS
370
    50
100
AcDbLine
 10
79.8744648571
 20
160.5124613496
 30
0.0
 11
89.676956864
 21
162.8600119573
 31
0.0
  0
LINE
  5
322
330
A
100
AcDbEntity
  8
1
  6
CONTINUOUS
370
    50
100
AcDbLine
 10
88.6142798883
 20
165.9988299975
 30
0.0
 11
79.8744648571
 21
163.905774673
 31
0.0
  0
LINE
  5
323
330
A
100
AcDbEntity
  8
1
  6
CONTINUOUS
370
    50
100
AcDbLine
 10
94.9725664537
 20
163.9902812628
 30
0.0
 11
94.8679294694
 21
163.8229946932
 31
0.0
  0
LINE
  5
324
330
A
100
AcDbEntity
  8
1
  6
CONTINUOUS
370
    50
100
AcDbLine
 10
94.477264863
 20
162.4617416875
 30
0.0
 11
94.477264863
 21
162.2644254569
 31
0.0
  0
LINE
  5
325
330
A
100
AcDbEntity
  8
1
  6
CONTINUOUS
370
    50
100
AcDbLine
 10
95.9930230222
 20
164.4800254239
 30
0.0
 11
87.8541728118
 21
166.8157857125
 31
0.0
  0
LINE
  5
326
330
A
100
AcDbEntity
  8
1
  6
CONTINUOUS
370
    50
100
AcDbLine
 10
89.6748608636
 20
162.8600585168
 30
0.0
 11
95.0827058159
 21
161.3080666309
 31
0.0
  0
LINE
  5
327
330
A
100
AcDbEntity
  8
1
  6
CONTINUOUS
370
    50
100
AcDbLine
 10
86.9438556055
 20
163.6438269196
 30
0.0
 11
88.5517168587
 21
163.1823884648
 31
0.0
  0
LINE
  5
328
330
A
100
AcDbEntity
  8
1
  6
CONTINUOUS
370
    50
100
AcDbLine
 10
80.1276187506
 20
194.4363209124
 30
0.0
 11
79.8744648571
 21
194.979211189
 31
0.0
  0
ARC
  5
329
330
A
100
AcDbEntity
  8
1
  6
CONTINUOUS
370
    50
100
AcDbCircle
 10
79.6744648571
 20
194.2250117815
 30
0.0
 40
0.5
100
AcDbArc
 50
0.0
 51
25.0
  0
ARC
  5
32A
330
A
100
AcDbEntity
  8
1
  6
CONTINUOUS
370
    50
100
AcDbCircle
 10
79.6744648571
 20
149.0186618811
 30
0.0
 40
0.5
100
AcDbArc
 50
0.0
 51
66.4218215218
  0
ARC
  5
32B
330
A
100
AcDbEntity
  8
1
  6
CONTINUOUS
370
    50
100
AcDbCircle
 10
79.6744648571
 20
193.8686618811
 30
0.0
 40
0.5
100
AcDbArc
 50
293.5781784782001
 51
0.0
  0
LINE
  5
32C
330
A
100
AcDbEntity
  8
1
  6
CONTINUOUS
370
    50
100
AcDbLine
 10
87.8465123673
 20
166.8179841756
 30
0.0
 11
75.0248617074
 21
170.4976565707
 31
0.0
  0
LINE
  5
32D
330
A
100
AcDbEntity
  8
1
  6
CONTINUOUS
370
    50
100
AcDbLine
 10
72.8301288734
 20
167.6943109037
 30
0.0
 11
86.9361951611
 21
163.6460253827
 31
0.0
  0
ARC
  5
32E
330
A
100
AcDbEntity
  8
1
  6
CONTINUOUS
370
    50
100
AcDbCircle
 10
11.6244648571
 20
161.9436618811
 30
0.0
 40
1.0
100
AcDbArc
 50
136.778654881
 51
180.0
  0
ARC
  5
32F
330
A
100
AcDbEntity
  8
1
  6
CONTINUOUS
370
    50
100
AcDbCircle
 10
11.6244648571
 20
180.9436618811
 30
0.0
 40
1.0
100
AcDbArc
 50
180.0
 51
223.221345119
  0
LINE
  5
330
330
A
100
AcDbEntity
  8
1
  6
CONTINUOUS
370
    50
100
AcDbLine
 10
10.8957513032
 20
162.6284805114
 30
0.0
 11
11.3957513032
 21
162.917155646
 31
0.0
  0
LINE
  5
331
330
A
100
AcDbEntity
  8
1
  6
CONTINUOUS
370
    50
100
AcDbLine
 10
11.3957513032
 20
179.9701681162
 30
0.0
 11
10.8957513032
 21
180.2588432508
 31
0.0
  0
LINE
  5
332
330
A
100
AcDbEntity
  8
1
  6
CONTINUOUS
370
    50
100
AcDbLine
 10
16.8141762888
 20
180.0936618811
 30
0.0
 11
16.5543686676
 21
179.9436618811
 31
0.0
  0
LINE
  5
333
330
A
100
AcDbEntity
  8
1
  6
CONTINUOUS
370
    50
100
AcDbLine
 10
16.5543686676
 20
162.9436618811
 30
0.0
 11
16.8141762888
 21
162.7936618811
 31
0.0
  0
LINE
  5
334
330
A
100
AcDbEntity
  8
1
  6
CONTINUOUS
370
    50
100
AcDbLine
 10
19.1244648571
 20
162.7936618811
 30
0.0
 11
20.0337915311
 21
164.3686618811
 31
0.0
  0
LINE
  5
335
330
A
100
AcDbEntity
  8
1
  6
CONTINUOUS
370
    50
100
AcDbLine
 10
20.0337915311
 20
178.5186618811
 30
0.0
 11
19.1244648571
 21
180.0936618811
 31
0.0
  0
LINE
  5
336
330
A
100
AcDbEntity
  8
1
  6
CONTINUOUS
370
    50
100
AcDbLine
 10
19.1244648571
 20
180.0936618811
 30
0.0
 11
16.8141762888
 21
180.0936618811
 31
0.0
  0
LINE
  5
337
330
A
100
AcDbEntity
  8
1
  6
CONTINUOUS
370
    50
100
AcDbLine
 10
16.8141762888
 20
162.7936618811
 30
0.0
 11
19.1244648571
 21
162.7936618811
 31
0.0
  0
ARC
  5
338
330
A
100
AcDbEntity
  8
1
  6
CONTINUOUS
370
    50
100
AcDbCircle
 10
11.6244648571
 20
161.9436618811
 30
0.0
 40
1.0
100
AcDbArc
 50
90.0
 51
103.221345119
  0
ARC
  5
339
330
A
100
AcDbEntity
  8
1
  6
CONTINUOUS
370
    50
100
AcDbCircle
 10
11.6244648571
 20
180.9436618811
 30
0.0
 40
1.0
100
AcDbArc
 50
256.778654881
 51
270.0
  0
LINE
  5
33A
330
A
100
AcDbEntity
  8
1
  6
CONTINUOUS
370
    50
100
AcDbLine
 10
11.6244648571
 20
162.9436618811
 30
0.0
 11
16.5543686676
 21
162.9436618811
 31
0.0
  0
LINE
  5
33B
330
A
100
AcDbEntity
  8
1
  6
CONTINUOUS
370
    50
100
AcDbLine
 10
16.5543686676
 20
179.9436618811
 30
0.0
 11
11.6244648571
 21
179.9436618811
 31
0.0
  0
ARC
  5
33C
330
A
100
AcDbEntity
  8
1
  6
CONTINUOUS
370
    50
100
AcDbCircle
 10
197.3744648571
 20
164.0086618811
 30
0.0
 40
1.5
100
AcDbArc
 50
0.0
 51
73.0710674448
  0
ARC
  5
33D
330
A
100
AcDbEntity
  8
1
  6
CONTINUOUS
370
    50
100
AcDbCircle
 10
197.3744648571
 20
178.8786618811
 30
0.0
 40
1.5
100
AcDbArc
 50
286.9289325552
 51
0.0
  0
LINE
  5
33E
330
A
100
AcDbEntity
  8
1
  6
CONTINUOUS
370
    50
100
AcDbLine
 10
44.6144648571
 20
178.5186618811
 30
0.0
 11
20.0337915311
 21
178.5186618811
 31
0.0
  0
LINE
  5
33F
330
A
100
AcDbEntity
  8
1
  6
CONTINUOUS
370
    50
100
AcDbLine
 10
20.0337915311
 20
164.3686618811
 30
0.0
 11
44.6144648571
 21
164.3686618811
 31
0.0
  0
LINE
  5
340
330
A
100
AcDbEntity
  8
1
  6
CONTINUOUS
370
    50
100
AcDbLine
 10
55.6244648571
 20
178.5186618811
 30
0.0
 11
44.6244648571
 21
178.5186618811
 31
0.0
  0
LINE
  5
341
330
A
100
AcDbEntity
  8
1
  6
CONTINUOUS
370
    50
100
AcDbLine
 10
44.6244648571
 20
164.3686618811
 30
0.0
 11
55.6244648571
 21
164.3686618811
 31
0.0
  0
LINE
  5
342
330
A
100
AcDbEntity
  8
1
  6
CONTINUOUS
370
    50
100
AcDbLine
 10
89.6244648571
 20
178.4686618811
 30
0.0
 11
55.6426633688
 21
178.4686618811
 31
0.0
  0
LINE
  5
343
330
A
100
AcDbEntity
  8
1
  6
CONTINUOUS
370
    50
100
AcDbLine
 10
55.6426633688
 20
164.4186618811
 30
0.0
 11
89.6244648571
 21
164.4186618811
 31
0.0
  0
LINE
  5
344
330
A
100
AcDbEntity
  8
1
  6
CONTINUOUS
370
    50
100
AcDbLine
 10
89.6244648571
 20
164.4186618811
 30
0.0
 11
90.216248883
 21
165.4436618811
 31
0.0
  0
LINE
  5
345
330
A
100
AcDbEntity
  8
1
  6
CONTINUOUS
370
    50
100
AcDbLine
 10
90.216248883
 20
177.4436618811
 30
0.0
 11
89.6244648571
 21
178.4686618811
 31
0.0
  0
LINE
  5
346
330
A
100
AcDbEntity
  8
1
  6
CONTINUOUS
370
    50
100
AcDbLine
 10
152.3744648571
 20
165.2436618811
 30
0.0
 11
161.7589948071
 21
165.2436618811
 31
0.0
  0
LINE
  5
347
330
A
100
AcDbEntity
  8
1
  6
CONTINUOUS
370
    50
100
AcDbLine
 10
161.7589948071
 20
177.6436618811
 30
0.0
 11
152.3744648571
 21
177.6436618811
 31
0.0
  0
ARC
  5
348
330
A
100
AcDbEntity
  8
1
  6
CONTINUOUS
370
    50
100
AcDbCircle
 10
152.3744648571
 20
165.7436618811
 30
0.0
 40
0.5
100
AcDbArc
 50
180.0
 51
270.0
  0
ARC
  5
349
330
A
100
AcDbEntity
  8
1
  6
CONTINUOUS
370
    50
100
AcDbCircle
 10
152.3744648571
 20
177.1436618811
 30
0.0
 40
0.5
100
AcDbArc
 50
90.0
 51
180.0
  0
LINE
  5
34A
330
A
100
AcDbEntity
  8
1
  6
CONTINUOUS
370
    50
100
AcDbLine
 10
161.7589948071
 20
165.2436618811
 30
0.0
 11
161.8744648609
 21
165.4436618811
 31
0.0
  0
LINE
  5
34B
330
A
100
AcDbEntity
  8
1
  6
CONTINUOUS
370
    50
100
AcDbLine
 10
161.8744648609
 20
177.4436618811
 30
0.0
 11
161.7589948071
 21
177.6436618811
 31
0.0
  0
LINE
  5
34C
330
A
100
AcDbEntity
  8
1
  6
CONTINUOUS
370
    50
100
AcDbLine
 10
90.216248883
 20
165.4436618811
 30
0.0
 11
129.6244648571
 21
165.4436618811
 31
0.0
  0
LINE
  5
34D
330
A
100
AcDbEntity
  8
1
  6
CONTINUOUS
370
    50
100
AcDbLine
 10
129.6244648571
 20
177.4436618811
 30
0.0
 11
90.216248883
 21
177.4436618811
 31
0.0
  0
LINE
  5
34E
330
A
100
AcDbEntity
  8
1
  6
CONTINUOUS
370
    50
100
AcDbLine
 10
161.8744648609
 20
165.4436618811
 30
0.0
 11
197.8112428327
 21
165.4436618811
 31
0.0
  0
LINE
  5
34F
330
A
100
AcDbEntity
  8
1
  6
CONTINUOUS
370
    50
100
AcDbLine
 10
197.8112428327
 20
177.4436618811
 30
0.0
 11
161.8744648609
 21
177.4436618811
 31
0.0
  0
LINE
  5
350
330
A
100
AcDbEntity
  8
1
  6
CONTINUOUS
370
    50
100
AcDbLine
 10
129.6244648571
 20
165.4436618811
 30
0.0
 11
130.4904902609
 21
166.9436618811
 31
0.0
  0
LINE
  5
351
330
A
100
AcDbEntity
  8
1
  6
CONTINUOUS
370
    50
100
AcDbLine
 10
130.4904902609
 20
175.9436618811
 30
0.0
 11
129.6244648571
 21
177.4436618811
 31
0.0
  0
LINE
  5
352
330
A
100
AcDbEntity
  8
1
  6
CONTINUOUS
370
    50
100
AcDbLine
 10
84.7744648571
 20
196.2436618811
 30
0.0
 11
84.9744648571
 21
196.0436618811
 31
0.0
  0
LINE
  5
353
330
A
100
AcDbEntity
  8
1
  6
CONTINUOUS
370
    50
100
AcDbLine
 10
94.9744648571
 20
196.0436618811
 30
0.0
 11
95.1744648571
 21
196.2436618811
 31
0.0
  0
ARC
  5
354
330
A
100
AcDbEntity
  8
1
  6
CONTINUOUS
370
    50
100
AcDbCircle
 10
85.2744648571
 20
191.8436618811
 30
0.0
 40
0.3
100
AcDbArc
 50
180.0
 51
270.0
  0
ARC
  5
355
330
A
100
AcDbEntity
  8
1
  6
CONTINUOUS
370
    50
100
AcDbCircle
 10
94.6744648571
 20
191.8436618811
 30
0.0
 40
0.3
100
AcDbArc
 50
270.0
 51
0.0
  0
LINE
  5
356
330
A
100
AcDbEntity
  8
1
  6
CONTINUOUS
370
    50
100
AcDbLine
 10
84.9744648571
 20
196.0436618811
 30
0.0
 11
84.9744648571
 21
191.8436618811
 31
0.0
  0
LINE
  5
357
330
A
100
AcDbEntity
  8
1
  6
CONTINUOUS
370
    50
100
AcDbLine
 10
94.9744648571
 20
191.8436618811
 30
0.0
 11
94.9744648571
 21
196.0436618811
 31
0.0
  0
LINE
  5
358
330
A
100
AcDbEntity
  8
1
  6
CONTINUOUS
370
    50
100
AcDbLine
 10
130.4904902609
 20
166.9436618811
 30
0.0
 11
151.8744648571
 21
166.9436618811
 31
0.0
  0
LINE
  5
359
330
A
100
AcDbEntity
  8
1
  6
CONTINUOUS
370
    50
100
AcDbLine
 10
151.8744648571
 20
175.9436618811
 30
0.0
 11
130.4904902609
 21
175.9436618811
 31
0.0
  0
LINE
  5
35A
330
A
100
AcDbEntity
  8
1
  6
CONTINUOUS
370
    50
100
AcDbLine
 10
88.4744648571
 20
191.5436618811
 30
0.0
 11
88.8744648571
 21
191.1436618811
 31
0.0
  0
LINE
  5
35B
330
A
100
AcDbEntity
  8
1
  6
CONTINUOUS
370
    50
100
AcDbLine
 10
91.0744648571
 20
191.1436618811
 30
0.0
 11
91.4744648571
 21
191.5436618811
 31
0.0
  0
LINE
  5
35C
330
A
100
AcDbEntity
  8
1
  6
CONTINUOUS
370
    50
100
AcDbLine
 10
88.8744648571
 20
185.1436618811
 30
0.0
 11
89.9744648571
 21
184.7432946234
 31
0.0
  0
LINE
  5
35D
330
A
100
AcDbEntity
  8
1
  6
CONTINUOUS
370
    50
100
AcDbLine
 10
89.9744648571
 20
184.7432946234
 30
0.0
 11
91.0744648571
 21
185.1436618811
 31
0.0
  0
LINE
  5
35E
330
A
100
AcDbEntity
  8
1
  6
CONTINUOUS
370
    50
100
AcDbLine
 10
88.8744648571
 20
187.7336618811
 30
0.0
 11
88.8744648571
 21
185.1436618811
 31
0.0
  0
LINE
  5
35F
330
A
100
AcDbEntity
  8
1
  6
CONTINUOUS
370
    50
100
AcDbLine
 10
91.0744648571
 20
185.1436618811
 30
0.0
 11
91.0744648571
 21
187.7336618811
 31
0.0
  0
LINE
  5
360
330
A
100
AcDbEntity
  8
1
  6
CONTINUOUS
370
    50
100
AcDbLine
 10
88.8744648571
 20
191.1436618811
 30
0.0
 11
88.8744648571
 21
187.7436618811
 31
0.0
  0
LINE
  5
361
330
A
100
AcDbEntity
  8
1
  6
CONTINUOUS
370
    50
100
AcDbLine
 10
91.0744648571
 20
187.7436618811
 30
0.0
 11
91.0744648571
 21
191.1436618811
 31
0.0
  0
LINE
  5
362
330
A
100
AcDbEntity
  8
1
  6
CONTINUOUS
370
    50
100
AcDbLine
 10
86.9361951611
 20
179.2412983794
 30
0.0
 11
72.8301288734
 21
175.1930128585
 31
0.0
  0
LINE
  5
363
330
A
100
AcDbEntity
  8
1
  6
CONTINUOUS
370
    50
100
AcDbLine
 10
75.0248617074
 20
172.3896671915
 30
0.0
 11
87.8465123673
 21
176.0693395865
 31
0.0
  0
LINE
  5
364
330
A
100
AcDbEntity
  8
1
  6
CONTINUOUS
370
    50
100
AcDbLine
 10
88.5517168587
 20
179.7049352973
 30
0.0
 11
86.9438556055
 21
179.2434968425
 31
0.0
  0
LINE
  5
365
330
A
100
AcDbEntity
  8
1
  6
CONTINUOUS
370
    50
100
AcDbLine
 10
95.0827058159
 20
181.5792571312
 30
0.0
 11
89.6748608636
 21
180.0272652453
 31
0.0
  0
LINE
  5
366
330
A
100
AcDbEntity
  8
1
  6
CONTINUOUS
370
    50
100
AcDbLine
 10
87.8541728118
 20
176.0715380496
 30
0.0
 11
95.9930230222
 21
178.4072983383
 31
0.0
  0
LINE
  5
367
330
A
100
AcDbEntity
  8
1
  6
CONTINUOUS
370
    50
100
AcDbLine
 10
79.8744648571
 20
178.9815490891
 30
0.0
 11
88.6142798883
 21
176.8884937647
 31
0.0
  0
LINE
  5
368
330
A
100
AcDbEntity
  8
1
  6
CONTINUOUS
370
    50
100
AcDbLine
 10
89.676956864
 20
180.0273118049
 30
0.0
 11
79.8744648571
 21
182.3748624126
 31
0.0
  0
LINE
  5
369
330
A
100
AcDbEntity
  8
1
  6
CONTINUOUS
370
    50
100
AcDbLine
 10
93.2244648571
 20
166.6072142127
 30
0.0
 11
93.2244648571
 21
165.2575078866
 31
0.0
  0
LINE
  5
36A
330
A
100
AcDbEntity
  8
1
  6
CONTINUOUS
370
    50
100
AcDbLine
 10
97.9244648571
 20
182.862975621
 30
0.0
 11
95.2462103153
 21
182.0943460922
 31
0.0
  0
LINE
  5
36B
330
A
100
AcDbEntity
  8
1
  6
CONTINUOUS
370
    50
100
AcDbLine
 10
96.4047958506
 20
178.0573076285
 30
0.0
 11
97.9244648571
 21
178.4934358808
 31
0.0
  0
LINE
  5
36C
330
A
100
AcDbEntity
  8
1
  6
CONTINUOUS
370
    50
100
AcDbLine
 10
94.477264863
 20
180.6228983052
 30
0.0
 11
94.477264863
 21
180.4255820746
 31
0.0
  0
LINE
  5
36D
330
A
100
AcDbEntity
  8
1
  6
CONTINUOUS
370
    50
100
AcDbLine
 10
94.8679294694
 20
179.064329069
 30
0.0
 11
94.9725664537
 21
178.8970424993
 31
0.0
  0
LINE
  5
36E
330
A
100
AcDbEntity
  8
1
  6
CONTINUOUS
370
    50
100
AcDbLine
 10
79.6744648571
 20
193.3686618811
 30
0.0
 11
79.6744648571
 21
149.5186618811
 31
0.0
  0
LINE
  5
36F
330
A
100
AcDbEntity
  8
1
  6
CONTINUOUS
370
    50
100
AcDbLine
 10
79.4173551337
 20
193.4155079876
 30
0.0
 11
79.4173551337
 21
149.4718157746
 31
0.0
  0
LINE
  5
370
330
A
100
AcDbEntity
  8
1
  6
CONTINUOUS
370
    50
100
AcDbLine
 10
79.6286642646
 20
193.3686618811
 30
0.0
 11
79.6286642646
 21
149.5186618811
 31
0.0
  0
LINE
  5
371
330
A
100
AcDbEntity
  8
1
  6
CONTINUOUS
370
    50
100
AcDbLine
 10
11.3769487508
 20
183.8232699188
 30
0.0
 11
11.3769487508
 21
159.0640538434
 31
0.0
  0
LINE
  5
372
330
A
100
AcDbEntity
  8
1
  6
CONTINUOUS
370
    50
100
AcDbLine
 10
86.1530115812
 20
177.655318983
 30
0.0
 11
86.107998963
 21
178.2888300647
 31
0.0
  0
LINE
  5
373
330
A
100
AcDbEntity
  8
1
  6
CONTINUOUS
370
    50
100
AcDbLine
 10
86.107998963
 20
178.2888300647
 30
0.0
 11
86.2020577507
 21
178.8536903907
 31
0.0
  0
LINE
  5
374
330
A
100
AcDbEntity
  8
1
  6
CONTINUOUS
370
    50
100
AcDbLine
 10
86.2020577507
 20
178.8536903907
 30
0.0
 11
86.4249952153
 21
179.2886885801
 31
0.0
  0
LINE
  5
375
330
A
100
AcDbEntity
  8
1
  6
CONTINUOUS
370
    50
100
AcDbLine
 10
86.4249952153
 20
179.2886885801
 30
0.0
 11
86.7526526233
 21
179.5466858293
 31
0.0
  0
LINE
  5
376
330
A
100
AcDbEntity
  8
1
  6
CONTINUOUS
370
    50
100
AcDbLine
 10
86.7526526233
 20
179.5466858293
 30
0.0
 11
87.1495232104
 21
179.5997241331
 31
0.0
  0
LINE
  5
377
330
A
100
AcDbEntity
  8
1
  6
CONTINUOUS
370
    50
100
AcDbLine
 10
87.1495232104
 20
179.5997241331
 30
0.0
 11
87.5725998904
 21
179.4420559683
 31
0.0
  0
LINE
  5
378
330
A
100
AcDbEntity
  8
1
  6
CONTINUOUS
370
    50
100
AcDbLine
 10
87.5725998904
 20
179.4420559683
 30
0.0
 11
87.9760357403
 21
179.0907671271
 31
0.0
  0
LINE
  5
379
330
A
100
AcDbEntity
  8
1
  6
CONTINUOUS
370
    50
100
AcDbLine
 10
87.9760357403
 20
179.0907671271
 30
0.0
 11
88.3161122257
 21
178.5839252062
 31
0.0
  0
LINE
  5
37A
330
A
100
AcDbEntity
  8
1
  6
CONTINUOUS
370
    50
100
AcDbLine
 10
88.3161122257
 20
178.5839252062
 30
0.0
 11
88.5559767828
 21
177.9764543922
 31
0.0
  0
LINE
  5
37B
330
A
100
AcDbEntity
  8
1
  6
CONTINUOUS
370
    50
100
AcDbLine
 10
88.5559767828
 20
177.9764543922
 30
0.0
 11
88.6696363648
 21
177.3341835737
 31
0.0
  0
LINE
  5
37C
330
A
100
AcDbEntity
  8
1
  6
CONTINUOUS
370
    50
100
AcDbLine
 10
88.6696363648
 20
177.3341835737
 30
0.0
 11
88.6447741925
 21
176.7267127597
 31
0.0
  0
LINE
  5
37D
330
A
100
AcDbEntity
  8
1
  6
CONTINUOUS
370
    50
100
AcDbLine
 10
88.6447741925
 20
176.7267127597
 30
0.0
 11
88.4840844679
 21
176.2198708388
 31
0.0
  0
LINE
  5
37E
330
A
100
AcDbEntity
  8
1
  6
CONTINUOUS
370
    50
100
AcDbLine
 10
88.4840844679
 20
176.2198708388
 30
0.0
 11
88.2049804161
 21
175.8685819976
 31
0.0
  0
LINE
  5
37F
330
A
100
AcDbEntity
  8
1
  6
CONTINUOUS
370
    50
100
AcDbLine
 10
88.2049804161
 20
175.8685819976
 30
0.0
 11
87.8377072919
 21
175.7109138328
 31
0.0
  0
LINE
  5
380
330
A
100
AcDbEntity
  8
1
  6
CONTINUOUS
370
    50
100
AcDbLine
 10
87.8377072919
 20
175.7109138328
 30
0.0
 11
87.422064837
 21
175.7639521366
 31
0.0
  0
LINE
  5
381
330
A
100
AcDbEntity
  8
1
  6
CONTINUOUS
370
    50
100
AcDbLine
 10
87.422064837
 20
175.7639521366
 30
0.0
 11
87.0030943609
 21
176.0219493858
 31
0.0
  0
LINE
  5
382
330
A
100
AcDbEntity
  8
1
  6
CONTINUOUS
370
    50
100
AcDbLine
 10
87.0030943609
 20
176.0219493858
 30
0.0
 11
86.6261978156
 21
176.4569475752
 31
0.0
  0
LINE
  5
383
330
A
100
AcDbEntity
  8
1
  6
CONTINUOUS
370
    50
100
AcDbLine
 10
86.6261978156
 20
176.4569475752
 30
0.0
 11
86.3322177899
 21
177.0218079013
 31
0.0
  0
LINE
  5
384
330
A
100
AcDbEntity
  8
1
  6
CONTINUOUS
370
    50
100
AcDbLine
 10
86.3322177899
 20
177.0218079013
 30
0.0
 11
86.1530115812
 21
177.655318983
 31
0.0
  0
LINE
  5
385
330
A
100
AcDbEntity
  8
1
  6
CONTINUOUS
370
    50
100
AcDbLine
 10
94.3272110203
 20
181.1189593834
 30
0.0
 11
94.2523879002
 21
180.5405308394
 31
0.0
  0
LINE
  5
386
330
A
100
AcDbEntity
  8
1
  6
CONTINUOUS
370
    50
100
AcDbLine
 10
94.2523879002
 20
180.5405308394
 30
0.0
 11
94.3168661072
 21
179.90279893
 31
0.0
  0
LINE
  5
387
330
A
100
AcDbEntity
  8
1
  6
CONTINUOUS
370
    50
100
AcDbLine
 10
94.3168661072
 20
179.90279893
 30
0.0
 11
94.5136584271
 21
179.274871803
 31
0.0
  0
LINE
  5
388
330
A
100
AcDbEntity
  8
1
  6
CONTINUOUS
370
    50
100
AcDbLine
 10
94.5136584271
 20
179.274871803
 30
0.0
 11
94.8214393583
 21
178.7247951059
 31
0.0
  0
LINE
  5
389
330
A
100
AcDbEntity
  8
1
  6
CONTINUOUS
370
    50
100
AcDbLine
 10
94.8214393583
 20
178.7247951059
 30
0.0
 11
95.2068560614
 21
178.3121781843
 31
0.0
  0
LINE
  5
38A
330
A
100
AcDbEntity
  8
1
  6
CONTINUOUS
370
    50
100
AcDbLine
 10
95.2068560614
 20
178.3121781843
 30
0.0
 11
95.6281426561
 21
178.0817344838
 31
0.0
  0
LINE
  5
38B
330
A
100
AcDbEntity
  8
1
  6
CONTINUOUS
370
    50
100
AcDbLine
 10
95.6281426561
 20
178.0817344838
 30
0.0
 11
96.039646203
 21
178.0584361553
 31
0.0
  0
LINE
  5
38C
330
A
100
AcDbEntity
  8
1
  6
CONTINUOUS
370
    50
100
AcDbLine
 10
96.039646203
 20
178.0584361553
 30
0.0
 11
96.3967739077
 21
178.244807934
 31
0.0
  0
LINE
  5
38D
330
A
100
AcDbEntity
  8
1
  6
CONTINUOUS
370
    50
100
AcDbLine
 10
96.3967739077
 20
178.244807934
 30
0.0
 11
96.660825442
 21
178.620653546
 31
0.0
  0
LINE
  5
38E
330
A
100
AcDbEntity
  8
1
  6
CONTINUOUS
370
    50
100
AcDbLine
 10
96.660825442
 20
178.620653546
 30
0.0
 11
96.8031867248
 21
179.1452442872
 31
0.0
  0
LINE
  5
38F
330
A
100
AcDbEntity
  8
1
  6
CONTINUOUS
370
    50
100
AcDbLine
 10
96.8031867248
 20
179.1452442872
 30
0.0
 11
96.8084307024
 21
179.7617326111
 31
0.0
  0
LINE
  5
390
330
A
100
AcDbEntity
  8
1
  6
CONTINUOUS
370
    50
100
AcDbLine
 10
96.8084307024
 20
179.7617326111
 30
0.0
 11
96.6759891082
 21
180.403312442
 31
0.0
  0
LINE
  5
391
330
A
100
AcDbEntity
  8
1
  6
CONTINUOUS
370
    50
100
AcDbLine
 10
96.6759891082
 20
180.403312442
 30
0.0
 11
96.4202140442
 21
181.0004586499
 31
0.0
  0
LINE
  5
392
330
A
100
AcDbEntity
  8
1
  6
CONTINUOUS
370
    50
100
AcDbLine
 10
96.4202140442
 20
181.0004586499
 30
0.0
 11
96.0688227072
 21
181.4884611777
 31
0.0
  0
LINE
  5
393
330
A
100
AcDbEntity
  8
1
  6
CONTINUOUS
370
    50
100
AcDbLine
 10
96.0688227072
 20
181.4884611777
 30
0.0
 11
95.659893801
 21
181.8144373793
 31
0.0
  0
LINE
  5
394
330
A
100
AcDbEntity
  8
1
  6
CONTINUOUS
370
    50
100
AcDbLine
 10
95.659893801
 20
181.8144373793
 30
0.0
 11
95.2377411178
 21
181.9430626752
 31
0.0
  0
LINE
  5
395
330
A
100
AcDbEntity
  8
1
  6
CONTINUOUS
370
    50
100
AcDbLine
 10
95.2377411178
 20
181.9430626752
 30
0.0
 11
94.8481114512
 21
181.8603985187
 31
0.0
  0
LINE
  5
396
330
A
100
AcDbEntity
  8
1
  6
CONTINUOUS
370
    50
100
AcDbLine
 10
94.8481114512
 20
181.8603985187
 30
0.0
 11
94.5332272213
 21
181.575402854
 31
0.0
  0
LINE
  5
397
330
A
100
AcDbEntity
  8
1
  6
CONTINUOUS
370
    50
100
AcDbLine
 10
94.5332272213
 20
181.575402854
 30
0.0
 11
94.3272110203
 21
181.1189593834
 31
0.0
  0
LINE
  5
398
330
A
100
AcDbEntity
  8
1
  6
CONTINUOUS
370
    50
100
AcDbLine
 10
88.6373563916
 20
177.6575174461
 30
0.0
 11
88.6823690099
 21
177.0240063644
 31
0.0
  0
LINE
  5
399
330
A
100
AcDbEntity
  8
1
  6
CONTINUOUS
370
    50
100
AcDbLine
 10
88.6823690099
 20
177.0240063644
 30
0.0
 11
88.5883102221
 21
176.4591460383
 31
0.0
  0
LINE
  5
39A
330
A
100
AcDbEntity
  8
1
  6
CONTINUOUS
370
    50
100
AcDbLine
 10
88.5883102221
 20
176.4591460383
 30
0.0
 11
88.3653727575
 21
176.0241478489
 31
0.0
  0
LINE
  5
39B
330
A
100
AcDbEntity
  8
1
  6
CONTINUOUS
370
    50
100
AcDbLine
 10
88.3653727575
 20
176.0241478489
 30
0.0
 11
88.0377153495
 21
175.7661505997
 31
0.0
  0
LINE
  5
39C
330
A
100
AcDbEntity
  8
1
  6
CONTINUOUS
370
    50
100
AcDbLine
 10
88.0377153495
 20
175.7661505997
 30
0.0
 11
87.6408447624
 21
175.7131122959
 31
0.0
  0
LINE
  5
39D
330
A
100
AcDbEntity
  8
1
  6
CONTINUOUS
370
    50
100
AcDbLine
 10
87.6408447624
 20
175.7131122959
 30
0.0
 11
87.2177680824
 21
175.8707804607
 31
0.0
  0
LINE
  5
39E
330
A
100
AcDbEntity
  8
1
  6
CONTINUOUS
370
    50
100
AcDbLine
 10
87.2177680824
 20
175.8707804607
 30
0.0
 11
86.8143322326
 21
176.2220693019
 31
0.0
  0
LINE
  5
39F
330
A
100
AcDbEntity
  8
1
  6
CONTINUOUS
370
    50
100
AcDbLine
 10
86.8143322326
 20
176.2220693019
 30
0.0
 11
86.4742557471
 21
176.7289112228
 31
0.0
  0
LINE
  5
3A0
330
A
100
AcDbEntity
  8
1
  6
CONTINUOUS
370
    50
100
AcDbLine
 10
86.4742557471
 20
176.7289112228
 30
0.0
 11
86.23439119
 21
177.3363820368
 31
0.0
  0
LINE
  5
3A1
330
A
100
AcDbEntity
  8
1
  6
CONTINUOUS
370
    50
100
AcDbLine
 10
86.23439119
 20
177.3363820368
 30
0.0
 11
86.120731608
 21
177.9786528553
 31
0.0
  0
LINE
  5
3A2
330
A
100
AcDbEntity
  8
1
  6
CONTINUOUS
370
    50
100
AcDbLine
 10
86.120731608
 20
177.9786528553
 30
0.0
 11
86.1455937803
 21
178.5861236693
 31
0.0
  0
LINE
  5
3A3
330
A
100
AcDbEntity
  8
1
  6
CONTINUOUS
370
    50
100
AcDbLine
 10
86.1455937803
 20
178.5861236693
 30
0.0
 11
86.3062835049
 21
179.0929655902
 31
0.0
  0
LINE
  5
3A4
330
A
100
AcDbEntity
  8
1
  6
CONTINUOUS
370
    50
100
AcDbLine
 10
86.3062835049
 20
179.0929655902
 30
0.0
 11
86.5853875567
 21
179.4442544315
 31
0.0
  0
LINE
  5
3A5
330
A
100
AcDbEntity
  8
1
  6
CONTINUOUS
370
    50
100
AcDbLine
 10
86.5853875567
 20
179.4442544315
 30
0.0
 11
86.952660681
 21
179.6019225962
 31
0.0
  0
LINE
  5
3A6
330
A
100
AcDbEntity
  8
1
  6
CONTINUOUS
370
    50
100
AcDbLine
 10
86.952660681
 20
179.6019225962
 30
0.0
 11
87.3683031358
 21
179.5488842924
 31
0.0
  0
LINE
  5
3A7
330
A
100
AcDbEntity
  8
1
  6
CONTINUOUS
370
    50
100
AcDbLine
 10
87.3683031358
 20
179.5488842924
 30
0.0
 11
87.787273612
 21
179.2908870432
 31
0.0
  0
LINE
  5
3A8
330
A
100
AcDbEntity
  8
1
  6
CONTINUOUS
370
    50
100
AcDbLine
 10
87.787273612
 20
179.2908870432
 30
0.0
 11
88.1641701573
 21
178.8558888538
 31
0.0
  0
LINE
  5
3A9
330
A
100
AcDbEntity
  8
1
  6
CONTINUOUS
370
    50
100
AcDbLine
 10
88.1641701573
 20
178.8558888538
 30
0.0
 11
88.4581501829
 21
178.2910285278
 31
0.0
  0
LINE
  5
3AA
330
A
100
AcDbEntity
  8
1
  6
CONTINUOUS
370
    50
100
AcDbLine
 10
88.4581501829
 20
178.2910285278
 30
0.0
 11
88.6373563916
 21
177.6575174461
 31
0.0
  0
LINE
  5
3AB
330
A
100
AcDbEntity
  8
1
  6
CONTINUOUS
370
    50
100
AcDbLine
 10
86.1530115812
 20
165.2320047792
 30
0.0
 11
86.107998963
 21
164.5984936975
 31
0.0
  0
LINE
  5
3AC
330
A
100
AcDbEntity
  8
1
  6
CONTINUOUS
370
    50
100
AcDbLine
 10
86.107998963
 20
164.5984936975
 30
0.0
 11
86.2020577507
 21
164.0336333714
 31
0.0
  0
LINE
  5
3AD
330
A
100
AcDbEntity
  8
1
  6
CONTINUOUS
370
    50
100
AcDbLine
 10
86.2020577507
 20
164.0336333714
 30
0.0
 11
86.4249952153
 21
163.598635182
 31
0.0
  0
LINE
  5
3AE
330
A
100
AcDbEntity
  8
1
  6
CONTINUOUS
370
    50
100
AcDbLine
 10
86.4249952153
 20
163.598635182
 30
0.0
 11
86.7526526233
 21
163.3406379328
 31
0.0
  0
LINE
  5
3AF
330
A
100
AcDbEntity
  8
1
  6
CONTINUOUS
370
    50
100
AcDbLine
 10
86.7526526233
 20
163.3406379328
 30
0.0
 11
87.1495232104
 21
163.287599629
 31
0.0
  0
LINE
  5
3B0
330
A
100
AcDbEntity
  8
1
  6
CONTINUOUS
370
    50
100
AcDbLine
 10
87.1495232104
 20
163.287599629
 30
0.0
 11
87.5725998904
 21
163.4452677938
 31
0.0
  0
LINE
  5
3B1
330
A
100
AcDbEntity
  8
1
  6
CONTINUOUS
370
    50
100
AcDbLine
 10
87.5725998904
 20
163.4452677938
 30
0.0
 11
87.9760357403
 21
163.796556635
 31
0.0
  0
LINE
  5
3B2
330
A
100
AcDbEntity
  8
1
  6
CONTINUOUS
370
    50
100
AcDbLine
 10
87.9760357403
 20
163.796556635
 30
0.0
 11
88.3161122257
 21
164.3033985559
 31
0.0
  0
LINE
  5
3B3
330
A
100
AcDbEntity
  8
1
  6
CONTINUOUS
370
    50
100
AcDbLine
 10
88.3161122257
 20
164.3033985559
 30
0.0
 11
88.5559767828
 21
164.9108693699
 31
0.0
  0
LINE
  5
3B4
330
A
100
AcDbEntity
  8
1
  6
CONTINUOUS
370
    50
100
AcDbLine
 10
88.5559767828
 20
164.9108693699
 30
0.0
 11
88.6696363648
 21
165.5531401884
 31
0.0
  0
LINE
  5
3B5
330
A
100
AcDbEntity
  8
1
  6
CONTINUOUS
370
    50
100
AcDbLine
 10
88.6696363648
 20
165.5531401884
 30
0.0
 11
88.6447741925
 21
166.1606110025
 31
0.0
  0
LINE
  5
3B6
330
A
100
AcDbEntity
  8
1
  6
CONTINUOUS
370
    50
100
AcDbLine
 10
88.6447741925
 20
166.1606110025
 30
0.0
 11
88.4840844679
 21
166.6674529234
 31
0.0
  0
LINE
  5
3B7
330
A
100
AcDbEntity
  8
1
  6
CONTINUOUS
370
    50
100
AcDbLine
 10
88.4840844679
 20
166.6674529234
 30
0.0
 11
88.2049804161
 21
167.0187417646
 31
0.0
  0
LINE
  5
3B8
330
A
100
AcDbEntity
  8
1
  6
CONTINUOUS
370
    50
100
AcDbLine
 10
88.2049804161
 20
167.0187417646
 30
0.0
 11
87.8377072919
 21
167.1764099293
 31
0.0
  0
LINE
  5
3B9
330
A
100
AcDbEntity
  8
1
  6
CONTINUOUS
370
    50
100
AcDbLine
 10
87.8377072919
 20
167.1764099293
 30
0.0
 11
87.422064837
 21
167.1233716255
 31
0.0
  0
LINE
  5
3BA
330
A
100
AcDbEntity
  8
1
  6
CONTINUOUS
370
    50
100
AcDbLine
 10
87.422064837
 20
167.1233716255
 30
0.0
 11
87.0030943609
 21
166.8653743763
 31
0.0
  0
LINE
  5
3BB
330
A
100
AcDbEntity
  8
1
  6
CONTINUOUS
370
    50
100
AcDbLine
 10
87.0030943609
 20
166.8653743763
 30
0.0
 11
86.6261978156
 21
166.4303761869
 31
0.0
  0
LINE
  5
3BC
330
A
100
AcDbEntity
  8
1
  6
CONTINUOUS
370
    50
100
AcDbLine
 10
86.6261978156
 20
166.4303761869
 30
0.0
 11
86.3322177899
 21
165.8655158609
 31
0.0
  0
LINE
  5
3BD
330
A
100
AcDbEntity
  8
1
  6
CONTINUOUS
370
    50
100
AcDbLine
 10
86.3322177899
 20
165.8655158609
 30
0.0
 11
86.1530115812
 21
165.2320047792
 31
0.0
  0
LINE
  5
3BE
330
A
100
AcDbEntity
  8
1
  6
CONTINUOUS
370
    50
100
AcDbLine
 10
94.3272110203
 20
161.7683643788
 30
0.0
 11
94.2523879002
 21
162.3467929228
 31
0.0
  0
LINE
  5
3BF
330
A
100
AcDbEntity
  8
1
  6
CONTINUOUS
370
    50
100
AcDbLine
 10
94.2523879002
 20
162.3467929228
 30
0.0
 11
94.3168661072
 21
162.9845248322
 31
0.0
  0
LINE
  5
3C0
330
A
100
AcDbEntity
  8
1
  6
CONTINUOUS
370
    50
100
AcDbLine
 10
94.3168661072
 20
162.9845248322
 30
0.0
 11
94.5136584271
 21
163.6124519592
 31
0.0
  0
LINE
  5
3C1
330
A
100
AcDbEntity
  8
1
  6
CONTINUOUS
370
    50
100
AcDbLine
 10
94.5136584271
 20
163.6124519592
 30
0.0
 11
94.8214393583
 21
164.1625286562
 31
0.0
  0
LINE
  5
3C2
330
A
100
AcDbEntity
  8
1
  6
CONTINUOUS
370
    50
100
AcDbLine
 10
94.8214393583
 20
164.1625286562
 30
0.0
 11
95.2068560614
 21
164.5751455779
 31
0.0
  0
LINE
  5
3C3
330
A
100
AcDbEntity
  8
1
  6
CONTINUOUS
370
    50
100
AcDbLine
 10
95.2068560614
 20
164.5751455779
 30
0.0
 11
95.6281426561
 21
164.8055892783
 31
0.0
  0
LINE
  5
3C4
330
A
100
AcDbEntity
  8
1
  6
CONTINUOUS
370
    50
100
AcDbLine
 10
95.6281426561
 20
164.8055892783
 30
0.0
 11
96.039646203
 21
164.8288876069
 31
0.0
  0
LINE
  5
3C5
330
A
100
AcDbEntity
  8
1
  6
CONTINUOUS
370
    50
100
AcDbLine
 10
96.039646203
 20
164.8288876069
 30
0.0
 11
96.3967739077
 21
164.6425158281
 31
0.0
  0
LINE
  5
3C6
330
A
100
AcDbEntity
  8
1
  6
CONTINUOUS
370
    50
100
AcDbLine
 10
96.3967739077
 20
164.6425158281
 30
0.0
 11
96.660825442
 21
164.2666702162
 31
0.0
  0
LINE
  5
3C7
330
A
100
AcDbEntity
  8
1
  6
CONTINUOUS
370
    50
100
AcDbLine
 10
96.660825442
 20
164.2666702162
 30
0.0
 11
96.8031867248
 21
163.7420794749
 31
0.0
  0
LINE
  5
3C8
330
A
100
AcDbEntity
  8
1
  6
CONTINUOUS
370
    50
100
AcDbLine
 10
96.8031867248
 20
163.7420794749
 30
0.0
 11
96.8084307024
 21
163.125591151
 31
0.0
  0
LINE
  5
3C9
330
A
100
AcDbEntity
  8
1
  6
CONTINUOUS
370
    50
100
AcDbLine
 10
96.8084307024
 20
163.125591151
 30
0.0
 11
96.6759891082
 21
162.4840113202
 31
0.0
  0
LINE
  5
3CA
330
A
100
AcDbEntity
  8
1
  6
CONTINUOUS
370
    50
100
AcDbLine
 10
96.6759891082
 20
162.4840113202
 30
0.0
 11
96.4202140442
 21
161.8868651122
 31
0.0
  0
LINE
  5
3CB
330
A
100
AcDbEntity
  8
1
  6
CONTINUOUS
370
    50
100
AcDbLine
 10
96.4202140442
 20
161.8868651122
 30
0.0
 11
96.0688227072
 21
161.3988625844
 31
0.0
  0
LINE
  5
3CC
330
A
100
AcDbEntity
  8
1
  6
CONTINUOUS
370
    50
100
AcDbLine
 10
96.0688227072
 20
161.3988625844
 30
0.0
 11
95.659893801
 21
161.0728863829
 31
0.0
  0
LINE
  5
3CD
330
A
100
AcDbEntity
  8
1
  6
CONTINUOUS
370
    50
100
AcDbLine
 10
95.659893801
 20
161.0728863829
 30
0.0
 11
95.2377411178
 21
160.944261087
 31
0.0
  0
LINE
  5
3CE
330
A
100
AcDbEntity
  8
1
  6
CONTINUOUS
370
    50
100
AcDbLine
 10
95.2377411178
 20
160.944261087
 30
0.0
 11
94.8481114512
 21
161.0269252434
 31
0.0
  0
LINE
  5
3CF
330
A
100
AcDbEntity
  8
1
  6
CONTINUOUS
370
    50
100
AcDbLine
 10
94.8481114512
 20
161.0269252434
 30
0.0
 11
94.5332272213
 21
161.3119209082
 31
0.0
  0
LINE
  5
3D0
330
A
100
AcDbEntity
  8
1
  6
CONTINUOUS
370
    50
100
AcDbLine
 10
94.5332272213
 20
161.3119209082
 30
0.0
 11
94.3272110203
 21
161.7683643788
 31
0.0
  0
LINE
  5
3D1
330
A
100
AcDbEntity
  8
1
  6
CONTINUOUS
370
    50
100
AcDbLine
 10
86.1606720257
 20
165.2298063161
 30
0.0
 11
86.1156594074
 21
164.5962952344
 31
0.0
  0
LINE
  5
3D2
330
A
100
AcDbEntity
  8
1
  6
CONTINUOUS
370
    50
100
AcDbLine
 10
86.1156594074
 20
164.5962952344
 30
0.0
 11
86.2097181951
 21
164.0314349083
 31
0.0
  0
LINE
  5
3D3
330
A
100
AcDbEntity
  8
1
  6
CONTINUOUS
370
    50
100
AcDbLine
 10
86.2097181951
 20
164.0314349083
 30
0.0
 11
86.4326556598
 21
163.5964367189
 31
0.0
  0
LINE
  5
3D4
330
A
100
AcDbEntity
  8
1
  6
CONTINUOUS
370
    50
100
AcDbLine
 10
86.4326556598
 20
163.5964367189
 30
0.0
 11
86.7603130678
 21
163.3384394697
 31
0.0
  0
LINE
  5
3D5
330
A
100
AcDbEntity
  8
1
  6
CONTINUOUS
370
    50
100
AcDbLine
 10
86.7603130678
 20
163.3384394697
 30
0.0
 11
87.1571836548
 21
163.2854011659
 31
0.0
  0
LINE
  5
3D6
330
A
100
AcDbEntity
  8
1
  6
CONTINUOUS
370
    50
100
AcDbLine
 10
87.1571836548
 20
163.2854011659
 30
0.0
 11
87.5802603348
 21
163.4430693307
 31
0.0
  0
LINE
  5
3D7
330
A
100
AcDbEntity
  8
1
  6
CONTINUOUS
370
    50
100
AcDbLine
 10
87.5802603348
 20
163.4430693307
 30
0.0
 11
87.9836961847
 21
163.7943581719
 31
0.0
  0
LINE
  5
3D8
330
A
100
AcDbEntity
  8
1
  6
CONTINUOUS
370
    50
100
AcDbLine
 10
87.9836961847
 20
163.7943581719
 30
0.0
 11
88.3237726702
 21
164.3012000928
 31
0.0
  0
LINE
  5
3D9
330
A
100
AcDbEntity
  8
1
  6
CONTINUOUS
370
    50
100
AcDbLine
 10
88.3237726702
 20
164.3012000928
 30
0.0
 11
88.5636372273
 21
164.9086709068
 31
0.0
  0
LINE
  5
3DA
330
A
100
AcDbEntity
  8
1
  6
CONTINUOUS
370
    50
100
AcDbLine
 10
88.5636372273
 20
164.9086709068
 30
0.0
 11
88.6772968093
 21
165.5509417253
 31
0.0
  0
LINE
  5
3DB
330
A
100
AcDbEntity
  8
1
  6
CONTINUOUS
370
    50
100
AcDbLine
 10
88.6772968093
 20
165.5509417253
 30
0.0
 11
88.6524346369
 21
166.1584125394
 31
0.0
  0
LINE
  5
3DC
330
A
100
AcDbEntity
  8
1
  6
CONTINUOUS
370
    50
100
AcDbLine
 10
88.6524346369
 20
166.1584125394
 30
0.0
 11
88.4917449123
 21
166.6652544603
 31
0.0
  0
LINE
  5
3DD
330
A
100
AcDbEntity
  8
1
  6
CONTINUOUS
370
    50
100
AcDbLine
 10
88.4917449123
 20
166.6652544603
 30
0.0
 11
88.2126408605
 21
167.0165433015
 31
0.0
  0
LINE
  5
3DE
330
A
100
AcDbEntity
  8
1
  6
CONTINUOUS
370
    50
100
AcDbLine
 10
88.2126408605
 20
167.0165433015
 30
0.0
 11
87.8453677363
 21
167.1742114662
 31
0.0
  0
LINE
  5
3DF
330
A
100
AcDbEntity
  8
1
  6
CONTINUOUS
370
    50
100
AcDbLine
 10
87.8453677363
 20
167.1742114662
 30
0.0
 11
87.4297252814
 21
167.1211731624
 31
0.0
  0
LINE
  5
3E0
330
A
100
AcDbEntity
  8
1
  6
CONTINUOUS
370
    50
100
AcDbLine
 10
87.4297252814
 20
167.1211731624
 30
0.0
 11
87.0107548053
 21
166.8631759132
 31
0.0
  0
LINE
  5
3E1
330
A
100
AcDbEntity
  8
1
  6
CONTINUOUS
370
    50
100
AcDbLine
 10
87.0107548053
 20
166.8631759132
 30
0.0
 11
86.63385826
 21
166.4281777238
 31
0.0
  0
LINE
  5
3E2
330
A
100
AcDbEntity
  8
1
  6
CONTINUOUS
370
    50
100
AcDbLine
 10
86.63385826
 20
166.4281777238
 30
0.0
 11
86.3398782343
 21
165.8633173978
 31
0.0
  0
LINE
  5
3E3
330
A
100
AcDbEntity
  8
1
  6
CONTINUOUS
370
    50
100
AcDbLine
 10
86.3398782343
 20
165.8633173978
 30
0.0
 11
86.1606720257
 21
165.2298063161
 31
0.0
  0
LINE
  5
3E4
330
A
100
AcDbEntity
  8
1
  6
CONTINUOUS
370
    50
100
AcDbLine
 10
44.5344648571
 20
179.4436618811
 30
0.0
 11
19.4997425321
 21
179.4436618811
 31
0.0
  0
LINE
  5
3E5
330
A
100
AcDbEntity
  8
1
  6
CONTINUOUS
370
    50
100
AcDbLine
 10
19.4997425321
 20
163.4436618811
 30
0.0
 11
44.5344648571
 21
163.4436618811
 31
0.0
  0
LINE
  5
3E6
330
A
100
AcDbEntity
  8
1
  6
CONTINUOUS
370
    50
100
AcDbLine
 10
44.5344648571
 20
179.4436618811
 30
0.0
 11
44.5344648571
 21
179.4163378251
 31
0.0
  0
LINE
  5
3E7
330
A
100
AcDbEntity
  8
1
  6
CONTINUOUS
370
    50
100
AcDbLine
 10
44.5344648571
 20
179.4163378251
 30
0.0
 11
44.5344648571
 21
163.4436618811
 31
0.0
  0
LINE
  5
3E8
330
A
100
AcDbEntity
  8
1
  6
CONTINUOUS
370
    50
100
AcDbLine
 10
44.5344648571
 20
178.5186618811
 30
0.0
 11
44.5344648571
 21
178.4111767336
 31
0.0
  0
LINE
  5
3E9
330
A
100
AcDbEntity
  8
1
  6
CONTINUOUS
370
    50
100
AcDbLine
 10
44.5344648571
 20
178.4111767336
 30
0.0
 11
44.5344648571
 21
171.4436618811
 31
0.0
  0
LINE
  5
3EA
330
A
100
AcDbEntity
  8
1
  6
CONTINUOUS
370
    50
100
AcDbLine
 10
151.8744648571
 20
176.4436618811
 30
0.0
 11
130.4904902609
 21
176.4436618811
 31
0.0
  0
LINE
  5
3EB
330
A
100
AcDbEntity
  8
1
  6
CONTINUOUS
370
    50
100
AcDbLine
 10
130.4904902609
 20
166.4436618811
 30
0.0
 11
151.8744648571
 21
166.4436618811
 31
0.0
  0
ENDSEC
  0
SECTION
  2
OBJECTS
  0
DICTIONARY
  5
19
330
0
100
AcDbDictionary
281
     1
  3
ACAD_GROUP
350
1A
  3
ACAD_LAYOUT
350
410
  3
ACAD_MATERIAL
350
424
  3
ACAD_MLEADERSTYLE
350
42C
  3
ACAD_MLINESTYLE
350
1B
  3
ACAD_SCALELIST
350
3EE
  3
ACAD_VISUALSTYLE
350
413
  3
ACDB_RECOMPOSE_DATA
350
459
  3
AcDbVariableDictionary
350
42A
  0
DICTIONARY
  5
430
330
7
100
AcDbDictionary
280
     1
281
     1
  3
ACAD_XREC_ROUNDTRIP
360
431
  0
DICTIONARY
  5
1A
102
{ACAD_REACTORS
330
19
102
}
330
19
100
AcDbDictionary
281
     1
  0
DICTIONARY
  5
410
102
{ACAD_REACTORS
330
19
102
}
330
19
100
AcDbDictionary
281
     1
  3
Layout1
350
412
  3
Model
350
411
  0
DICTIONARY
  5
424
102
{ACAD_REACTORS
330
19
102
}
330
19
100
AcDbDictionary
281
     1
  3
ByBlock
350
426
  3
ByLayer
350
425
  3
Global
350
427
  0
DICTIONARY
  5
42C
102
{ACAD_REACTORS
330
19
102
}
330
19
100
AcDbDictionary
281
     1
  0
DICTIONARY
  5
1B
102
{ACAD_REACTORS
330
19
102
}
330
19
100
AcDbDictionary
281
     1
  3
STANDARD
350
1C
  0
DICTIONARY
  5
3EE
102
{ACAD_REACTORS
330
19
102
}
330
19
100
AcDbDictionary
281
     1
  3
A0
350
3EF
  3
A1
350
3F0
  3
A2
350
3F1
  3
A3
350
3F2
  3
A4
350
3F3
  3
A5
350
3F4
  3
A6
350
3F5
  3
A7
350
3F6
  3
A8
350
3F7
  3
A9
350
3F8
  3
B0
350
3F9
  3
B1
350
3FA
  3
B2
350
3FB
  3
B3
350
3FC
  3
B4
350
3FD
  3
B5
350
3FE
  3
B6
350
3FF
  3
B7
350
400
  3
B8
350
401
  3
B9
350
402
  3
C0
350
403
  3
C1
350
404
  3
C2
350
405
  3
C3
350
406
  3
C4
350
407
  3
C5
350
408
  3
C6
350
409
  3
C7
350
40A
  3
C8
350
40B
  3
C9
350
40C
  3
D0
350
40D
  3
D1
350
40E
  3
D2
350
40F
  0
DICTIONARY
  5
413
102
{ACAD_REACTORS
330
19
102
}
330
19
100
AcDbDictionary
281
     1
  3
2dWireframe
350
418
  3
3D Hidden
350
41A
  3
3dWireframe
350
419
  3
Basic
350
41B
  3
Brighten
350
41F
  3
ColorChange
350
423
  3
Conceptual
350
41D
  3
Dim
350
41E
  3
Facepattern
350
422
  3
Flat
350
414
  3
FlatWithEdges
350
415
  3
Gouraud
350
416
  3
GouraudWithEdges
350
417
  3
Linepattern
350
421
  3
Realistic
350
41C
  3
Thicken
350
420
  0
XRECORD
  5
459
102
{ACAD_REACTORS
330
19
102
}
330
19
100
AcDbXrecord
280
     1
  0
DICTIONARY
  5
42A
102
{ACAD_REACTORS
330
19
102
}
330
19
100
AcDbDictionary
281
     1
  3
CANNOSCALE
350
432
  3
DIMASSOC
350
42E
  3
HIDETEXT
350
42F
  3
MSLTSCALE
350
42D
  0
XRECORD
  5
431
102
{ACAD_REACTORS
330
430
102
}
330
430
100
AcDbXrecord
280
     1
102
VTR_0.000_0.000_1.000_1.000_VISUALSTYLE
340
418
102
VTR_0.000_0.000_1.000_1.000_GRIDDISPLAY
 70
     3
102
VTR_0.000_0.000_1.000_1.000_GRIDMAJOR
 70
     5
102
VTR_0.000_0.000_1.000_1.000_DEFAULTLIGHTING
280
     1
102
VTR_0.000_0.000_1.000_1.000_DEFAULTLIGHTINGTYPE
 70
     1
102
VTR_0.000_0.000_1.000_1.000_BRIGHTNESS
141
0.0
102
VTR_0.000_0.000_1.000_1.000_CONTRAST
142
0.0
  0
LAYOUT
  5
412
102
{ACAD_REACTORS
330
410
102
}
330
410
100
AcDbPlotSettings
  1

  2
none_device
  4

  6

 40
0.0
 41
0.0
 42
0.0
 43
0.0
 44
0.0
 45
0.0
 46
0.0
 47
0.0
 48
0.0
 49
0.0
140
0.0
141
0.0
142
1.0
143
1.0
 70
   688
 72
     0
 73
     0
 74
     5
  7

 75
    16
147
1.0
148
0.0
149
0.0
100
AcDbLayout
  1
Layout1
 70
     1
 71
     1
 10
0.0
 20
0.0
 11
12.0
 21
9.0
 12
0.0
 22
0.0
 32
0.0
 14
1.000000000000000E+20
 24
1.000000000000000E+20
 34
1.000000000000000E+20
 15
-1.000000000000000E+20
 25
-1.000000000000000E+20
 35
-1.000000000000000E+20
146
0.0
 13
0.0
 23
0.0
 33
0.0
 16
1.0
 26
0.0
 36
0.0
 17
0.0
 27
1.0
 37
0.0
 76
     0
330
B
  0
LAYOUT
  5
411
102
{ACAD_REACTORS
330
410
102
}
330
410
100
AcDbPlotSettings
  1

  2
none_device
  4

  6

 40
0.0
 41
0.0
 42
0.0
 43
0.0
 44
0.0
 45
0.0
 46
0.0
 47
0.0
 48
0.0
 49
0.0
140
0.0
141
0.0
142
1.0
143
1.0
 70
  1712
 72
     0
 73
     0
 74
     0
  7

 75
     0
147
1.0
148
2667.54428576817
149
0.0
100
AcDbLayout
  1
Model
 70
     1
 71
     0
 10
0.0
 20
0.0
 11
0.0
 21
0.0
 12
0.0
 22
0.0
 32
0.0
 14
0.0
 24
0.0
 34
0.0
 15
210.0
 25
297.0
 35
0.0
146
0.0
 13
0.0
 23
0.0
 33
0.0
 16
1.0
 26
0.0
 36
0.0
 17
0.0
 27
1.0
 37
0.0
 76
     0
330
A
331
15
  0
MATERIAL
  5
426
102
{ACAD_REACTORS
330
424
102
}
102
{ACAD_XDICTIONARY
360
455
102
}
330
424
100
AcDbMaterial
  1
ByBlock
  0
MATERIAL
  5
425
102
{ACAD_REACTORS
330
424
102
}
102
{ACAD_XDICTIONARY
360
453
102
}
330
424
100
AcDbMaterial
  1
ByLayer
  0
MATERIAL
  5
427
102
{ACAD_REACTORS
330
424
102
}
102
{ACAD_XDICTIONARY
360
457
102
}
330
424
100
AcDbMaterial
  1
Global
  0
MLINESTYLE
  5
1C
102
{ACAD_REACTORS
330
1B
102
}
330
1B
100
AcDbMlineStyle
  2
STANDARD
 70
     0
  3

 62
     0
 51
90.0
 52
90.0
 71
     2
 49
0.5
 62
   256
  6
BYLAYER
 49
-0.5
 62
   256
  6
BYLAYER
  0
SCALE
  5
3EF
102
{ACAD_REACTORS
330
3EE
102
}
330
3EE
100
AcDbScale
 70
     0
300
1:1
140
1.0
141
1.0
290
     1
  0
SCALE
  5
3F0
102
{ACAD_REACTORS
330
3EE
102
}
330
3EE
100
AcDbScale
 70
     0
300
1:2
140
1.0
141
2.0
290
     0
  0
SCALE
  5
3F1
102
{ACAD_REACTORS
330
3EE
102
}
330
3EE
100
AcDbScale
 70
     0
300
1:4
140
1.0
141
4.0
290
     0
  0
SCALE
  5
3F2
102
{ACAD_REACTORS
330
3EE
102
}
330
3EE
100
AcDbScale
 70
     0
300
1:5
140
1.0
141
5.0
290
     0
  0
SCALE
  5
3F3
102
{ACAD_REACTORS
330
3EE
102
}
330
3EE
100
AcDbScale
 70
     0
300
1:8
140
1.0
141
8.0
290
     0
  0
SCALE
  5
3F4
102
{ACAD_REACTORS
330
3EE
102
}
330
3EE
100
AcDbScale
 70
     0
300
1:10
140
1.0
141
10.0
290
     0
  0
SCALE
  5
3F5
102
{ACAD_REACTORS
330
3EE
102
}
330
3EE
100
AcDbScale
 70
     0
300
1:16
140
1.0
141
16.0
290
     0
  0
SCALE
  5
3F6
102
{ACAD_REACTORS
330
3EE
102
}
330
3EE
100
AcDbScale
 70
     0
300
1:20
140
1.0
141
20.0
290
     0
  0
SCALE
  5
3F7
102
{ACAD_REACTORS
330
3EE
102
}
330
3EE
100
AcDbScale
 70
     0
300
1:30
140
1.0
141
30.0
290
     0
  0
SCALE
  5
3F8
102
{ACAD_REACTORS
330
3EE
102
}
330
3EE
100
AcDbScale
 70
     0
300
1:40
140
1.0
141
40.0
290
     0
  0
SCALE
  5
3F9
102
{ACAD_REACTORS
330
3EE
102
}
330
3EE
100
AcDbScale
 70
     0
300
1:50
140
1.0
141
50.0
290
     0
  0
SCALE
  5
3FA
102
{ACAD_REACTORS
330
3EE
102
}
330
3EE
100
AcDbScale
 70
     0
300
1:100
140
1.0
141
100.0
290
     0
  0
SCALE
  5
3FB
102
{ACAD_REACTORS
330
3EE
102
}
330
3EE
100
AcDbScale
 70
     0
300
2:1
140
2.0
141
1.0
290
     0
  0
SCALE
  5
3FC
102
{ACAD_REACTORS
330
3EE
102
}
330
3EE
100
AcDbScale
 70
     0
300
4:1
140
4.0
141
1.0
290
     0
  0
SCALE
  5
3FD
102
{ACAD_REACTORS
330
3EE
102
}
330
3EE
100
AcDbScale
 70
     0
300
8:1
140
8.0
141
1.0
290
     0
  0
SCALE
  5
3FE
102
{ACAD_REACTORS
330
3EE
102
}
330
3EE
100
AcDbScale
 70
     0
300
10:1
140
10.0
141
1.0
290
     0
  0
SCALE
  5
3FF
102
{ACAD_REACTORS
330
3EE
102
}
330
3EE
100
AcDbScale
 70
     0
300
100:1
140
100.0
141
1.0
290
     0
  0
SCALE
  5
400
102
{ACAD_REACTORS
330
3EE
102
}
330
3EE
100
AcDbScale
 70
     0
300
1/128" = 1'-0"
140
0.0078125
141
12.0
290
     0
  0
SCALE
  5
401
102
{ACAD_REACTORS
330
3EE
102
}
330
3EE
100
AcDbScale
 70
     0
300
1/64" = 1'-0"
140
0.015625
141
12.0
290
     0
  0
SCALE
  5
402
102
{ACAD_REACTORS
330
3EE
102
}
330
3EE
100
AcDbScale
 70
     0
300
1/32" = 1'-0"
140
0.03125
141
12.0
290
     0
  0
SCALE
  5
403
102
{ACAD_REACTORS
330
3EE
102
}
330
3EE
100
AcDbScale
 70
     0
300
1/16" = 1'-0"
140
0.0625
141
12.0
290
     0
  0
SCALE
  5
404
102
{ACAD_REACTORS
330
3EE
102
}
330
3EE
100
AcDbScale
 70
     0
300
3/32" = 1'-0"
140
0.09375
141
12.0
290
     0
  0
SCALE
  5
405
102
{ACAD_REACTORS
330
3EE
102
}
330
3EE
100
AcDbScale
 70
     0
300
1/8" = 1'-0"
140
0.125
141
12.0
290
     0
  0
SCALE
  5
406
102
{ACAD_REACTORS
330
3EE
102
}
330
3EE
100
AcDbScale
 70
     0
300
3/16" = 1'-0"
140
0.1875
141
12.0
290
     0
  0
SCALE
  5
407
102
{ACAD_REACTORS
330
3EE
102
}
330
3EE
100
AcDbScale
 70
     0
300
1/4" = 1'-0"
140
0.25
141
12.0
290
     0
  0
SCALE
  5
408
102
{ACAD_REACTORS
330
3EE
102
}
330
3EE
100
AcDbScale
 70
     0
300
3/8" = 1'-0"
140
0.375
141
12.0
290
     0
  0
SCALE
  5
409
102
{ACAD_REACTORS
330
3EE
102
}
330
3EE
100
AcDbScale
 70
     0
300
1/2" = 1'-0"
140
0.5
141
12.0
290
     0
  0
SCALE
  5
40A
102
{ACAD_REACTORS
330
3EE
102
}
330
3EE
100
AcDbScale
 70
     0
300
3/4" = 1'-0"
140
0.75
141
12.0
290
     0
  0
SCALE
  5
40B
102
{ACAD_REACTORS
330
3EE
102
}
330
3EE
100
AcDbScale
 70
     0
300
1" = 1'-0"
140
1.0
141
12.0
290
     0
  0
SCALE
  5
40C
102
{ACAD_REACTORS
330
3EE
102
}
330
3EE
100
AcDbScale
 70
     0
300
1-1/2" = 1'-0"
140
1.5
141
12.0
290
     0
  0
SCALE
  5
40D
102
{ACAD_REACTORS
330
3EE
102
}
330
3EE
100
AcDbScale
 70
     0
300
3" = 1'-0"
140
3.0
141
12.0
290
     0
  0
SCALE
  5
40E
102
{ACAD_REACTORS
330
3EE
102
}
330
3EE
100
AcDbScale
 70
     0
300
6" = 1'-0"
140
6.0
141
12.0
290
     0
  0
SCALE
  5
40F
102
{ACAD_REACTORS
330
3EE
102
}
330
3EE
100
AcDbScale
 70
     0
300
1'-0" = 1'-0"
140
12.0
141
12.0
290
     0
  0
VISUALSTYLE
  5
418
102
{ACAD_REACTORS
330
413
102
}
102
{ACAD_XDICTIONARY
360
43B
102
}
330
413
100
AcDbVisualStyle
  2
2dWireframe
 70
     4
 71
     0
 72
     2
 73
     0
 90
        0
 40
-0.6
 41
-30.0
 62
     5
 63
     7
 74
     1
 91
        4
 64
     7
 65
   257
 75
     1
175
     1
 42
1.0
 92
        0
 66
   257
 43
1.0
 76
     1
 77
     6
 78
     2
 67
     7
 79
     5
170
     0
171
     0
290
     0
174
     0
 93
        1
 44
0.0
173
     0
291
     0
 45
0.0
1001
ACAD
1000
AcDbSavedByObjectVersion
1070
     0
  0
VISUALSTYLE
  5
41A
102
{ACAD_REACTORS
330
413
102
}
102
{ACAD_XDICTIONARY
360
43F
102
}
330
413
100
AcDbVisualStyle
  2
3D Hidden
 70
     6
 71
     1
 72
     2
 73
     2
 90
        0
 40
-0.6
 41
-30.0
 62
     5
 63
     7
 74
     2
 91
        2
 64
     7
 65
   257
 75
     2
175
     1
 42
40.0
 92
        0
 66
   257
 43
1.0
 76
     1
 77
     6
 78
     2
 67
     7
 79
     3
170
     0
171
     0
290
     0
174
     0
 93
        1
 44
0.0
173
     0
291
     0
 45
0.0
1001
ACAD
1000
AcDbSavedByObjectVersion
1070
     0
  0
VISUALSTYLE
  5
419
102
{ACAD_REACTORS
330
413
102
}
102
{ACAD_XDICTIONARY
360
43D
102
}
330
413
100
AcDbVisualStyle
  2
3dWireframe
 70
     5
 71
     0
 72
     2
 73
     0
 90
        0
 40
-0.6
 41
-30.0
 62
     5
 63
     7
 74
     1
 91
        4
 64
     7
 65
   257
 75
     1
175
     1
 42
1.0
 92
        0
 66
   257
 43
1.0
 76
     1
 77
     6
 78
     2
 67
     7
 79
     5
170
     0
171
     0
290
     0
174
     0
 93
        1
 44
0.0
173
     0
291
     0
 45
0.0
1001
ACAD
1000
AcDbSavedByObjectVersion
1070
     0
  0
VISUALSTYLE
  5
41B
102
{ACAD_REACTORS
330
413
102
}
102
{ACAD_XDICTIONARY
360
441
102
}
330
413
100
AcDbVisualStyle
  2
Basic
 70
     7
 71
     1
 72
     0
 73
     1
 90
        0
 40
-0.6
 41
-30.0
 62
     5
 63
     7
 74
     0
 91
        4
 64
     7
 65
   257
 75
     1
175
     1
 42
1.0
 92
        8
 66
     7
 43
1.0
 76
     1
 77
     6
 78
     2
 67
     7
 79
     5
170
     0
171
     0
290
     0
174
     0
 93
        1
 44
0.0
173
     0
291
     1
 45
0.0
1001
ACAD
1000
AcDbSavedByObjectVersion
1070
     0
  0
VISUALSTYLE
  5
41F
102
{ACAD_REACTORS
330
413
102
}
102
{ACAD_XDICTIONARY
360
449
102
}
330
413
100
AcDbVisualStyle
  2
Brighten
 70
    12
 71
     2
 72
     2
 73
     0
 90
        0
 40
-0.6
 41
-30.0
 62
     5
 63
     7
 74
     1
 91
        4
 64
     7
 65
   257
 75
     1
175
     1
 42
1.0
 92
        8
 66
     7
 43
1.0
 76
     1
 77
     6
 78
     2
 67
     7
 79
     5
170
     0
171
     0
290
     0
174
     0
 93
        1
 44
50.0
173
     0
291
     1
 45
0.0
1001
ACAD
1000
AcDbSavedByObjectVersion
1070
     0
  0
VISUALSTYLE
  5
423
102
{ACAD_REACTORS
330
413
102
}
102
{ACAD_XDICTIONARY
360
451
102
}
330
413
100
AcDbVisualStyle
  2
ColorChange
 70
    16
 71
     2
 72
     2
 73
     3
 90
        0
 40
-0.6
 41
-30.0
 62
     5
 63
     8
 74
     1
 91
        4
 64
     7
 65
   257
 75
     1
175
     1
 42
1.0
 92
        8
 66
     8
 43
1.0
 76
     1
 77
     6
 78
     2
 67
     7
 79
     5
170
     0
171
     0
290
     0
174
     0
 93
        1
 44
0.0
173
     0
291
     1
 45
0.0
1001
ACAD
1000
AcDbSavedByObjectVersion
1070
     0
  0
VISUALSTYLE
  5
41D
102
{ACAD_REACTORS
330
413
102
}
102
{ACAD_XDICTIONARY
360
445
102
}
330
413
100
AcDbVisualStyle
  2
Conceptual
 70
     9
 71
     3
 72
     2
 73
     0
 90
        0
 40
-0.6
 41
-30.0
 62
     5
 63
     7
 74
     2
 91
        2
 64
     7
 65
   257
 75
     1
175
     1
 42
40.0
 92
        8
 66
     7
 43
1.0
 76
     1
 77
     6
 78
     2
 67
     7
 79
     3
170
     0
171
     0
290
     0
174
     0
 93
        1
 44
0.0
173
     0
291
     0
 45
0.0
1001
ACAD
1000
AcDbSavedByObjectVersion
1070
     0
  0
VISUALSTYLE
  5
41E
102
{ACAD_REACTORS
330
413
102
}
102
{ACAD_XDICTIONARY
360
447
102
}
330
413
100
AcDbVisualStyle
  2
Dim
 70
    11
 71
     2
 72
     2
 73
     0
 90
        0
 40
-0.6
 41
-30.0
 62
     5
 63
     7
 74
     1
 91
        4
 64
     7
 65
   257
 75
     1
175
     1
 42
1.0
 92
        8
 66
     7
 43
1.0
 76
     1
 77
     6
 78
     2
 67
     7
 79
     5
170
     0
171
     0
290
     0
174
     0
 93
        1
 44
-50.0
173
     0
291
     1
 45
0.0
1001
ACAD
1000
AcDbSavedByObjectVersion
1070
     0
  0
VISUALSTYLE
  5
422
102
{ACAD_REACTORS
330
413
102
}
102
{ACAD_XDICTIONARY
360
44F
102
}
330
413
100
AcDbVisualStyle
  2
Facepattern
 70
    15
 71
     2
 72
     2
 73
     0
 90
        0
 40
-0.6
 41
-30.0
 62
     5
 63
     7
 74
     1
 91
        4
 64
     7
 65
   257
 75
     1
175
     1
 42
1.0
 92
        8
 66
     7
 43
1.0
 76
     1
 77
     6
 78
     2
 67
     7
 79
     5
170
     0
171
     0
290
     0
174
     0
 93
        1
 44
0.0
173
     0
291
     1
 45
0.0
1001
ACAD
1000
AcDbSavedByObjectVersion
1070
     0
  0
VISUALSTYLE
  5
414
102
{ACAD_REACTORS
330
413
102
}
102
{ACAD_XDICTIONARY
360
433
102
}
330
413
100
AcDbVisualStyle
  2
Flat
 70
     0
 71
     2
 72
     1
 73
     1
 90
        2
 40
-0.6
 41
30.0
 62
     5
 63
     7
 74
     0
 91
        4
 64
     7
 65
   257
 75
     1
175
     1
 42
1.0
 92
        8
 66
     7
 43
1.0
 76
     1
 77
     6
 78
     2
 67
     7
 79
     5
170
     0
171
     0
290
     0
174
     0
 93
       13
 44
0.0
173
     0
291
     1
 45
0.0
1001
ACAD
1000
AcDbSavedByObjectVersion
1070
     0
  0
VISUALSTYLE
  5
415
102
{ACAD_REACTORS
330
413
102
}
102
{ACAD_XDICTIONARY
360
435
102
}
330
413
100
AcDbVisualStyle
  2
FlatWithEdges
 70
     1
 71
     2
 72
     1
 73
     1
 90
        2
 40
-0.6
 41
30.0
 62
     5
 63
     7
 74
     1
 91
        4
 64
     7
 65
   257
 75
     1
175
     1
 42
1.0
 92
        0
 66
   257
 43
1.0
 76
     1
 77
     6
 78
     2
 67
     7
 79
     5
170
     0
171
     0
290
     0
174
     0
 93
       13
 44
0.0
173
     0
291
     1
 45
0.0
1001
ACAD
1000
AcDbSavedByObjectVersion
1070
     0
  0
VISUALSTYLE
  5
416
102
{ACAD_REACTORS
330
413
102
}
102
{ACAD_XDICTIONARY
360
437
102
}
330
413
100
AcDbVisualStyle
  2
Gouraud
 70
     2
 71
     2
 72
     2
 73
     1
 90
        2
 40
-0.6
 41
30.0
 62
     5
 63
     7
 74
     0
 91
        4
 64
     7
 65
   257
 75
     1
175
     1
 42
1.0
 92
        0
 66
     7
 43
1.0
 76
     1
 77
     6
 78
     2
 67
     7
 79
     5
170
     0
171
     0
290
     0
174
     0
 93
       13
 44
0.0
173
     0
291
     1
 45
0.0
1001
ACAD
1000
AcDbSavedByObjectVersion
1070
     0
  0
VISUALSTYLE
  5
417
102
{ACAD_REACTORS
330
413
102
}
102
{ACAD_XDICTIONARY
360
439
102
}
330
413
100
AcDbVisualStyle
  2
GouraudWithEdges
 70
     3
 71
     2
 72
     2
 73
     1
 90
        2
 40
-0.6
 41
30.0
 62
     5
 63
     7
 74
     1
 91
        4
 64
     7
 65
   257
 75
     1
175
     1
 42
1.0
 92
        0
 66
   257
 43
1.0
 76
     1
 77
     6
 78
     2
 67
     7
 79
     5
170
     0
171
     0
290
     0
174
     0
 93
       13
 44
0.0
173
     0
291
     1
 45
0.0
1001
ACAD
1000
AcDbSavedByObjectVersion
1070
     0
  0
VISUALSTYLE
  5
421
102
{ACAD_REACTORS
330
413
102
}
102
{ACAD_XDICTIONARY
360
44D
102
}
330
413
100
AcDbVisualStyle
  2
Linepattern
 70
    14
 71
     2
 72
     2
 73
     0
 90
        0
 40
-0.6
 41
-30.0
 62
     5
 63
     7
 74
     1
 91
        4
 64
     7
 65
   257
 75
     7
175
     7
 42
1.0
 92
        8
 66
     7
 43
1.0
 76
     1
 77
     6
 78
     2
 67
     7
 79
     5
170
     0
171
     0
290
     0
174
     0
 93
        1
 44
0.0
173
     0
291
     1
 45
0.0
1001
ACAD
1000
AcDbSavedByObjectVersion
1070
     0
  0
VISUALSTYLE
  5
41C
102
{ACAD_REACTORS
330
413
102
}
102
{ACAD_XDICTIONARY
360
443
102
}
330
413
100
AcDbVisualStyle
  2
Realistic
 70
     8
 71
     2
 72
     2
 73
     0
 90
        0
 40
-0.6
 41
-30.0
 62
     5
 63
     7
 74
     1
 91
        0
 64
     7
 65
   257
 75
     1
175
     1
 42
1.0
 92
        8
 66
     8
 43
1.0
 76
     1
 77
     6
 78
     2
 67
     7
 79
     5
170
     0
171
     0
290
     0
174
     0
 93
       13
 44
0.0
173
     0
291
     0
 45
0.0
1001
ACAD
1000
AcDbSavedByObjectVersion
1070
     0
  0
VISUALSTYLE
  5
420
102
{ACAD_REACTORS
330
413
102
}
102
{ACAD_XDICTIONARY
360
44B
102
}
330
413
100
AcDbVisualStyle
  2
Thicken
 70
    13
 71
     2
 72
     2
 73
     0
 90
        0
 40
-0.6
 41
-30.0
 62
     5
 63
     7
 74
     1
 91
        4
 64
     7
 65
   257
 75
     1
175
     1
 42
1.0
 92
       12
 66
     7
 43
1.0
 76
     1
 77
     6
 78
     2
 67
     7
 79
     5
170
     0
171
     0
290
     0
174
     0
 93
        1
 44
0.0
173
     0
291
     1
 45
0.0
1001
ACAD
1000
AcDbSavedByObjectVersion
1070
     0
  0
DICTIONARYVAR
  5
432
102
{ACAD_REACTORS
330
42A
102
}
330
42A
100
DictionaryVariables
280
     0
  1
1:1
  0
DICTIONARYVAR
  5
42E
102
{ACAD_REACTORS
330
42A
102
}
330
42A
100
DictionaryVariables
280
     0
  1
2
  0
DICTIONARYVAR
  5
42F
102
{ACAD_REACTORS
330
42A
102
}
330
42A
100
DictionaryVariables
280
     0
  1
1
  0
DICTIONARYVAR
  5
42D
102
{ACAD_REACTORS
330
42A
102
}
330
42A
100
DictionaryVariables
280
     0
  1
0
  0
DICTIONARY
  5
455
330
426
100
AcDbDictionary
280
     1
281
     1
  3
ACAD_XREC_ROUNDTRIP
360
456
  0
DICTIONARY
  5
453
330
425
100
AcDbDictionary
280
     1
281
     1
  3
ACAD_XREC_ROUNDTRIP
360
454
  0
DICTIONARY
  5
457
330
427
100
AcDbDictionary
280
     1
281
     1
  3
ACAD_XREC_ROUNDTRIP
360
458
  0
DICTIONARY
  5
43B
330
418
100
AcDbDictionary
280
     1
281
     1
  3
ACAD_XREC_ROUNDTRIP
360
43C
  0
DICTIONARY
  5
43F
330
41A
100
AcDbDictionary
280
     1
281
     1
  3
ACAD_XREC_ROUNDTRIP
360
440
  0
DICTIONARY
  5
43D
330
419
100
AcDbDictionary
280
     1
281
     1
  3
ACAD_XREC_ROUNDTRIP
360
43E
  0
DICTIONARY
  5
441
330
41B
100
AcDbDictionary
280
     1
281
     1
  3
ACAD_XREC_ROUNDTRIP
360
442
  0
DICTIONARY
  5
449
330
41F
100
AcDbDictionary
280
     1
281
     1
  3
ACAD_XREC_ROUNDTRIP
360
44A
  0
DICTIONARY
  5
451
330
423
100
AcDbDictionary
280
     1
281
     1
  3
ACAD_XREC_ROUNDTRIP
360
452
  0
DICTIONARY
  5
445
330
41D
100
AcDbDictionary
280
     1
281
     1
  3
ACAD_XREC_ROUNDTRIP
360
446
  0
DICTIONARY
  5
447
330
41E
100
AcDbDictionary
280
     1
281
     1
  3
ACAD_XREC_ROUNDTRIP
360
448
  0
DICTIONARY
  5
44F
330
422
100
AcDbDictionary
280
     1
281
     1
  3
ACAD_XREC_ROUNDTRIP
360
450
  0
DICTIONARY
  5
433
330
414
100
AcDbDictionary
280
     1
281
     1
  3
ACAD_XREC_ROUNDTRIP
360
434
  0
DICTIONARY
  5
435
330
415
100
AcDbDictionary
280
     1
281
     1
  3
ACAD_XREC_ROUNDTRIP
360
436
  0
DICTIONARY
  5
437
330
416
100
AcDbDictionary
280
     1
281
     1
  3
ACAD_XREC_ROUNDTRIP
360
438
  0
DICTIONARY
  5
439
330
417
100
AcDbDictionary
280
     1
281
     1
  3
ACAD_XREC_ROUNDTRIP
360
43A
  0
DICTIONARY
  5
44D
330
421
100
AcDbDictionary
280
     1
281
     1
  3
ACAD_XREC_ROUNDTRIP
360
44E
  0
DICTIONARY
  5
443
330
41C
100
AcDbDictionary
280
     1
281
     1
  3
ACAD_XREC_ROUNDTRIP
360
444
  0
DICTIONARY
  5
44B
330
420
100
AcDbDictionary
280
     1
281
     1
  3
ACAD_XREC_ROUNDTRIP
360
44C
  0
XRECORD
  5
456
102
{ACAD_REACTORS
330
455
102
}
330
455
100
AcDbXrecord
280
     1
102
MATERIAL
148
0.0
149
0.0
149
0.0
 93
        0
 94
      127
282
     0
 72
     1
 77
     1
171
     1
175
     1
179
     1
273
     0
  0
XRECORD
  5
454
102
{ACAD_REACTORS
330
453
102
}
330
453
100
AcDbXrecord
280
     1
102
MATERIAL
148
0.0
149
0.0
149
0.0
 93
        0
 94
      127
282
     0
 72
     1
 77
     1
171
     1
175
     1
179
     1
273
     0
  0
XRECORD
  5
458
102
{ACAD_REACTORS
330
457
102
}
330
457
100
AcDbXrecord
280
     1
102
MATERIAL
148
0.0
149
0.0
149
0.0
 93
        0
 94
      127
282
     0
 72
     1
 77
     1
171
     1
175
     1
179
     1
273
     0
  0
XRECORD
  5
43C
102
{ACAD_REACTORS
330
43B
102
}
330
43B
100
AcDbXrecord
280
     1
102
RTVSPropertyOp0
 70
     1
102
RTVSPropertyOp1
 70
     1
102
RTVSPropertyOp2
 70
     1
102
RTVSPropertyOp3
 70
     1
102
RTVSPropertyOp4
 70
     1
102
RTVSPropertyOp5
 70
     1
102
RTVSPropertyOp6
 70
     1
102
RTVSPropertyOp7
 70
     1
102
RTVSPropertyOp8
 70
     1
102
RTVSPropertyOp9
 70
     1
102
RTVSPropertyOp10
 70
     1
102
RTVSPropertyOp11
 70
     1
102
RTVSPropertyOp12
 70
     1
102
RTVSPropertyOp13
 70
     1
102
RTVSPropertyOp14
 70
     1
102
RTVSPropertyOp15
 70
     1
102
RTVSPropertyOp16
 70
     1
102
RTVSPropertyOp17
 70
     1
102
RTVSPropertyOp18
 70
     1
102
RTVSPropertyOp19
 70
     1
102
RTVSPropertyOp20
 70
     1
102
RTVSPropertyOp21
 70
     1
102
RTVSPropertyOp22
 70
     1
102
RTVSPropertyOp23
 70
     1
102
RTVSPropertyOp24
 70
     1
102
RTVSPropertyOp25
 70
     1
102
RTVSPropertyOp26
 70
     1
102
RTVSPropertyOp27
 70
     1
102
RTVSPropertyOp28
 70
     1
102
RTVSPropertyOp29
 70
     1
102
RTVSPropertyOp30
 70
     1
102
RTVSPropertyOp31
 70
     1
102
RTVSPropertyOp32
 70
     1
  0
XRECORD
  5
440
102
{ACAD_REACTORS
330
43F
102
}
330
43F
100
AcDbXrecord
280
     1
102
RTVSPropertyOp0
 70
     1
102
RTVSPropertyOp1
 70
     1
102
RTVSPropertyOp2
 70
     1
102
RTVSPropertyOp3
 70
     1
102
RTVSPropertyOp4
 70
     1
102
RTVSPropertyOp5
 70
     1
102
RTVSPropertyOp6
 70
     1
102
RTVSPropertyOp7
 70
     1
102
RTVSPropertyOp8
 70
     1
102
RTVSPropertyOp9
 70
     1
102
RTVSPropertyOp10
 70
     1
102
RTVSPropertyOp11
 70
     1
102
RTVSPropertyOp12
 70
     1
102
RTVSPropertyOp13
 70
     1
102
RTVSPropertyOp14
 70
     1
102
RTVSPropertyOp15
 70
     1
102
RTVSPropertyOp16
 70
     1
102
RTVSPropertyOp17
 70
     1
102
RTVSPropertyOp18
 70
     1
102
RTVSPropertyOp19
 70
     1
102
RTVSPropertyOp20
 70
     1
102
RTVSPropertyOp21
 70
     1
102
RTVSPropertyOp22
 70
     1
102
RTVSPropertyOp23
 70
     1
102
RTVSPropertyOp24
 70
     1
102
RTVSPropertyOp25
 70
     1
102
RTVSPropertyOp26
 70
     1
102
RTVSPropertyOp27
 70
     1
102
RTVSPropertyOp28
 70
     1
102
RTVSPropertyOp29
 70
     1
102
RTVSPropertyOp30
 70
     1
102
RTVSPropertyOp31
 70
     1
102
RTVSPropertyOp32
 70
     1
  0
XRECORD
  5
43E
102
{ACAD_REACTORS
330
43D
102
}
330
43D
100
AcDbXrecord
280
     1
102
RTVSPropertyOp0
 70
     1
102
RTVSPropertyOp1
 70
     1
102
RTVSPropertyOp2
 70
     1
102
RTVSPropertyOp3
 70
     1
102
RTVSPropertyOp4
 70
     1
102
RTVSPropertyOp5
 70
     1
102
RTVSPropertyOp6
 70
     1
102
RTVSPropertyOp7
 70
     1
102
RTVSPropertyOp8
 70
     1
102
RTVSPropertyOp9
 70
     1
102
RTVSPropertyOp10
 70
     1
102
RTVSPropertyOp11
 70
     1
102
RTVSPropertyOp12
 70
     1
102
RTVSPropertyOp13
 70
     1
102
RTVSPropertyOp14
 70
     1
102
RTVSPropertyOp15
 70
     1
102
RTVSPropertyOp16
 70
     1
102
RTVSPropertyOp17
 70
     1
102
RTVSPropertyOp18
 70
     1
102
RTVSPropertyOp19
 70
     1
102
RTVSPropertyOp20
 70
     1
102
RTVSPropertyOp21
 70
     1
102
RTVSPropertyOp22
 70
     1
102
RTVSPropertyOp23
 70
     1
102
RTVSPropertyOp24
 70
     1
102
RTVSPropertyOp25
 70
     1
102
RTVSPropertyOp26
 70
     1
102
RTVSPropertyOp27
 70
     1
102
RTVSPropertyOp28
 70
     1
102
RTVSPropertyOp29
 70
     1
102
RTVSPropertyOp30
 70
     1
102
RTVSPropertyOp31
 70
     1
102
RTVSPropertyOp32
 70
     1
  0
XRECORD
  5
442
102
{ACAD_REACTORS
330
441
102
}
330
441
100
AcDbXrecord
280
     1
102
RTVSPropertyOp0
 70
     1
102
RTVSPropertyOp1
 70
     1
102
RTVSPropertyOp2
 70
     1
102
RTVSPropertyOp3
 70
     1
102
RTVSPropertyOp4
 70
     1
102
RTVSPropertyOp5
 70
     1
102
RTVSPropertyOp6
 70
     1
102
RTVSPropertyOp7
 70
     1
102
RTVSPropertyOp8
 70
     1
102
RTVSPropertyOp9
 70
     1
102
RTVSPropertyOp10
 70
     1
102
RTVSPropertyOp11
 70
     1
102
RTVSPropertyOp12
 70
     1
102
RTVSPropertyOp13
 70
     1
102
RTVSPropertyOp14
 70
     1
102
RTVSPropertyOp15
 70
     1
102
RTVSPropertyOp16
 70
     1
102
RTVSPropertyOp17
 70
     1
102
RTVSPropertyOp18
 70
     1
102
RTVSPropertyOp19
 70
     1
102
RTVSPropertyOp20
 70
     1
102
RTVSPropertyOp21
 70
     1
102
RTVSPropertyOp22
 70
     1
102
RTVSPropertyOp23
 70
     1
102
RTVSPropertyOp24
 70
     1
102
RTVSPropertyOp25
 70
     1
102
RTVSPropertyOp26
 70
     1
102
RTVSPropertyOp27
 70
     1
102
RTVSPropertyOp28
 70
     1
102
RTVSPropertyOp29
 70
     1
102
RTVSPropertyOp30
 70
     1
102
RTVSPropertyOp31
 70
     1
102
RTVSPropertyOp32
 70
     1
  0
XRECORD
  5
44A
102
{ACAD_REACTORS
330
449
102
}
330
449
100
AcDbXrecord
280
     1
102
RTVSPropertyOp0
 70
     1
102
RTVSPropertyOp1
 70
     1
102
RTVSPropertyOp2
 70
     1
102
RTVSPropertyOp3
 70
     1
102
RTVSPropertyOp4
 70
     1
102
RTVSPropertyOp5
 70
     1
102
RTVSPropertyOp6
 70
     1
102
RTVSPropertyOp7
 70
     1
102
RTVSPropertyOp8
 70
     1
102
RTVSPropertyOp9
 70
     1
102
RTVSPropertyOp10
 70
     1
102
RTVSPropertyOp11
 70
     1
102
RTVSPropertyOp12
 70
     1
102
RTVSPropertyOp13
 70
     1
102
RTVSPropertyOp14
 70
     1
102
RTVSPropertyOp15
 70
     1
102
RTVSPropertyOp16
 70
     1
102
RTVSPropertyOp17
 70
     1
102
RTVSPropertyOp18
 70
     1
102
RTVSPropertyOp19
 70
     1
102
RTVSPropertyOp20
 70
     1
102
RTVSPropertyOp21
 70
     1
102
RTVSPropertyOp22
 70
     1
102
RTVSPropertyOp23
 70
     1
102
RTVSPropertyOp24
 70
     1
102
RTVSPropertyOp25
 70
     1
102
RTVSPropertyOp26
 70
     1
102
RTVSPropertyOp27
 70
     1
102
RTVSPropertyOp28
 70
     1
102
RTVSPropertyOp29
 70
     1
102
RTVSPropertyOp30
 70
     1
102
RTVSPropertyOp31
 70
     1
102
RTVSPropertyOp32
 70
     1
  0
XRECORD
  5
452
102
{ACAD_REACTORS
330
451
102
}
330
451
100
AcDbXrecord
280
     1
102
RTVSPropertyOp0
 70
     1
102
RTVSPropertyOp1
 70
     1
102
RTVSPropertyOp2
 70
     1
102
RTVSPropertyOp3
 70
     1
102
RTVSPropertyOp4
 70
     1
102
RTVSPropertyOp5
 70
     1
102
RTVSPropertyOp6
 70
     1
102
RTVSPropertyOp7
 70
     1
102
RTVSPropertyOp8
 70
     1
102
RTVSPropertyOp9
 70
     1
102
RTVSPropertyOp10
 70
     1
102
RTVSPropertyOp11
 70
     1
102
RTVSPropertyOp12
 70
     1
102
RTVSPropertyOp13
 70
     1
102
RTVSPropertyOp14
 70
     1
102
RTVSPropertyOp15
 70
     1
102
RTVSPropertyOp16
 70
     1
102
RTVSPropertyOp17
 70
     1
102
RTVSPropertyOp18
 70
     1
102
RTVSPropertyOp19
 70
     1
102
RTVSPropertyOp20
 70
     1
102
RTVSPropertyOp21
 70
     1
102
RTVSPropertyOp22
 70
     1
102
RTVSPropertyOp23
 70
     1
102
RTVSPropertyOp24
 70
     1
102
RTVSPropertyOp25
 70
     1
102
RTVSPropertyOp26
 70
     1
102
RTVSPropertyOp27
 70
     1
102
RTVSPropertyOp28
 70
     1
102
RTVSPropertyOp29
 70
     1
102
RTVSPropertyOp30
 70
     1
102
RTVSPropertyOp31
 70
     1
102
RTVSPropertyOp32
 70
     1
  0
XRECORD
  5
446
102
{ACAD_REACTORS
330
445
102
}
330
445
100
AcDbXrecord
280
     1
102
RTVSPropertyOp0
 70
     1
102
RTVSPropertyOp1
 70
     1
102
RTVSPropertyOp2
 70
     1
102
RTVSPropertyOp3
 70
     1
102
RTVSPropertyOp4
 70
     1
102
RTVSPropertyOp5
 70
     1
102
RTVSPropertyOp6
 70
     1
102
RTVSPropertyOp7
 70
     1
102
RTVSPropertyOp8
 70
     1
102
RTVSPropertyOp9
 70
     1
102
RTVSPropertyOp10
 70
     1
102
RTVSPropertyOp11
 70
     1
102
RTVSPropertyOp12
 70
     1
102
RTVSPropertyOp13
 70
     1
102
RTVSPropertyOp14
 70
     1
102
RTVSPropertyOp15
 70
     1
102
RTVSPropertyOp16
 70
     1
102
RTVSPropertyOp17
 70
     1
102
RTVSPropertyOp18
 70
     1
102
RTVSPropertyOp19
 70
     1
102
RTVSPropertyOp20
 70
     1
102
RTVSPropertyOp21
 70
     1
102
RTVSPropertyOp22
 70
     1
102
RTVSPropertyOp23
 70
     1
102
RTVSPropertyOp24
 70
     1
102
RTVSPropertyOp25
 70
     1
102
RTVSPropertyOp26
 70
     1
102
RTVSPropertyOp27
 70
     1
102
RTVSPropertyOp28
 70
     1
102
RTVSPropertyOp29
 70
     1
102
RTVSPropertyOp30
 70
     1
102
RTVSPropertyOp31
 70
     1
102
RTVSPropertyOp32
 70
     1
  0
XRECORD
  5
448
102
{ACAD_REACTORS
330
447
102
}
330
447
100
AcDbXrecord
280
     1
102
RTVSPropertyOp0
 70
     1
102
RTVSPropertyOp1
 70
     1
102
RTVSPropertyOp2
 70
     1
102
RTVSPropertyOp3
 70
     1
102
RTVSPropertyOp4
 70
     1
102
RTVSPropertyOp5
 70
     1
102
RTVSPropertyOp6
 70
     1
102
RTVSPropertyOp7
 70
     1
102
RTVSPropertyOp8
 70
     1
102
RTVSPropertyOp9
 70
     1
102
RTVSPropertyOp10
 70
     1
102
RTVSPropertyOp11
 70
     1
102
RTVSPropertyOp12
 70
     1
102
RTVSPropertyOp13
 70
     1
102
RTVSPropertyOp14
 70
     1
102
RTVSPropertyOp15
 70
     1
102
RTVSPropertyOp16
 70
     1
102
RTVSPropertyOp17
 70
     1
102
RTVSPropertyOp18
 70
     1
102
RTVSPropertyOp19
 70
     1
102
RTVSPropertyOp20
 70
     1
102
RTVSPropertyOp21
 70
     1
102
RTVSPropertyOp22
 70
     1
102
RTVSPropertyOp23
 70
     1
102
RTVSPropertyOp24
 70
     1
102
RTVSPropertyOp25
 70
     1
102
RTVSPropertyOp26
 70
     1
102
RTVSPropertyOp27
 70
     1
102
RTVSPropertyOp28
 70
     1
102
RTVSPropertyOp29
 70
     1
102
RTVSPropertyOp30
 70
     1
102
RTVSPropertyOp31
 70
     1
102
RTVSPropertyOp32
 70
     1
  0
XRECORD
  5
450
102
{ACAD_REACTORS
330
44F
102
}
330
44F
100
AcDbXrecord
280
     1
102
RTVSPropertyOp0
 70
     1
102
RTVSPropertyOp1
 70
     1
102
RTVSPropertyOp2
 70
     1
102
RTVSPropertyOp3
 70
     1
102
RTVSPropertyOp4
 70
     1
102
RTVSPropertyOp5
 70
     1
102
RTVSPropertyOp6
 70
     1
102
RTVSPropertyOp7
 70
     1
102
RTVSPropertyOp8
 70
     1
102
RTVSPropertyOp9
 70
     1
102
RTVSPropertyOp10
 70
     1
102
RTVSPropertyOp11
 70
     1
102
RTVSPropertyOp12
 70
     1
102
RTVSPropertyOp13
 70
     1
102
RTVSPropertyOp14
 70
     1
102
RTVSPropertyOp15
 70
     1
102
RTVSPropertyOp16
 70
     1
102
RTVSPropertyOp17
 70
     1
102
RTVSPropertyOp18
 70
     1
102
RTVSPropertyOp19
 70
     1
102
RTVSPropertyOp20
 70
     1
102
RTVSPropertyOp21
 70
     1
102
RTVSPropertyOp22
 70
     1
102
RTVSPropertyOp23
 70
     1
102
RTVSPropertyOp24
 70
     1
102
RTVSPropertyOp25
 70
     1
102
RTVSPropertyOp26
 70
     1
102
RTVSPropertyOp27
 70
     1
102
RTVSPropertyOp28
 70
     1
102
RTVSPropertyOp29
 70
     1
102
RTVSPropertyOp30
 70
     1
102
RTVSPropertyOp31
 70
     1
102
RTVSPropertyOp32
 70
     1
  0
XRECORD
  5
434
102
{ACAD_REACTORS
330
433
102
}
330
433
100
AcDbXrecord
280
     1
102
RTVSPropertyOp0
 70
     1
102
RTVSPropertyOp1
 70
     1
102
RTVSPropertyOp2
 70
     1
102
RTVSPropertyOp3
 70
     1
102
RTVSPropertyOp4
 70
     1
102
RTVSPropertyOp5
 70
     1
102
RTVSPropertyOp6
 70
     1
102
RTVSPropertyOp7
 70
     1
102
RTVSPropertyOp8
 70
     1
102
RTVSPropertyOp9
 70
     1
102
RTVSPropertyOp10
 70
     1
102
RTVSPropertyOp11
 70
     1
102
RTVSPropertyOp12
 70
     1
102
RTVSPropertyOp13
 70
     1
102
RTVSPropertyOp14
 70
     1
102
RTVSPropertyOp15
 70
     1
102
RTVSPropertyOp16
 70
     1
102
RTVSPropertyOp17
 70
     1
102
RTVSPropertyOp18
 70
     1
102
RTVSPropertyOp19
 70
     1
102
RTVSPropertyOp20
 70
     1
102
RTVSPropertyOp21
 70
     1
102
RTVSPropertyOp22
 70
     1
102
RTVSPropertyOp23
 70
     1
102
RTVSPropertyOp24
 70
     1
102
RTVSPropertyOp25
 70
     1
102
RTVSPropertyOp26
 70
     1
102
RTVSPropertyOp27
 70
     1
102
RTVSPropertyOp28
 70
     1
102
RTVSPropertyOp29
 70
     1
102
RTVSPropertyOp30
 70
     1
102
RTVSPropertyOp31
 70
     1
102
RTVSPropertyOp32
 70
     1
  0
XRECORD
  5
436
102
{ACAD_REACTORS
330
435
102
}
330
435
100
AcDbXrecord
280
     1
102
RTVSPropertyOp0
 70
     1
102
RTVSPropertyOp1
 70
     1
102
RTVSPropertyOp2
 70
     1
102
RTVSPropertyOp3
 70
     1
102
RTVSPropertyOp4
 70
     1
102
RTVSPropertyOp5
 70
     1
102
RTVSPropertyOp6
 70
     1
102
RTVSPropertyOp7
 70
     1
102
RTVSPropertyOp8
 70
     1
102
RTVSPropertyOp9
 70
     1
102
RTVSPropertyOp10
 70
     1
102
RTVSPropertyOp11
 70
     1
102
RTVSPropertyOp12
 70
     1
102
RTVSPropertyOp13
 70
     1
102
RTVSPropertyOp14
 70
     1
102
RTVSPropertyOp15
 70
     1
102
RTVSPropertyOp16
 70
     1
102
RTVSPropertyOp17
 70
     1
102
RTVSPropertyOp18
 70
     1
102
RTVSPropertyOp19
 70
     1
102
RTVSPropertyOp20
 70
     1
102
RTVSPropertyOp21
 70
     1
102
RTVSPropertyOp22
 70
     1
102
RTVSPropertyOp23
 70
     1
102
RTVSPropertyOp24
 70
     1
102
RTVSPropertyOp25
 70
     1
102
RTVSPropertyOp26
 70
     1
102
RTVSPropertyOp27
 70
     1
102
RTVSPropertyOp28
 70
     1
102
RTVSPropertyOp29
 70
     1
102
RTVSPropertyOp30
 70
     1
102
RTVSPropertyOp31
 70
     1
102
RTVSPropertyOp32
 70
     1
  0
XRECORD
  5
438
102
{ACAD_REACTORS
330
437
102
}
330
437
100
AcDbXrecord
280
     1
102
RTVSPropertyOp0
 70
     1
102
RTVSPropertyOp1
 70
     1
102
RTVSPropertyOp2
 70
     1
102
RTVSPropertyOp3
 70
     1
102
RTVSPropertyOp4
 70
     1
102
RTVSPropertyOp5
 70
     1
102
RTVSPropertyOp6
 70
     1
102
RTVSPropertyOp7
 70
     1
102
RTVSPropertyOp8
 70
     1
102
RTVSPropertyOp9
 70
     1
102
RTVSPropertyOp10
 70
     1
102
RTVSPropertyOp11
 70
     1
102
RTVSPropertyOp12
 70
     1
102
RTVSPropertyOp13
 70
     1
102
RTVSPropertyOp14
 70
     1
102
RTVSPropertyOp15
 70
     1
102
RTVSPropertyOp16
 70
     1
102
RTVSPropertyOp17
 70
     1
102
RTVSPropertyOp18
 70
     1
102
RTVSPropertyOp19
 70
     1
102
RTVSPropertyOp20
 70
     1
102
RTVSPropertyOp21
 70
     1
102
RTVSPropertyOp22
 70
     1
102
RTVSPropertyOp23
 70
     1
102
RTVSPropertyOp24
 70
     1
102
RTVSPropertyOp25
 70
     1
102
RTVSPropertyOp26
 70
     1
102
RTVSPropertyOp27
 70
     1
102
RTVSPropertyOp28
 70
     1
102
RTVSPropertyOp29
 70
     1
102
RTVSPropertyOp30
 70
     1
102
RTVSPropertyOp31
 70
     1
102
RTVSPropertyOp32
 70
     1
  0
XRECORD
  5
43A
102
{ACAD_REACTORS
330
439
102
}
330
439
100
AcDbXrecord
280
     1
102
RTVSPropertyOp0
 70
     1
102
RTVSPropertyOp1
 70
     1
102
RTVSPropertyOp2
 70
     1
102
RTVSPropertyOp3
 70
     1
102
RTVSPropertyOp4
 70
     1
102
RTVSPropertyOp5
 70
     1
102
RTVSPropertyOp6
 70
     1
102
RTVSPropertyOp7
 70
     1
102
RTVSPropertyOp8
 70
     1
102
RTVSPropertyOp9
 70
     1
102
RTVSPropertyOp10
 70
     1
102
RTVSPropertyOp11
 70
     1
102
RTVSPropertyOp12
 70
     1
102
RTVSPropertyOp13
 70
     1
102
RTVSPropertyOp14
 70
     1
102
RTVSPropertyOp15
 70
     1
102
RTVSPropertyOp16
 70
     1
102
RTVSPropertyOp17
 70
     1
102
RTVSPropertyOp18
 70
     1
102
RTVSPropertyOp19
 70
     1
102
RTVSPropertyOp20
 70
     1
102
RTVSPropertyOp21
 70
     1
102
RTVSPropertyOp22
 70
     1
102
RTVSPropertyOp23
 70
     1
102
RTVSPropertyOp24
 70
     1
102
RTVSPropertyOp25
 70
     1
102
RTVSPropertyOp26
 70
     1
102
RTVSPropertyOp27
 70
     1
102
RTVSPropertyOp28
 70
     1
102
RTVSPropertyOp29
 70
     1
102
RTVSPropertyOp30
 70
     1
102
RTVSPropertyOp31
 70
     1
102
RTVSPropertyOp32
 70
     1
  0
XRECORD
  5
44E
102
{ACAD_REACTORS
330
44D
102
}
330
44D
100
AcDbXrecord
280
     1
102
RTVSPropertyOp0
 70
     1
102
RTVSPropertyOp1
 70
     1
102
RTVSPropertyOp2
 70
     1
102
RTVSPropertyOp3
 70
     1
102
RTVSPropertyOp4
 70
     1
102
RTVSPropertyOp5
 70
     1
102
RTVSPropertyOp6
 70
     1
102
RTVSPropertyOp7
 70
     1
102
RTVSPropertyOp8
 70
     1
102
RTVSPropertyOp9
 70
     1
102
RTVSPropertyOp10
 70
     1
102
RTVSPropertyOp11
 70
     1
102
RTVSPropertyOp12
 70
     1
102
RTVSPropertyOp13
 70
     1
102
RTVSPropertyOp14
 70
     1
102
RTVSPropertyOp15
 70
     1
102
RTVSPropertyOp16
 70
     1
102
RTVSPropertyOp17
 70
     1
102
RTVSPropertyOp18
 70
     1
102
RTVSPropertyOp19
 70
     1
102
RTVSPropertyOp20
 70
     1
102
RTVSPropertyOp21
 70
     1
102
RTVSPropertyOp22
 70
     1
102
RTVSPropertyOp23
 70
     1
102
RTVSPropertyOp24
 70
     1
102
RTVSPropertyOp25
 70
     1
102
RTVSPropertyOp26
 70
     1
102
RTVSPropertyOp27
 70
     1
102
RTVSPropertyOp28
 70
     1
102
RTVSPropertyOp29
 70
     1
102
RTVSPropertyOp30
 70
     1
102
RTVSPropertyOp31
 70
     1
102
RTVSPropertyOp32
 70
     1
  0
XRECORD
  5
444
102
{ACAD_REACTORS
330
443
102
}
330
443
100
AcDbXrecord
280
     1
102
RTVSPropertyOp0
 70
     1
102
RTVSPropertyOp1
 70
     1
102
RTVSPropertyOp2
 70
     1
102
RTVSPropertyOp3
 70
     1
102
RTVSPropertyOp4
 70
     1
102
RTVSPropertyOp5
 70
     1
102
RTVSPropertyOp6
 70
     1
102
RTVSPropertyOp7
 70
     1
102
RTVSPropertyOp8
 70
     1
102
RTVSPropertyOp9
 70
     1
102
RTVSPropertyOp10
 70
     1
102
RTVSPropertyOp11
 70
     1
102
RTVSPropertyOp12
 70
     1
102
RTVSPropertyOp13
 70
     1
102
RTVSPropertyOp14
 70
     1
102
RTVSPropertyOp15
 70
     1
102
RTVSPropertyOp16
 70
     1
102
RTVSPropertyOp17
 70
     1
102
RTVSPropertyOp18
 70
     1
102
RTVSPropertyOp19
 70
     1
102
RTVSPropertyOp20
 70
     1
102
RTVSPropertyOp21
 70
     1
102
RTVSPropertyOp22
 70
     1
102
RTVSPropertyOp23
 70
     1
102
RTVSPropertyOp24
 70
     1
102
RTVSPropertyOp25
 70
     1
102
RTVSPropertyOp26
 70
     1
102
RTVSPropertyOp27
 70
     1
102
RTVSPropertyOp28
 70
     1
102
RTVSPropertyOp29
 70
     1
102
RTVSPropertyOp30
 70
     1
102
RTVSPropertyOp31
 70
     1
102
RTVSPropertyOp32
 70
     1
  0
XRECORD
  5
44C
102
{ACAD_REACTORS
330
44B
102
}
330
44B
100
AcDbXrecord
280
     1
102
RTVSPropertyOp0
 70
     1
102
RTVSPropertyOp1
 70
     1
102
RTVSPropertyOp2
 70
     1
102
RTVSPropertyOp3
 70
     1
102
RTVSPropertyOp4
 70
     1
102
RTVSPropertyOp5
 70
     1
102
RTVSPropertyOp6
 70
     1
102
RTVSPropertyOp7
 70
     1
102
RTVSPropertyOp8
 70
     1
102
RTVSPropertyOp9
 70
     1
102
RTVSPropertyOp10
 70
     1
102
RTVSPropertyOp11
 70
     1
102
RTVSPropertyOp12
 70
     1
102
RTVSPropertyOp13
 70
     1
102
RTVSPropertyOp14
 70
     1
102
RTVSPropertyOp15
 70
     1
102
RTVSPropertyOp16
 70
     1
102
RTVSPropertyOp17
 70
     1
102
RTVSPropertyOp18
 70
     1
102
RTVSPropertyOp19
 70
     1
102
RTVSPropertyOp20
 70
     1
102
RTVSPropertyOp21
 70
     1
102
RTVSPropertyOp22
 70
     1
102
RTVSPropertyOp23
 70
     1
102
RTVSPropertyOp24
 70
     1
102
RTVSPropertyOp25
 70
     1
102
RTVSPropertyOp26
 70
     1
102
RTVSPropertyOp27
 70
     1
102
RTVSPropertyOp28
 70
     1
102
RTVSPropertyOp29
 70
     1
102
RTVSPropertyOp30
 70
     1
102
RTVSPropertyOp31
 70
     1
102
RTVSPropertyOp32
 70
     1
  0
ENDSEC
  0
EOF
