  0
SECTION
  2
HEADER
  9
$ACADVER
  1
AC1015
  9
$ACADMAINTVER
 70
     6
  9
$DWGCODEPAGE
  3
ANSI_1252
  9
$INSBASE
 10
0.0
 20
0.0
 30
0.0
  9
$EXTMIN
 10
0.0
 20
0.0
 30
0.0
  9
$EXTMAX
 10
210.0
 20
297.0
 30
0.0
  9
$LIMMIN
 10
0.0
 20
0.0
  9
$LIMMAX
 10
0.0
 20
0.0
  9
$ORTHOMODE
 70
     0
  9
$REGENMODE
 70
     1
  9
$FILLMODE
 70
     1
  9
$QTEXTMODE
 70
     0
  9
$MIRRTEXT
 70
     1
  9
$LTSCALE
 40
1.0
  9
$ATTMODE
 70
     1
  9
$TEXTSIZE
 40
0.0
  9
$TRACEWID
 40
0.05
  9
$TEXTSTYLE
  7
STANDARD
  9
$CLAYER
  8
0
  9
$CELTYPE
  6
CONTINUOUS
  9
$CECOLOR
 62
   256
  9
$CELTSCALE
 40
1.0
  9
$DISPSILH
 70
     0
  9
$DIMSCALE
 40
1.0
  9
$DIMASZ
 40
0.0
  9
$DIMEXO
 40
0.0
  9
$DIMDLI
 40
0.38
  9
$DIMRND
 40
0.0
  9
$DIMDLE
 40
1000.0
  9
$DIMEXE
 40
0.18
  9
$DIMTP
 40
0.0
  9
$DIMTM
 40
0.0
  9
$DIMTXT
 40
3.5
  9
$DIMCEN
 40
0.09
  9
$DIMTSZ
 40
0.0
  9
$DIMTOL
 70
     0
  9
$DIMLIM
 70
     0
  9
$DIMTIH
 70
     1
  9
$DIMTOH
 70
     1
  9
$DIMSE1
 70
     0
  9
$DIMSE2
 70
     0
  9
$DIMTAD
 70
     1
  9
$DIMZIN
 70
     0
  9
$DIMBLK
  1

  9
$DIMASO
 70
     1
  9
$DIMSHO
 70
     1
  9
$DIMPOST
  1

  9
$DIMAPOST
  1

  9
$DIMALT
 70
     0
  9
$DIMALTD
 70
     2
  9
$DIMALTF
 40
0.0394
  9
$DIMLFAC
 40
1.0
  9
$DIMTOFL
 70
     0
  9
$DIMTVP
 40
0.0
  9
$DIMTIX
 70
     0
  9
$DIMSOXD
 70
     0
  9
$DIMSAH
 70
     0
  9
$DIMBLK1
  1

  9
$DIMBLK2
  1

  9
$DIMSTYLE
  2
STANDARD
  9
$DIMCLRD
 70
     0
  9
$DIMCLRE
 70
     0
  9
$DIMCLRT
 70
     0
  9
$DIMTFAC
 40
1.0
  9
$DIMGAP
 40
0.0
  9
$DIMJUST
 70
     0
  9
$DIMSD1
 70
     0
  9
$DIMSD2
 70
     0
  9
$DIMTOLJ
 70
     1
  9
$DIMTZIN
 70
     0
  9
$DIMALTZ
 70
     0
  9
$DIMALTTZ
 70
     0
  9
$DIMUPT
 70
     0
  9
$DIMDEC
 70
     4
  9
$DIMTDEC
 70
     4
  9
$DIMALTU
 70
     2
  9
$DIMALTTD
 70
     2
  9
$DIMTXSTY
  7
STANDARD
  9
$DIMAUNIT
 70
     0
  9
$DIMADEC
 70
     0
  9
$DIMALTRND
 40
0.0
  9
$DIMAZIN
 70
     0
  9
$DIMDSEP
 70
    46
  9
$DIMATFIT
 70
     3
  9
$DIMFRAC
 70
     0
  9
$DIMLDRBLK
  1

  9
$DIMLUNIT
 70
     2
  9
$DIMLWD
 70
    -2
  9
$DIMLWE
 70
    -2
  9
$DIMTMOVE
 70
     2
  9
$LUNITS
 70
     2
  9
$LUPREC
 70
     2
  9
$SKETCHINC
 40
0.1
  9
$FILLETRAD
 40
0.0
  9
$AUNITS
 70
     0
  9
$AUPREC
 70
     2
  9
$MENU
  1
acad
  9
$ELEVATION
 40
0.0
  9
$PELEVATION
 40
0.0
  9
$THICKNESS
 40
0.0
  9
$LIMCHECK
 70
     0
  9
$CHAMFERA
 40
0.0
  9
$CHAMFERB
 40
0.0
  9
$CHAMFERC
 40
0.0
  9
$CHAMFERD
 40
0.0
  9
$SKPOLY
 70
     0
  9
$TDCREATE
 40
2447893.0
  9
$TDUCREATE
 40
2447892.916666667
  9
$TDUPDATE
 40
2458327.548783692
  9
$TDUUPDATE
 40
2458327.465450359
  9
$TDINDWG
 40
0.0
  9
$TDUSRTIMER
 40
0.0
  9
$USRTIMER
 70
     1
  9
$ANGBASE
 50
0.0
  9
$ANGDIR
 70
     0
  9
$PDMODE
 70
     0
  9
$PDSIZE
 40
-1.0
  9
$PLINEWID
 40
0.0
  9
$SPLFRAME
 70
     0
  9
$SPLINETYPE
 70
     6
  9
$SPLINESEGS
 70
     8
  9
$HANDSEED
  5
477
  9
$SURFTAB1
 70
     6
  9
$SURFTAB2
 70
     6
  9
$SURFTYPE
 70
     6
  9
$SURFU
 70
     6
  9
$SURFV
 70
     6
  9
$UCSBASE
  2

  9
$UCSNAME
  2

  9
$UCSORG
 10
0.0
 20
0.0
 30
0.0
  9
$UCSXDIR
 10
1.0
 20
0.0
 30
0.0
  9
$UCSYDIR
 10
0.0
 20
1.0
 30
0.0
  9
$UCSORTHOREF
  2

  9
$UCSORTHOVIEW
 70
     0
  9
$UCSORGTOP
 10
0.0
 20
0.0
 30
0.0
  9
$UCSORGBOTTOM
 10
0.0
 20
0.0
 30
0.0
  9
$UCSORGLEFT
 10
0.0
 20
0.0
 30
0.0
  9
$UCSORGRIGHT
 10
0.0
 20
0.0
 30
0.0
  9
$UCSORGFRONT
 10
0.0
 20
0.0
 30
0.0
  9
$UCSORGBACK
 10
0.0
 20
0.0
 30
0.0
  9
$PUCSBASE
  2

  9
$PUCSNAME
  2

  9
$PUCSORG
 10
0.0
 20
0.0
 30
0.0
  9
$PUCSXDIR
 10
1.0
 20
0.0
 30
0.0
  9
$PUCSYDIR
 10
0.0
 20
1.0
 30
0.0
  9
$PUCSORTHOREF
  2

  9
$PUCSORTHOVIEW
 70
     0
  9
$PUCSORGTOP
 10
0.0
 20
0.0
 30
0.0
  9
$PUCSORGBOTTOM
 10
0.0
 20
0.0
 30
0.0
  9
$PUCSORGLEFT
 10
0.0
 20
0.0
 30
0.0
  9
$PUCSORGRIGHT
 10
0.0
 20
0.0
 30
0.0
  9
$PUCSORGFRONT
 10
0.0
 20
0.0
 30
0.0
  9
$PUCSORGBACK
 10
0.0
 20
0.0
 30
0.0
  9
$USERI1
 70
     0
  9
$USERI2
 70
     0
  9
$USERI3
 70
     0
  9
$USERI4
 70
     0
  9
$USERI5
 70
     0
  9
$USERR1
 40
0.0
  9
$USERR2
 40
0.0
  9
$USERR3
 40
0.0
  9
$USERR4
 40
0.0
  9
$USERR5
 40
0.0
  9
$WORLDVIEW
 70
     1
  9
$SHADEDGE
 70
     3
  9
$SHADEDIF
 70
    70
  9
$TILEMODE
 70
     1
  9
$MAXACTVP
 70
    16
  9
$PINSBASE
 10
0.0
 20
0.0
 30
0.0
  9
$PLIMCHECK
 70
     0
  9
$PEXTMIN
 10
1.000000000000000E+20
 20
1.000000000000000E+20
 30
1.000000000000000E+20
  9
$PEXTMAX
 10
-1.000000000000000E+20
 20
-1.000000000000000E+20
 30
-1.000000000000000E+20
  9
$PLIMMIN
 10
0.0
 20
0.0
  9
$PLIMMAX
 10
12.0
 20
9.0
  9
$UNITMODE
 70
     0
  9
$VISRETAIN
 70
     0
  9
$PLINEGEN
 70
     1
  9
$PSLTSCALE
 70
     1
  9
$TREEDEPTH
 70
  3020
  9
$CMLSTYLE
  2
STANDARD
  9
$CMLJUST
 70
     0
  9
$CMLSCALE
 40
1.0
  9
$PROXYGRAPHICS
 70
     1
  9
$MEASUREMENT
 70
     0
  9
$CELWEIGHT
370
    -1
  9
$ENDCAPS
280
     0
  9
$JOINSTYLE
280
     0
  9
$LWDISPLAY
290
     0
  9
$INSUNITS
 70
     0
  9
$HYPERLINKBASE
  1

  9
$STYLESHEET
  1

  9
$XEDIT
290
     1
  9
$CEPSNTYPE
380
     0
  9
$PSTYLEMODE
290
     1
  9
$FINGERPRINTGUID
  2
{8B83032C-0126-4ED1-99A7-AB6E69D4B875}
  9
$VERSIONGUID
  2
{FAEB1C32-E019-11D5-929B-00C0DF256EC4}
  9
$EXTNAMES
290
     1
  9
$PSVPSCALE
 40
0.0
  9
$OLESTARTUP
290
     0
  0
ENDSEC
  0
SECTION
  2
CLASSES
  0
CLASS
  1
LWPOLYLINE
  2
AcDbPolyline
  3
ObjectDBX Classes
 90
        0
280
     0
281
     1
  0
CLASS
  1
IMAGE
  2
AcDbRasterImage
  3
ISM
 90
      127
280
     0
281
     1
  0
CLASS
  1
OLE2FRAME
  2
AcDbOle2Frame
  3
ObjectDBX Classes
 90
        0
280
     0
281
     1
  0
CLASS
  1
HATCH
  2
AcDbHatch
  3
ObjectDBX Classes
 90
        0
280
     0
281
     1
  0
CLASS
  1
DICTIONARYVAR
  2
AcDbDictionaryVar
  3
ObjectDBX Classes
 90
        0
280
     0
281
     0
  0
CLASS
  1
RASTERVARIABLES
  2
AcDbRasterVariables
  3
ISM
 90
        0
280
     0
281
     0
  0
CLASS
  1
IMAGEDEF
  2
AcDbRasterImageDef
  3
ISM
 90
        0
280
     0
281
     0
  0
CLASS
  1
IMAGEDEF_REACTOR
  2
AcDbRasterImageDefReactor
  3
ISM
 90
        1
280
     0
281
     0
  0
CLASS
  1
IDBUFFER
  2
AcDbIdBuffer
  3
ObjectDBX Classes
 90
        0
280
     0
281
     0
  0
CLASS
  1
SPATIAL_FILTER
  2
AcDbSpatialFilter
  3
ObjectDBX Classes
 90
        0
280
     0
281
     0
  0
CLASS
  1
XRECORD
  2
AcDbXrecord
  3
ObjectDBX Classes
 90
        0
280
     0
281
     0
  0
CLASS
  1
SORTENTSTABLE
  2
AcDbSortentsTable
  3
ObjectDBX Classes
 90
        0
280
     0
281
     0
  0
CLASS
  1
LAYER_INDEX
  2
AcDbLayerIndex
  3
ObjectDBX Classes
 90
        0
280
     0
281
     0
  0
CLASS
  1
SPATIAL_INDEX
  2
AcDbSpatialIndex
  3
AutoCAD 2000
 90
        0
280
     0
281
     0
  0
CLASS
  1
OBJECT_PTR
  2
CAseDLPNTableRecord
  3
ASE-LPNTableRecord
 90
        1
280
     0
281
     0
  0
CLASS
  1
LAYOUT
  2
AcDbLayout
  3
ObjectDBX Classes
 90
        0
280
     0
281
     0
  0
CLASS
  1
PLOTSETTINGS
  2
AcDbPlotSettings
  3
ObjectDBX Classes
 90
        0
280
     0
281
     0
  0
CLASS
  1
ACDBDICTIONARYWDFLT
  2
AcDbDictionaryWithDefault
  3
ObjectDBX Classes
 90
        0
280
     0
281
     0
  0
CLASS
  1
ACDBPLACEHOLDER
  2
AcDbPlaceHolder
  3
ObjectDBX Classes
 90
        0
280
     0
281
     0
  0
CLASS
  1
VBA_PROJECT
  2
AcDbVbaProject
  3
ObjectDBX Classes
 90
        0
280
     0
281
     0
  0
CLASS
  1
WIPEOUT
  2
AcDbWipeout
  3
WipeOut|AutoCAD Express Tool|expresstools@autodesk.com
 90
      127
280
     0
281
     1
  0
CLASS
  1
WIPEOUTVARIABLES
  2
AcDbWipeoutVariables
  3
WipeOut|AutoCAD Express Tool|expresstools@autodesk.com
 90
        0
280
     0
281
     0
  0
CLASS
  1
RTEXT
  2
RText
  3
RText|AutoCAD Express Tool|expresstools@autodesk.com
 90
        0
280
     0
281
     1
  0
CLASS
  1
ARCALIGNEDTEXT
  2
AcDbArcAlignedText
  3
ATEXT|AutoCAD Express Tool|expresstools@autodesk.com
 90
        0
280
     0
281
     1
  0
CLASS
  1
SCALE
  2
AcDbScale
  3
ObjectDBX Classes
 90
     1153
280
     0
281
     0
  0
CLASS
  1
VISUALSTYLE
  2
AcDbVisualStyle
  3
ObjectDBX Classes
 90
     4095
280
     0
281
     0
  0
CLASS
  1
MATERIAL
  2
AcDbMaterial
  3
ObjectDBX Classes
 90
     1153
280
     0
281
     0
  0
ENDSEC
  0
SECTION
  2
TABLES
  0
TABLE
  2
VPORT
  5
7
102
{ACAD_XDICTIONARY
360
43C
102
}
330
0
100
AcDbSymbolTable
 70
     1
  0
VPORT
  5
15
330
7
100
AcDbSymbolTableRecord
100
AcDbViewportTableRecord
  2
*ACTIVE
 70
     0
 10
0.0
 20
0.0
 11
1.0
 21
1.0
 12
105.0
 22
148.5
 13
0.0
 23
0.0
 14
1.0
 24
1.0
 15
0.0
 25
0.0
 16
0.0
 26
0.0
 36
1.0
 17
0.0
 27
0.0
 37
0.0
 40
297.0
 41
1.4142857143
 42
50.0
 43
0.0
 44
0.0
 50
0.0
 51
0.0
 71
     0
 72
  2000
 73
     1
 74
     1
 75
     0
 76
     0
 77
     0
 78
     0
281
     0
 65
     1
110
0.0
120
0.0
130
0.0
111
1.0
121
0.0
131
0.0
112
0.0
122
1.0
132
0.0
 79
     0
146
0.0
  0
ENDTAB
  0
TABLE
  2
LTYPE
  5
4
330
0
100
AcDbSymbolTable
 70
     6
  0
LTYPE
  5
11
330
4
100
AcDbSymbolTableRecord
100
AcDbLinetypeTableRecord
  2
BYBLOCK
 70
     0
  3

 72
    65
 73
     0
 40
0.0
  0
LTYPE
  5
12
330
4
100
AcDbSymbolTableRecord
100
AcDbLinetypeTableRecord
  2
BYLAYER
 70
     0
  3

 72
    65
 73
     0
 40
0.0
  0
LTYPE
  5
13
330
4
100
AcDbSymbolTableRecord
100
AcDbLinetypeTableRecord
  2
CONTINUOUS
 70
     0
  3
Solid line
 72
    65
 73
     0
 40
0.0
  0
LTYPE
  5
1D
330
4
100
AcDbSymbolTableRecord
100
AcDbLinetypeTableRecord
  2
HIDDEN
 70
     0
  3
Hidden __ __ __ __ __ __ __ __ __ __ __ __ __ __
 72
    65
 73
     2
 40
1.905
 49
1.27
 74
     0
 49
-0.635
 74
     0
  0
LTYPE
  5
1E
330
4
100
AcDbSymbolTableRecord
100
AcDbLinetypeTableRecord
  2
PHANTOM
 70
     0
  3
Phantom ______  __  __  ______  __  __  ______
 72
    65
 73
     6
 40
12.7
 49
6.35
 74
     0
 49
-1.27
 74
     0
 49
1.27
 74
     0
 49
-1.27
 74
     0
 49
1.27
 74
     0
 49
-1.27
 74
     0
  0
LTYPE
  5
1F
330
4
100
AcDbSymbolTableRecord
100
AcDbLinetypeTableRecord
  2
CENTER
 70
     0
  3
Center ____ _ ____ _ ____ _ ____ _ ____ _ ____
 72
    65
 73
     4
 40
10.16
 49
6.35
 74
     0
 49
-1.27
 74
     0
 49
1.27
 74
     0
 49
-1.27
 74
     0
  0
LTYPE
  5
20
330
4
100
AcDbSymbolTableRecord
100
AcDbLinetypeTableRecord
  2
CENTERX2
 70
     0
  3
Center (2x) ________  __  ________  __  _____
 72
    65
 73
     4
 40
20.32
 49
12.7
 74
     0
 49
-2.54
 74
     0
 49
2.54
 74
     0
 49
-2.54
 74
     0
  0
LTYPE
  5
21
330
4
100
AcDbSymbolTableRecord
100
AcDbLinetypeTableRecord
  2
DOT2
 70
     0
  3
Dot (.5x) ........................................
 72
    65
 73
     2
 40
0.635
 49
0.0
 74
     0
 49
-0.635
 74
     0
  0
LTYPE
  5
466
330
5
100
AcDbSymbolTableRecord
100
AcDbLinetypeTableRecord
  2
DASH
 70
     0
  3
DASH _ _ _ _ _
 72
    65
 73
     2
 40
0.75
 49
0.40
 74
     0
 49
-0.35
 74
     0
  0
LTYPE
  5
467
330
5
100
AcDbSymbolTableRecord
100
AcDbLinetypeTableRecord
  2
LONGDASH_DASH
 70
     0
  3
LONGDASH_DASH __ . __ . __
 72
    65
 73
     4
 40
0.85
 49
0.40
 74
     0
 49
-0.20
 74
     0
 49
0.05
 74
     0
 49
-0.20
 74
     0
  0
LTYPE
  5
468
330
5
100
AcDbSymbolTableRecord
100
AcDbLinetypeTableRecord
  2
LONGDASH_DASH_DASH
 70
     0
  3
LONGDASH_DASH_DASH __ . . __ . . __
 72
    65
 73
     6
 40
1.10
 49
0.40
 74
     0
 49
-0.20
 74
     0
 49
0.05
 74
     0
 49
-0.20
 74
     0
 49
0.05
 74
     0
 49
-0.20
 74
     0
  0
ENDTAB
  0
TABLE
  2
LAYER
  5
2
330
0
100
AcDbSymbolTable
 70
     8
  0
LAYER
  5
23
330
2
100
AcDbSymbolTableRecord
100
AcDbLayerTableRecord
  2
DEFPOINTS
 70
     0
 62
     7
  6
CONTINUOUS
290
     0
370
    -3
390
0
  0
LAYER
  5
469
330
2
100
AcDbSymbolTableRecord
100
AcDbLayerTableRecord
  2
0
 70
     0
 62
     -1
  6
CONTINUOUS
370
    -3
390
F
  0
LAYER
  5
46A
330
2
100
AcDbSymbolTableRecord
100
AcDbLayerTableRecord
  2
1
 70
     0
 62
     4
  6
CONTINUOUS
370
    50
390
F
  0
LAYER
  5
46B
330
2
100
AcDbSymbolTableRecord
100
AcDbLayerTableRecord
  2
2
 70
     0
 62
     7
  6
CONTINUOUS
370
    25
390
F
  0
LAYER
  5
46C
330
2
100
AcDbSymbolTableRecord
100
AcDbLayerTableRecord
  2
3
 70
     0
 62
     1
  6
DASH
370
    35
390
F
  0
LAYER
  5
46D
330
2
100
AcDbSymbolTableRecord
100
AcDbLayerTableRecord
  2
4
 70
     0
 62
     2
  6
LONGDASH_DASH
370
    25
390
F
  0
LAYER
  5
46E
330
2
100
AcDbSymbolTableRecord
100
AcDbLayerTableRecord
  2
6
 70
     0
 62
     5
  6
CONTINUOUS
370
    -3
390
F
  0
LAYER
  5
46F
330
2
100
AcDbSymbolTableRecord
100
AcDbLayerTableRecord
  2
CUT
 70
     0
 62
     1
  6
CONTINUOUS
370
    25
390
F
  0
LAYER
  5
470
330
2
100
AcDbSymbolTableRecord
100
AcDbLayerTableRecord
  2
NOCUT
 70
     0
 62
     7
  6
CONTINUOUS
370
    25
390
F
  0
LAYER
  5
471
330
2
100
AcDbSymbolTableRecord
100
AcDbLayerTableRecord
  2
SK1
 70
     0
 62
     4
  6
CONTINUOUS
370
    50
390
F
  0
LAYER
  5
472
330
2
100
AcDbSymbolTableRecord
100
AcDbLayerTableRecord
  2
SK2
 70
     0
 62
     7
  6
CONTINUOUS
370
    25
390
F
  0
LAYER
  5
473
330
2
100
AcDbSymbolTableRecord
100
AcDbLayerTableRecord
  2
SK3
 70
     0
 62
     1
  6
DASH
370
    35
390
F
  0
LAYER
  5
474
330
2
100
AcDbSymbolTableRecord
100
AcDbLayerTableRecord
  2
SK4
 70
     0
 62
     2
  6
LONGDASH_DASH
370
    25
390
F
  0
LAYER
  5
475
330
2
100
AcDbSymbolTableRecord
100
AcDbLayerTableRecord
  2
SK6
 70
     0
 62
     5
  6
CONTINUOUS
370
    -3
390
F
  0
LAYER
  5
476
330
2
100
AcDbSymbolTableRecord
100
AcDbLayerTableRecord
  2
INFTOTAL
 70
     0
 62
     9
  6
CONTINUOUS
370
    18
390
F
  0
ENDTAB
  0
TABLE
  2
STYLE
  5
3
330
0
100
AcDbSymbolTable
 70
     2
  0
STYLE
  5
17
330
3
100
AcDbSymbolTableRecord
100
AcDbTextStyleTableRecord
  2
STANDARD
 70
     0
 40
0.0
 41
1.0
 50
0.0
 71
     0
 42
0.2
  3
txt
  4

  0
STYLE
  5
434
330
3
100
AcDbSymbolTableRecord
100
AcDbTextStyleTableRecord
  2
BMG_Text
 70
     0
 40
3.5
 41
1.0
 50
0.0
 71
     0
 42
0.0
  3
monos.ttf
  4

1001
ACAD
1000
Monospac821 BT
1071
       49
  0
ENDTAB
  0
TABLE
  2
VIEW
  5
5
330
0
100
AcDbSymbolTable
 70
     0
  0
ENDTAB
  0
TABLE
  2
UCS
  5
6
330
0
100
AcDbSymbolTable
 70
     0
  0
ENDTAB
  0
TABLE
  2
APPID
  5
8
330
0
100
AcDbSymbolTable
 70
     1
  0
APPID
  5
16
330
8
100
AcDbSymbolTableRecord
100
AcDbRegAppTableRecord
  2
ACAD
 70
     0
  0
ENDTAB
  0
TABLE
  2
DIMSTYLE
  5
9
330
0
100
AcDbSymbolTable
 70
     1
100
AcDbDimStyleTable
  0
DIMSTYLE
105
18
330
9
100
AcDbSymbolTableRecord
100
AcDbDimStyleTableRecord
  2
STANDARD
 70
     0
178
     0
340
17
  0
ENDTAB
  0
TABLE
  2
BLOCK_RECORD
  5
1
330
0
100
AcDbSymbolTable
 70
     0
  0
BLOCK_RECORD
  5
A
330
1
100
AcDbSymbolTableRecord
100
AcDbBlockTableRecord
  2
*MODEL_SPACE
340
41D
  0
BLOCK_RECORD
  5
B
330
1
100
AcDbSymbolTableRecord
100
AcDbBlockTableRecord
  2
*PAPER_SPACE
340
41E
  0
ENDTAB
  0
ENDSEC
  0
SECTION
  2
BLOCKS
  0
BLOCK
  5
D
330
A
100
AcDbEntity
  8
0
100
AcDbBlockBegin
  2
*MODEL_SPACE
 70
     0
 10
0.0
 20
0.0
 30
0.0
  3
*MODEL_SPACE
  1

  0
ENDBLK
  5
E
330
A
100
AcDbEntity
  8
0
100
AcDbBlockEnd
  0
BLOCK
  5
F
330
B
100
AcDbEntity
 67
     1
  8
0
100
AcDbBlockBegin
  2
*PAPER_SPACE
 70
     0
 10
0.0
 20
0.0
 30
0.0
  3
*PAPER_SPACE
  1

  0
ENDBLK
  5
10
330
B
100
AcDbEntity
 67
     1
  8
0
100
AcDbBlockEnd
  0
ENDSEC
  0
SECTION
  2
ENTITIES
  0
ARC
  5
29
330
A
100
AcDbEntity
  8
1
  6
CONTINUOUS
370
    50
100
AcDbCircle
 10
78.9604003749
 20
144.7342749879
 30
0.0
 40
0.5
100
AcDbArc
 50
66.4218215218
 51
90.0
  0
ARC
  5
2A
330
A
100
AcDbEntity
  8
1
  6
CONTINUOUS
370
    50
100
AcDbCircle
 10
78.9604003749
 20
189.5842749879
 30
0.0
 40
0.5
100
AcDbArc
 50
270.0
 51
293.5781784782001
  0
LINE
  5
2B
330
A
100
AcDbEntity
  8
1
  6
CONTINUOUS
370
    50
100
AcDbLine
 10
78.1604003749
 20
144.9342749879
 30
0.0
 11
78.7032906515
 21
145.1874288814
 31
0.0
  0
LINE
  5
2C
330
A
100
AcDbEntity
  8
1
  6
CONTINUOUS
370
    50
100
AcDbLine
 10
78.7032906515
 20
189.1311210944
 30
0.0
 11
78.1604003749
 21
189.3842749879
 31
0.0
  0
LINE
  5
2D
330
A
100
AcDbEntity
  8
1
  6
CONTINUOUS
370
    50
100
AcDbLine
 10
78.1604003749
 20
189.3842749879
 30
0.0
 11
10.6929217334
 21
179.5452676858
 31
0.0
  0
LINE
  5
2E
330
A
100
AcDbEntity
  8
1
  6
CONTINUOUS
370
    50
100
AcDbLine
 10
10.6929217334
 20
154.77328229
 30
0.0
 11
78.1604003749
 21
144.9342749879
 31
0.0
  0
ARC
  5
2F
330
A
100
AcDbEntity
  8
1
  6
CONTINUOUS
370
    50
100
AcDbCircle
 10
78.9145997824
 20
144.7342749879
 30
0.0
 40
0.5
100
AcDbArc
 50
90.0
 51
115.0
  0
ARC
  5
30
330
A
100
AcDbEntity
  8
1
  6
CONTINUOUS
370
    50
100
AcDbCircle
 10
78.9145997824
 20
189.5842749879
 30
0.0
 40
0.5
100
AcDbArc
 50
245.0
 51
270.0
  0
ARC
  5
31
330
A
100
AcDbEntity
  8
1
  6
CONTINUOUS
370
    50
100
AcDbCircle
 10
102.2104003749
 20
145.2092749879
 30
0.0
 40
5.0
100
AcDbArc
 50
81.890385544
 51
180.0
  0
ARC
  5
32
330
A
100
AcDbEntity
  8
1
  6
CONTINUOUS
370
    50
100
AcDbCircle
 10
102.2104003749
 20
189.1092749879
 30
0.0
 40
5.0
100
AcDbArc
 50
180.0
 51
278.109614456
  0
LINE
  5
33
330
A
100
AcDbEntity
  8
1
  6
CONTINUOUS
370
    50
100
AcDbLine
 10
102.9157371739
 20
150.1592749879
 30
0.0
 11
153.6886837983
 21
150.1592749879
 31
0.0
  0
LINE
  5
34
330
A
100
AcDbEntity
  8
1
  6
CONTINUOUS
370
    50
100
AcDbLine
 10
153.6886837983
 20
184.1592749879
 30
0.0
 11
102.9157371739
 21
184.1592749879
 31
0.0
  0
LINE
  5
35
330
A
100
AcDbEntity
  8
1
  6
CONTINUOUS
370
    50
100
AcDbLine
 10
153.6886837983
 20
150.1592749879
 30
0.0
 11
197.1272722709
 21
153.5779660428
 31
0.0
  0
LINE
  5
36
330
A
100
AcDbEntity
  8
1
  6
CONTINUOUS
370
    50
100
AcDbLine
 10
197.1272722709
 20
180.7405839331
 30
0.0
 11
153.6886837983
 21
184.1592749879
 31
0.0
  0
ARC
  5
37
330
A
100
AcDbEntity
  8
1
  6
CONTINUOUS
370
    50
100
AcDbCircle
 10
196.1604003749
 20
155.328725517
 30
0.0
 40
2.0
100
AcDbArc
 50
298.9100507073
 51
0.0
  0
ARC
  5
38
330
A
100
AcDbEntity
  8
1
  6
CONTINUOUS
370
    50
100
AcDbCircle
 10
196.1604003749
 20
178.9898244588
 30
0.0
 40
2.0
100
AcDbArc
 50
0.0
 51
61.08994929269999
  0
ARC
  5
39
330
A
100
AcDbEntity
  8
1
  6
CONTINUOUS
370
    50
100
AcDbCircle
 10
10.8604003749
 20
155.7089071709
 30
0.0
 40
0.95
100
AcDbArc
 50
180.0
 51
258.0
  0
ARC
  5
3A
330
A
100
AcDbEntity
  8
1
  6
CONTINUOUS
370
    50
100
AcDbCircle
 10
10.8604003749
 20
178.6096428049
 30
0.0
 40
0.95
100
AcDbArc
 50
102.0
 51
180.0
  0
LINE
  5
3B
330
A
100
AcDbEntity
  8
1
  6
CONTINUOUS
370
    50
100
AcDbLine
 10
79.6604003749
 20
185.5092749879
 30
0.0
 11
79.6604003749
 21
137.1093165853
 31
0.0
  0
LINE
  5
3C
330
A
100
AcDbEntity
  8
1
  6
CONTINUOUS
370
    50
100
AcDbLine
 10
79.6604003749
 20
137.1093165853
 30
0.0
 11
79.1604003749
 21
137.8164734857
 31
0.0
  0
LINE
  5
3D
330
A
100
AcDbEntity
  8
1
  6
CONTINUOUS
370
    50
100
AcDbLine
 10
79.1604003749
 20
137.8164734857
 30
0.0
 11
79.1604003749
 21
185.5092749879
 31
0.0
  0
LINE
  5
3E
330
A
100
AcDbEntity
  8
1
  6
CONTINUOUS
370
    50
100
AcDbLine
 10
79.1604003749
 20
185.5092749879
 30
0.0
 11
79.6604003749
 21
185.5092749879
 31
0.0
  0
LINE
  5
3F
330
A
100
AcDbEntity
  8
1
  6
CONTINUOUS
370
    50
100
AcDbLine
 10
92.7822370169
 20
136.6821934354
 30
0.0
 11
92.7822370169
 21
185.5092749879
 31
0.0
  0
LINE
  5
40
330
A
100
AcDbEntity
  8
1
  6
CONTINUOUS
370
    50
100
AcDbLine
 10
96.7104003749
 20
185.5092749879
 30
0.0
 11
92.7822370169
 21
185.5092749879
 31
0.0
  0
LINE
  5
41
330
A
100
AcDbEntity
  8
1
  6
CONTINUOUS
370
    50
100
AcDbLine
 10
96.7104003749
 20
136.6821934354
 30
0.0
 11
96.7104003749
 21
185.5092749879
 31
0.0
  0
LINE
  5
42
330
A
100
AcDbEntity
  8
1
  6
CONTINUOUS
370
    50
100
AcDbLine
 10
96.7104003749
 20
136.6821934354
 30
0.0
 11
92.7822370169
 21
136.6821934354
 31
0.0
  0
LINE
  5
43
330
A
100
AcDbEntity
  8
1
  6
CONTINUOUS
370
    50
100
AcDbLine
 10
92.7822370169
 20
136.6821934354
 30
0.0
 11
92.1767381917
 21
137.5321934379
 31
0.0
  0
LWPOLYLINE
  5
44
330
A
100
AcDbEntity
  8
1
  6
CONTINUOUS
370
    50
100
AcDbPolyline
 90
        3
 70
   128
 43
0.0
 10
91.1854003749
 20
139.3154027289
 10
91.7645657667
 20
138.2726316803
 10
92.1767381917
 20
137.5321934379
  0
LINE
  5
49
330
A
100
AcDbEntity
  8
1
  6
CONTINUOUS
370
    50
100
AcDbLine
 10
91.1854003749
 20
185.5092749879
 30
0.0
 11
91.1854003749
 21
139.3154027289
 31
0.0
  0
LINE
  5
4A
330
A
100
AcDbEntity
  8
1
  6
CONTINUOUS
370
    50
100
AcDbLine
 10
92.7822370169
 20
185.5092749879
 30
0.0
 11
91.1854003749
 21
185.5092749879
 31
0.0
  0
LINE
  5
4B
330
A
100
AcDbEntity
  8
1
  6
CONTINUOUS
370
    50
100
AcDbLine
 10
97.2104003749
 20
185.5092749879
 30
0.0
 11
97.2104003749
 21
137.0863198338
 31
0.0
  0
LINE
  5
4C
330
A
100
AcDbEntity
  8
1
  6
CONTINUOUS
370
    50
100
AcDbLine
 10
97.2104003749
 20
137.0863198338
 30
0.0
 11
96.7104003749
 21
136.6821934354
 31
0.0
  0
LINE
  5
4D
330
A
100
AcDbEntity
  8
1
  6
CONTINUOUS
370
    50
100
AcDbLine
 10
96.7104003749
 20
185.5092749879
 30
0.0
 11
97.2104003749
 21
185.5092749879
 31
0.0
  0
LINE
  5
4E
330
A
100
AcDbEntity
  8
1
  6
CONTINUOUS
370
    50
100
AcDbLine
 10
85.7385637328
 20
136.6821934354
 30
0.0
 11
85.7385637328
 21
185.5092749879
 31
0.0
  0
LINE
  5
4F
330
A
100
AcDbEntity
  8
1
  6
CONTINUOUS
370
    50
100
AcDbLine
 10
85.7385637328
 20
136.6821934354
 30
0.0
 11
81.0104003724
 21
136.6821934354
 31
0.0
  0
LWPOLYLINE
  5
50
330
A
100
AcDbEntity
  8
1
  6
CONTINUOUS
370
    50
100
AcDbPolyline
 90
        3
 70
   128
 43
0.0
 10
79.6604003749
 20
137.1093165853
 10
80.3330190225
 20
136.888228319
 10
81.0104003724
 20
136.6821934354
  0
LINE
  5
55
330
A
100
AcDbEntity
  8
1
  6
CONTINUOUS
370
    50
100
AcDbLine
 10
85.7385637328
 20
185.5092749879
 30
0.0
 11
79.6604003749
 21
185.5092749879
 31
0.0
  0
LINE
  5
56
330
A
100
AcDbEntity
  8
1
  6
CONTINUOUS
370
    50
100
AcDbLine
 10
86.3440625581
 20
137.5321934379
 30
0.0
 11
85.7385637328
 21
136.6821934354
 31
0.0
  0
LINE
  5
57
330
A
100
AcDbEntity
  8
1
  6
CONTINUOUS
370
    50
100
AcDbLine
 10
87.3354003749
 20
185.5092749879
 30
0.0
 11
85.7385637328
 21
185.5092749879
 31
0.0
  0
LINE
  5
58
330
A
100
AcDbEntity
  8
1
  6
CONTINUOUS
370
    50
100
AcDbLine
 10
87.3354003749
 20
139.3154027289
 30
0.0
 11
87.3354003749
 21
185.5092749879
 31
0.0
  0
LWPOLYLINE
  5
59
330
A
100
AcDbEntity
  8
1
  6
CONTINUOUS
370
    50
100
AcDbPolyline
 90
        3
 70
   128
 43
0.0
 10
86.3440625581
 20
137.5321934379
 10
86.7562349831
 20
138.2726316803
 10
87.3354003749
 20
139.3154027289
  0
ARC
  5
5E
330
A
100
AcDbEntity
  8
1
  6
CONTINUOUS
370
    50
100
AcDbCircle
 10
87.8467963136
 20
139.8300453168
 30
0.0
 40
0.5114987785
100
AcDbArc
 50
91.27662714070001
 51
181.1489553389
  0
LINE
  5
5F
330
A
100
AcDbEntity
  8
1
  6
CONTINUOUS
370
    50
100
AcDbLine
 10
87.3354003749
 20
185.5092749879
 30
0.0
 11
87.8354003749
 21
185.5092749879
 31
0.0
  0
LINE
  5
60
330
A
100
AcDbEntity
  8
1
  6
CONTINUOUS
370
    50
100
AcDbLine
 10
87.8354003749
 20
185.5092749879
 30
0.0
 11
87.8354003749
 21
140.3414171316
 31
0.0
  0
ARC
  5
61
330
A
100
AcDbEntity
  8
1
  6
CONTINUOUS
370
    50
100
AcDbCircle
 10
90.6756978844
 20
139.8316685497
 30
0.0
 40
0.5098409115
100
AcDbArc
 50
358.664846518
 51
88.90957100250002
  0
LINE
  5
62
330
A
100
AcDbEntity
  8
1
  6
CONTINUOUS
370
    50
100
AcDbLine
 10
90.6854003749
 20
185.5092749879
 30
0.0
 11
90.6854003749
 21
140.3414171316
 31
0.0
  0
LINE
  5
63
330
A
100
AcDbEntity
  8
1
  6
CONTINUOUS
370
    50
100
AcDbLine
 10
90.6854003749
 20
185.5092749879
 30
0.0
 11
91.1854003749
 21
185.5092749879
 31
0.0
  0
LINE
  5
64
330
A
100
AcDbEntity
  8
1
  6
CONTINUOUS
370
    50
100
AcDbLine
 10
90.6854003749
 20
140.3414171316
 30
0.0
 11
87.8354003749
 21
140.3414171316
 31
0.0
  0
LINE
  5
65
330
A
100
AcDbEntity
  8
1
  6
CONTINUOUS
370
    50
100
AcDbLine
 10
87.8354003749
 20
185.5092749879
 30
0.0
 11
90.6854003749
 21
185.5092749879
 31
0.0
  0
LINE
  5
66
330
A
100
AcDbEntity
  8
1
  6
CONTINUOUS
370
    50
100
AcDbLine
 10
78.1604003749
 20
144.9342749879
 30
0.0
 11
78.1604003749
 21
189.3842749879
 31
0.0
  0
LINE
  5
67
330
A
100
AcDbEntity
  8
1
  6
CONTINUOUS
370
    50
100
AcDbLine
 10
10.6929217334
 20
179.5452676858
 30
0.0
 11
10.6929217334
 21
154.77328229
 31
0.0
  0
LINE
  5
68
330
A
100
AcDbEntity
  8
1
  6
CONTINUOUS
370
    50
100
AcDbLine
 10
102.9157371739
 20
150.1592749879
 30
0.0
 11
102.9157371739
 21
184.1592749879
 31
0.0
  0
LINE
  5
69
330
A
100
AcDbEntity
  8
1
  6
CONTINUOUS
370
    50
100
AcDbLine
 10
79.6604003749
 20
193.069504628
 30
0.0
 11
79.1604003749
 21
192.4543337939
 31
0.0
  0
LINE
  5
6A
330
A
100
AcDbEntity
  8
1
  6
CONTINUOUS
370
    50
100
AcDbLine
 10
79.6604003749
 20
193.069504628
 30
0.0
 11
85.7385637328
 21
193.069504628
 31
0.0
  0
LINE
  5
6B
330
A
100
AcDbEntity
  8
1
  6
CONTINUOUS
370
    50
100
AcDbLine
 10
85.7385637328
 20
193.069504628
 30
0.0
 11
87.3354003749
 21
189.5949880895
 31
0.0
  0
LINE
  5
6C
330
A
100
AcDbEntity
  8
1
  6
CONTINUOUS
370
    50
100
AcDbLine
 10
87.3354003749
 20
188.9658680276
 30
0.0
 11
87.3354003749
 21
189.5949880895
 31
0.0
  0
ARC
  5
6D
330
A
100
AcDbEntity
  8
1
  6
CONTINUOUS
370
    50
100
AcDbCircle
 10
87.9091206857
 20
188.8831559912
 30
0.0
 40
0.5796518576
100
AcDbArc
 50
171.7963139132
 51
262.6933157898
  0
LINE
  5
6E
330
A
100
AcDbEntity
  8
1
  6
CONTINUOUS
370
    50
100
AcDbLine
 10
90.6854003749
 20
188.3082111314
 30
0.0
 11
87.8354003749
 21
188.3082111314
 31
0.0
  0
LWPOLYLINE
  5
6F
330
A
100
AcDbEntity
  8
1
  6
CONTINUOUS
370
    50
100
AcDbPolyline
 90
        7
 70
   128
 43
0.0
 10
91.1854003749
 20
188.9658680276
 10
91.1408918466
 20
188.6956482364
 10
91.0360070911
 20
188.4978658403
 10
90.914099472
 20
188.3814621967
 10
90.8430959588
 20
188.3419854365
 10
90.7166176999
 20
188.3095025856
 10
90.6854003749
 20
188.3082111314
  0
LINE
  5
78
330
A
100
AcDbEntity
  8
1
  6
CONTINUOUS
370
    50
100
AcDbLine
 10
91.1854003749
 20
189.5949880895
 30
0.0
 11
91.1854003749
 21
188.9658680276
 31
0.0
  0
LINE
  5
79
330
A
100
AcDbEntity
  8
1
  6
CONTINUOUS
370
    50
100
AcDbLine
 10
91.1854003749
 20
189.5949880895
 30
0.0
 11
92.7822370169
 21
193.069504628
 31
0.0
  0
LINE
  5
7A
330
A
100
AcDbEntity
  8
1
  6
CONTINUOUS
370
    50
100
AcDbLine
 10
92.7822370169
 20
193.069504628
 30
0.0
 11
96.7104003749
 21
193.069504628
 31
0.0
  0
LINE
  5
7B
330
A
100
AcDbEntity
  8
1
  6
CONTINUOUS
370
    50
100
AcDbLine
 10
97.2104003749
 20
192.4543337939
 30
0.0
 11
96.7104003749
 21
193.069504628
 31
0.0
  0
LINE
  5
7C
330
A
100
AcDbEntity
  8
1
  6
CONTINUOUS
370
    50
100
AcDbLine
 10
79.1604003749
 20
192.4543337939
 30
0.0
 11
79.1604003749
 21
185.5092749879
 31
0.0
  0
LINE
  5
7D
330
A
100
AcDbEntity
  8
1
  6
CONTINUOUS
370
    50
100
AcDbLine
 10
97.2104003749
 20
192.4543337939
 30
0.0
 11
97.2104003749
 21
185.5092749879
 31
0.0
  0
LINE
  5
7E
330
A
100
AcDbEntity
  8
1
  6
CONTINUOUS
370
    50
100
AcDbLine
 10
90.6854003749
 20
193.9771328442
 30
0.0
 11
90.6854003749
 21
188.3082111314
 31
0.0
  0
ARC
  5
7F
330
A
100
AcDbEntity
  8
1
  6
CONTINUOUS
370
    50
100
AcDbCircle
 10
90.6747669666
 20
194.4877737453
 30
0.0
 40
0.5107516023
100
AcDbArc
 50
271.1929349491
 51
1.2326475305
  0
LINE
  5
80
330
A
100
AcDbEntity
  8
1
  6
CONTINUOUS
370
    50
100
AcDbLine
 10
87.8354003749
 20
193.9771328442
 30
0.0
 11
87.8354003749
 21
188.3082111314
 31
0.0
  0
LINE
  5
81
330
A
100
AcDbEntity
  8
1
  6
CONTINUOUS
370
    50
100
AcDbLine
 10
90.6854003749
 20
193.9771328442
 30
0.0
 11
87.8354003749
 21
193.9771328442
 31
0.0
  0
ARC
  5
82
330
A
100
AcDbEntity
  8
1
  6
CONTINUOUS
370
    50
100
AcDbCircle
 10
87.8476940285
 20
194.489365152
 30
0.0
 40
0.5123798114
100
AcDbArc
 50
178.949261051
 51
268.6251564693
  0
LINE
  5
83
330
A
100
AcDbEntity
  8
1
  6
CONTINUOUS
370
    50
100
AcDbLine
 10
92.1767381917
 20
196.7863565379
 30
0.0
 11
92.7822370169
 21
197.6363565404
 31
0.0
  0
LINE
  5
84
330
A
100
AcDbEntity
  8
1
  6
CONTINUOUS
370
    50
100
AcDbLine
 10
92.7822370169
 20
193.069504628
 30
0.0
 11
92.7822370169
 21
197.6363565404
 31
0.0
  0
LINE
  5
85
330
A
100
AcDbEntity
  8
1
  6
CONTINUOUS
370
    50
100
AcDbLine
 10
91.1854003749
 20
195.0031472469
 30
0.0
 11
92.1767381917
 21
196.7863565379
 31
0.0
  0
LINE
  5
86
330
A
100
AcDbEntity
  8
1
  6
CONTINUOUS
370
    50
100
AcDbLine
 10
91.1854003749
 20
195.0031472469
 30
0.0
 11
91.1854003749
 21
189.5949880895
 31
0.0
  0
LINE
  5
87
330
A
100
AcDbEntity
  8
1
  6
CONTINUOUS
370
    50
100
AcDbLine
 10
85.7385637328
 20
197.6363565404
 30
0.0
 11
86.3440625581
 21
196.7863565379
 31
0.0
  0
LINE
  5
88
330
A
100
AcDbEntity
  8
1
  6
CONTINUOUS
370
    50
100
AcDbLine
 10
86.3440625581
 20
196.7863565379
 30
0.0
 11
87.3354003749
 21
195.0031472469
 31
0.0
  0
LINE
  5
89
330
A
100
AcDbEntity
  8
1
  6
CONTINUOUS
370
    50
100
AcDbLine
 10
85.7385637328
 20
193.069504628
 30
0.0
 11
85.7385637328
 21
197.6363565404
 31
0.0
  0
LINE
  5
8A
330
A
100
AcDbEntity
  8
1
  6
CONTINUOUS
370
    50
100
AcDbLine
 10
87.3354003749
 20
189.5949880895
 30
0.0
 11
87.3354003749
 21
195.0031472469
 31
0.0
  0
LINE
  5
8B
330
A
100
AcDbEntity
  8
1
  6
CONTINUOUS
370
    50
100
AcDbLine
 10
79.6604003749
 20
197.2092333906
 30
0.0
 11
79.6604003749
 21
193.069504628
 31
0.0
  0
LINE
  5
8C
330
A
100
AcDbEntity
  8
1
  6
CONTINUOUS
370
    50
100
AcDbLine
 10
79.1604003749
 20
196.5020764902
 30
0.0
 11
79.6604003749
 21
197.2092333906
 31
0.0
  0
LINE
  5
8D
330
A
100
AcDbEntity
  8
1
  6
CONTINUOUS
370
    50
100
AcDbLine
 10
79.1604003749
 20
192.4543337939
 30
0.0
 11
79.1604003749
 21
196.5020764902
 31
0.0
  0
LINE
  5
8E
330
A
100
AcDbEntity
  8
1
  6
CONTINUOUS
370
    50
100
AcDbLine
 10
96.7104003749
 20
193.069504628
 30
0.0
 11
96.7104003749
 21
197.6363565404
 31
0.0
  0
LINE
  5
8F
330
A
100
AcDbEntity
  8
1
  6
CONTINUOUS
370
    50
100
AcDbLine
 10
96.7104003749
 20
197.6363565404
 30
0.0
 11
97.2104003749
 21
197.2322301421
 31
0.0
  0
LINE
  5
90
330
A
100
AcDbEntity
  8
1
  6
CONTINUOUS
370
    50
100
AcDbLine
 10
97.2104003749
 20
197.2322301421
 30
0.0
 11
97.2104003749
 21
192.4543337939
 31
0.0
  0
LINE
  5
91
330
A
100
AcDbEntity
  8
1
  6
CONTINUOUS
370
    50
100
AcDbLine
 10
92.7822370169
 20
197.6363565404
 30
0.0
 11
96.7104003749
 21
197.6363565404
 31
0.0
  0
LINE
  5
92
330
A
100
AcDbEntity
  8
1
  6
CONTINUOUS
370
    50
100
AcDbLine
 10
81.0104003724
 20
197.6363565404
 30
0.0
 11
85.7385637328
 21
197.6363565404
 31
0.0
  0
LWPOLYLINE
  5
93
330
A
100
AcDbEntity
  8
1
  6
CONTINUOUS
370
    50
100
AcDbPolyline
 90
        3
 70
   128
 43
0.0
 10
79.6604003749
 20
197.2092333906
 10
80.3330190225
 20
197.4303216568
 10
81.0104003724
 20
197.6363565404
  0
LINE
  5
98
330
A
100
AcDbEntity
  8
1
  6
CONTINUOUS
370
    50
100
AcDbLine
 10
153.6886837983
 20
150.1592749879
 30
0.0
 11
153.6886837983
 21
184.1592749879
 31
0.0
  0
LINE
  5
99
330
A
100
AcDbEntity
  8
1
  6
CONTINUOUS
370
    50
100
AcDbLine
 10
197.1272722709
 20
180.7405839331
 30
0.0
 11
197.1272722709
 21
153.5779660428
 31
0.0
  0
LINE
  5
9A
330
A
100
AcDbEntity
  8
1
  6
CONTINUOUS
370
    50
100
AcDbLine
 10
198.1604003749
 20
155.3287255407
 30
0.0
 11
198.1604003749
 21
178.9898244588
 31
0.0
  0
LINE
  5
9B
330
A
100
AcDbEntity
  8
1
  6
CONTINUOUS
370
    50
100
AcDbLine
 10
9.9104003749
 20
155.7089071982
 30
0.0
 11
9.9104003749
 21
178.6096428049
 31
0.0
  0
LINE
  5
9C
330
A
100
AcDbEntity
  8
1
  6
CONTINUOUS
370
    50
100
AcDbLine
 10
78.9604003749
 20
145.2342749879
 30
0.0
 11
78.9604003749
 21
189.0842749879
 31
0.0
  0
LINE
  5
9D
330
A
100
AcDbEntity
  8
1
  6
CONTINUOUS
370
    50
100
AcDbLine
 10
78.7032906515
 20
145.1874288814
 30
0.0
 11
78.7032906515
 21
189.1311210944
 31
0.0
  0
LINE
  5
9E
330
A
100
AcDbEntity
  8
1
  6
CONTINUOUS
370
    50
100
AcDbLine
 10
78.9145997824
 20
145.2342749879
 30
0.0
 11
78.9145997824
 21
189.0842749879
 31
0.0
  0
LINE
  5
9F
330
A
100
AcDbEntity
  8
1
  6
CONTINUOUS
370
    50
100
AcDbLine
 10
10.6628842686
 20
154.7796669502
 30
0.0
 11
10.6628842686
 21
179.5388830256
 31
0.0
  0
LWPOLYLINE
  5
A0
330
A
100
AcDbEntity
  8
1
  6
CONTINUOUS
370
    50
100
AcDbPolyline
 90
       25
 70
   128
 43
0.0
 10
93.8111793086
 20
158.5271100086
 10
93.7616536373
 20
157.9968874914
 10
93.8041135807
 20
157.5027987625
 10
93.9356655637
 20
157.0785151523
 10
94.1473445361
 20
156.7529508877
 10
94.4247249258
 20
156.5482926352
 10
94.7489037175
 20
156.4784875165
 10
95.0977886625
 20
156.5482926352
 10
95.4476038282
 20
156.7529508877
 10
95.7745098892
 20
157.0785151523
 10
96.0562287376
 20
157.5027987625
 10
96.2735616996
 20
157.9968874914
 10
96.4116978928
 20
158.5271100086
 10
96.4612235641
 20
159.0573325258
 10
96.4187636208
 20
159.5514212547
 10
96.2872116378
 20
159.9757048649
 10
96.0755326654
 20
160.3012691295
 10
95.7981522757
 20
160.505927382
 10
95.4739734839
 20
160.5757325007
 10
95.125088539
 20
160.505927382
 10
94.7752733733
 20
160.3012691295
 10
94.4483673123
 20
159.9757048649
 10
94.1666484639
 20
159.5514212547
 10
93.9493155019
 20
159.0573325258
 10
93.8111793086
 20
158.5271100086
  0
LWPOLYLINE
  5
BB
330
A
100
AcDbEntity
  8
1
  6
CONTINUOUS
370
    50
100
AcDbPolyline
 90
       18
 70
   128
 43
0.0
 10
88.9997285116
 20
158.7306106051
 10
88.9830589929
 20
158.6264291978
 10
88.9669571347
 20
158.5785957369
 10
88.9519712665
 20
158.5887391335
 10
88.9386117139
 20
158.6565139664
 10
88.9273334206
 20
158.779612245
 10
88.9185204553
 20
158.9538420051
 10
88.912472933
 20
159.1732700611
 10
88.9093967947
 20
159.4304240537
 10
88.9093967947
 20
159.7165469123
 10
88.912472933
 20
160.0218950659
 10
88.9185204553
 20
160.3360702494
 10
88.9273334206
 20
160.6483736038
 10
88.9386117139
 20
160.9481700129
 10
88.9519712665
 20
161.2252502696
 10
88.9669571347
 20
161.470178738
 10
88.9830589929
 20
161.6746146729
 10
88.9997285116
 20
161.8315962537
  0
LWPOLYLINE
  5
CF
330
A
100
AcDbEntity
  8
1
  6
CONTINUOUS
370
    50
100
AcDbPolyline
 90
       18
 70
   128
 43
0.0
 10
88.9997285116
 20
161.8315962537
 10
88.5021639101
 20
161.8126262603
 10
88.0215432743
 20
161.7415020938
 10
87.5742335636
 20
161.6206458023
 10
87.1754673736
 20
161.4541730019
 10
86.8388242088
 20
161.2477527241
 10
86.5757680482
 20
161.008414364
 10
86.3952569541
 20
160.7443083023
 10
86.303438015
 20
160.4644283542
 10
86.303438015
 20
160.1783054957
 10
86.3952569541
 20
159.8956832975
 10
86.5757680482
 20
159.6261861197
 10
86.8388242088
 20
159.3789913654
 10
87.1754673736
 20
159.1625169554
 10
87.5742335636
 20
158.9841346662
 10
88.0215432743
 20
158.8499190927
 10
88.5021639101
 20
158.7644407853
 10
88.9997285116
 20
158.7306106051
  0
LWPOLYLINE
  5
E3
330
A
100
AcDbEntity
  8
1
  6
CONTINUOUS
370
    50
100
AcDbPolyline
 90
       25
 70
   128
 43
0.0
 10
93.8126047628
 20
158.5281328209
 10
93.9502108954
 20
159.0563207511
 10
94.1667099003
 20
159.5485135468
 10
94.4473477281
 20
159.9711690823
 10
94.7729993746
 20
160.2954840813
 10
95.1214722183
 20
160.4993570126
 10
95.4690184107
 20
160.5688942728
 10
95.7919532532
 20
160.4993570126
 10
96.0682692699
 20
160.2954840813
 10
96.2791359809
 20
159.9711690823
 10
96.4101831684
 20
159.5485135468
 10
96.4524801831
 20
159.0563207511
 10
96.4031445533
 20
158.5281328209
 10
96.2655384207
 20
157.9999448906
 10
96.0490394158
 20
157.5077520949
 10
95.768401588
 20
157.0850965595
 10
95.4427499414
 20
156.7607815605
 10
95.0942770978
 20
156.5569086292
 10
94.7467309054
 20
156.487371369
 10
94.4237960629
 20
156.5569086292
 10
94.1474800462
 20
156.7607815605
 10
93.9366133351
 20
157.0850965595
 10
93.8055661476
 20
157.5077520949
 10
93.763269133
 20
157.9999448906
 10
93.8126047628
 20
158.5281328209
  0
LWPOLYLINE
  5
FE
330
A
100
AcDbEntity
  8
1
  6
CONTINUOUS
370
    50
100
AcDbPolyline
 90
       22
 70
   128
 43
0.0
 10
95.8454322378
 20
158.6096591342
 10
95.7160833126
 20
158.1352117857
 10
95.5074510937
 20
157.7029211662
 10
95.2380734694
 20
157.3511981942
 10
94.9318858237
 20
157.1112949995
 10
94.6160942726
 20
157.0045280336
 10
94.3187582813
 20
157.04038401
 10
94.0662974575
 20
157.2156769678
 10
93.8811440531
 20
157.5148313585
 10
93.7797497609
 20
157.9112660017
 10
93.7711239084
 20
158.3697559395
 10
93.8560329407
 20
158.849562329
 10
94.0269323176
 20
159.3080522668
 10
94.2686368795
 20
159.70448691
 10
94.5596701153
 20
160.0036413007
 10
94.8741724448
 20
160.1789342585
 10
95.184198956
 20
160.2147902349
 10
95.4622024327
 20
160.108023269
 10
95.6834810461
 20
159.8681200743
 10
95.8283732202
 20
159.5163971023
 10
95.8840046497
 20
159.0841064828
 10
95.8454322378
 20
158.6096591342
  0
ARC
  5
116
330
A
100
AcDbEntity
  8
1
  6
CONTINUOUS
370
    50
100
AcDbCircle
 10
90.5717472666
 20
161.636575699
 30
0.0
 40
1.5840694375
100
AcDbArc
 50
169.5837820598
 51
172.9281661012
  0
ARC
  5
117
330
A
100
AcDbEntity
  8
1
  6
CONTINUOUS
370
    50
100
AcDbCircle
 10
84.7737111553
 20
151.87655832
 30
0.0
 40
10.9045232037
100
AcDbArc
 50
65.7827110029
 51
67.1179062878
  0
ARC
  5
118
330
A
100
AcDbEntity
  8
1
  6
CONTINUOUS
370
    50
100
AcDbCircle
 10
88.9293391033
 20
157.1093009377
 30
0.0
 40
4.7228198907
100
AcDbArc
 50
86.14663913320001
 51
89.1460260104
  0
ARC
  5
119
330
A
100
AcDbEntity
  8
1
  6
CONTINUOUS
370
    50
100
AcDbCircle
 10
89.0702560687
 20
163.4462598928
 30
0.0
 40
4.7161766655
100
AcDbArc
 50
269.1431444838
 51
272.1444122427
  0
ARC
  5
11A
330
A
100
AcDbEntity
  8
1
  6
CONTINUOUS
370
    50
100
AcDbCircle
 10
95.0201236614
 20
169.6820648752
 30
0.0
 40
12.3776279013
100
AcDbArc
 50
240.9706336715
 51
242.1966722692
  0
ARC
  5
11B
330
A
100
AcDbEntity
  8
1
  6
CONTINUOUS
370
    50
100
AcDbCircle
 10
84.7444332342
 20
159.2600581836
 30
0.0
 40
4.2881059498
100
AcDbArc
 50
352.9076566901
 51
354.6390928976999
  0
LWPOLYLINE
  5
11C
330
A
100
AcDbEntity
  8
1
  6
CONTINUOUS
370
    50
100
AcDbPolyline
 90
       22
 70
   128
 43
0.0
 10
85.6633174255
 20
160.9454194229
 10
85.6247450136
 20
160.4709720744
 10
85.680376443
 20
160.0386814548
 10
85.8252686172
 20
159.6869584829
 10
86.0465472306
 20
159.4470552882
 10
86.3245507073
 20
159.3402883223
 10
86.6345772185
 20
159.3761442987
 10
86.949079548
 20
159.5514372565
 10
87.2401127838
 20
159.8505916472
 10
87.4818173456
 20
160.2470262903
 10
87.6527167225
 20
160.7055162282
 10
87.7376257548
 20
161.1853226177
 10
87.7289999024
 20
161.6438125555
 10
87.6276056101
 20
162.0402471987
 10
87.4424522058
 20
162.3394015894
 10
87.1899913819
 20
162.5146945472
 10
86.8926553906
 20
162.5505505236
 10
86.5768638396
 20
162.4437835577
 10
86.2706761939
 20
162.2038803629
 10
86.0012985696
 20
161.852157391
 10
85.7926663507
 20
161.4198667715
 10
85.6633174255
 20
160.9454194229
  0
LINE
  5
134
330
A
100
AcDbEntity
  8
1
  6
CONTINUOUS
370
    50
100
AcDbLine
 10
79.4135542684
 20
144.5592749879
 30
0.0
 11
79.4135542684
 21
190.1340715566
 31
0.0
  0
LINE
  5
135
330
A
100
AcDbEntity
  8
1
  6
CONTINUOUS
370
    50
100
AcDbLine
 10
79.4604003749
 20
144.5592749879
 30
0.0
 11
79.4604003749
 21
189.9406248884
 31
0.0
  0
LWPOLYLINE
  5
136
330
A
100
AcDbEntity
  8
1
  6
CONTINUOUS
370
    50
100
AcDbPolyline
 90
        9
 70
   128
 43
0.0
 10
89.2467274617
 20
161.8214440118
 10
89.2176055118
 20
161.8392975881
 10
89.1884290827
 20
161.8557038668
 10
89.1592259606
 20
161.8706472234
 10
89.1300239569
 20
161.8841134265
 10
89.1008508821
 20
161.8960896517
 10
89.0717345191
 20
161.9065644935
 10
89.0427025969
 20
161.9155279761
 10
89.0137827638
 20
161.9229715632
  0
LWPOLYLINE
  5
141
330
A
100
AcDbEntity
  8
1
  6
CONTINUOUS
370
    50
100
AcDbPolyline
 90
       24
 70
   128
 43
0.0
 10
85.438947099
 20
160.947617886
 10
85.3917150998
 20
160.4212257587
 10
85.4398282565
 20
159.9338737274
 10
85.5797182365
 20
159.5217064627
 10
85.8010100399
 20
159.2152925252
 10
86.0872914659
 20
159.0373572349
 10
86.4173303309
 20
159.0010972382
 10
86.7666491621
 20
159.1092017732
 10
87.1093405798
 20
159.3536532211
 10
87.4199887292
 20
159.7163217363
 10
87.6755542582
 20
160.1703098541
 10
87.8570830407
 20
160.6819473527
 10
87.9511119174
 20
161.2132884194
 10
87.9506671965
 20
161.724925918
 10
87.855781861
 20
162.1789140358
 10
87.6734931221
 20
162.541582551
 10
87.4173205018
 20
162.7860339989
 10
87.1062631513
 20
162.8941385339
 10
86.7633907714
 20
162.8578785372
 10
86.4141326379
 20
162.6799432468
 10
86.0843916288
 20
162.3735293093
 10
85.7986231263
 20
161.9613620447
 10
85.578021273
 20
161.4740100133
 10
85.438947099
 20
160.947617886
  0
LWPOLYLINE
  5
15B
330
A
100
AcDbEntity
  8
1
  6
CONTINUOUS
370
    50
100
AcDbPolyline
 90
       24
 70
   128
 43
0.0
 10
85.4466075435
 20
160.9454194229
 10
85.3993755442
 20
160.4190272956
 10
85.447488701
 20
159.9316752643
 10
85.5873786809
 20
159.5195079996
 10
85.8086704843
 20
159.2130940621
 10
86.0949519104
 20
159.0351587718
 10
86.4249907754
 20
158.9988987751
 10
86.7743096066
 20
159.1070033101
 10
87.1170010242
 20
159.351454758
 10
87.4276491736
 20
159.7141232732
 10
87.6832147027
 20
160.168111391
 10
87.8647434852
 20
160.6797488896
 10
87.9587723618
 20
161.2110899563
 10
87.9583276409
 20
161.7227274549
 10
87.8634423054
 20
162.1767155727
 10
87.6811535666
 20
162.5393840879
 10
87.4249809462
 20
162.7838355358
 10
87.1139235958
 20
162.8919400708
 10
86.7710512158
 20
162.8556800741
 10
86.4217930823
 20
162.6777447837
 10
86.0920520732
 20
162.3713308462
 10
85.8062835707
 20
161.9591635816
 10
85.5856817174
 20
161.4718115502
 10
85.4466075435
 20
160.9454194229
  0
LWPOLYLINE
  5
175
330
A
100
AcDbEntity
  8
1
  6
CONTINUOUS
370
    50
100
AcDbPolyline
 90
       22
 70
   128
 43
0.0
 10
85.6556569811
 20
160.947617886
 10
85.6170845691
 20
160.4731705375
 10
85.6727159986
 20
160.0408799179
 10
85.8176081728
 20
159.689156946
 10
86.0388867861
 20
159.4492537513
 10
86.3168902629
 20
159.3424867854
 10
86.626916774
 20
159.3783427618
 10
86.9414191036
 20
159.5536357196
 10
87.2324523394
 20
159.8527901103
 10
87.4741569012
 20
160.2492247535
 10
87.6450562781
 20
160.7077146913
 10
87.7299653104
 20
161.1875210808
 10
87.721339458
 20
161.6460110186
 10
87.6199451657
 20
162.0424456618
 10
87.4347917614
 20
162.3416000525
 10
87.1823309375
 20
162.5168930103
 10
86.8849949462
 20
162.5527489867
 10
86.5692033952
 20
162.4459820208
 10
86.2630157495
 20
162.206078826
 10
85.9936381252
 20
161.8543558541
 10
85.7850059063
 20
161.4220652346
 10
85.6556569811
 20
160.947617886
  0
LWPOLYLINE
  5
18D
330
A
100
AcDbEntity
  8
1
  6
CONTINUOUS
370
    50
100
AcDbPolyline
 90
       41
 70
   128
 43
0.0
 10
70.9158157024
 20
165.1777898428
 10
70.859796194
 20
164.9794558535
 10
70.8382718464
 20
164.7712259937
 10
70.8535554211
 20
164.5705515477
 10
70.9057518377
 20
164.3716996763
 10
70.9890130696
 20
164.1913960055
 10
71.1038181274
 20
164.0226928269
 10
71.2550730462
 20
163.8619624743
 10
71.433661699
 20
163.7204358612
 10
71.7332471613
 20
163.5508296218
 10
72.0698464625
 20
163.4235424152
 10
72.563250128
 20
163.3154548904
 10
73.0849195505
 20
163.274103623
 10
73.7637410235
 20
163.3100103743
 10
74.4451698705
 20
163.4444756235
 10
74.871571594
 20
163.5885961619
 10
75.2778512306
 20
163.7888603139
 10
75.4919261368
 20
163.9339971186
 10
75.6854686498
 20
164.1081158062
 10
75.8032415353
 20
164.2523767028
 10
75.8971638537
 20
164.4168398032
 10
75.9459623239
 20
164.5545318747
 10
75.9702506321
 20
164.7029774494
 10
75.9665376441
 20
164.8504744893
 10
75.9347677949
 20
165.0008954689
 10
75.8817769181
 20
165.1366442968
 10
75.808267854
 20
165.2675383857
 10
75.6548978485
 20
165.4631204201
 10
75.4670416024
 20
165.6392201472
 10
75.1164147677
 20
165.8792016471
 10
74.7230351977
 20
166.0707458133
 10
74.0884275085
 20
166.270158785
 10
73.4106390594
 20
166.3670449045
 10
72.8522714522
 20
166.3609379865
 10
72.2883988203
 20
166.2644215809
 10
71.9363830303
 20
166.1453238321
 10
71.5992726786
 20
165.9716262439
 10
71.3671894292
 20
165.8019468428
 10
71.1605936021
 20
165.5938669813
 10
71.0217177529
 20
165.3980582937
 10
70.9158157024
 20
165.1777898428
  0
LWPOLYLINE
  5
1B8
330
A
100
AcDbEntity
  8
1
  6
CONTINUOUS
370
    50
100
AcDbPolyline
 90
        9
 70
   128
 43
0.0
 10
89.0137827638
 20
158.8594246481
 10
89.0427025969
 20
158.8386161388
 10
89.0717345191
 20
158.8192180239
 10
89.1008508821
 20
158.801248777
 10
89.1300239569
 20
158.7847255112
 10
89.1592259606
 20
158.7696639624
 10
89.1884290827
 20
158.7560784743
 10
89.2176055118
 20
158.7439819852
 10
89.2467274617
 20
158.733386015
  0
LINE
  5
1C3
330
A
100
AcDbEntity
  8
1
  6
CONTINUOUS
370
    50
100
AcDbLine
 10
79.1604003749
 20
143.8092749879
 30
0.0
 11
81.8604003749
 21
143.8092749879
 31
0.0
  0
LINE
  5
1C4
330
A
100
AcDbEntity
  8
1
  6
CONTINUOUS
370
    50
100
AcDbLine
 10
81.8604003749
 20
192.7092749879
 30
0.0
 11
79.1604003749
 21
192.7092749879
 31
0.0
  0
LINE
  5
1C5
330
A
100
AcDbEntity
  8
1
  6
CONTINUOUS
370
    50
100
AcDbLine
 10
81.5497402031
 20
144.5592749879
 30
0.0
 11
79.1604003749
 21
144.5592749879
 31
0.0
  0
LINE
  5
1C6
330
A
100
AcDbEntity
  8
1
  6
CONTINUOUS
370
    50
100
AcDbLine
 10
79.1604003749
 20
191.9592749879
 30
0.0
 11
81.5497402031
 21
191.9592749879
 31
0.0
  0
LINE
  5
1C7
330
A
100
AcDbEntity
  8
1
  6
CONTINUOUS
370
    50
100
AcDbLine
 10
10.181686821
 20
158.3440936182
 30
0.0
 11
10.181686821
 21
175.9744563576
 31
0.0
  0
LINE
  5
1C8
330
A
100
AcDbEntity
  8
1
  6
CONTINUOUS
370
    50
100
AcDbLine
 10
197.0971783505
 20
175.1592749879
 30
0.0
 11
197.0971783505
 21
159.1592749879
 31
0.0
  0
LINE
  5
1C9
330
A
100
AcDbEntity
  8
1
  6
CONTINUOUS
370
    50
100
AcDbLine
 10
81.0104003724
 20
136.6821934354
 30
0.0
 11
81.8604003749
 21
137.5321934379
 31
0.0
  0
LINE
  5
1CA
330
A
100
AcDbEntity
  8
1
  6
CONTINUOUS
370
    50
100
AcDbLine
 10
81.0104003724
 20
197.6363565404
 30
0.0
 11
81.8604003749
 21
196.7863565379
 31
0.0
  0
LINE
  5
1CB
330
A
100
AcDbEntity
  8
1
  6
CONTINUOUS
370
    50
100
AcDbLine
 10
10.681686821
 20
158.6327687528
 30
0.0
 11
10.681686821
 21
175.685781223
 31
0.0
  0
LINE
  5
1CC
330
A
100
AcDbEntity
  8
1
  6
CONTINUOUS
370
    50
100
AcDbLine
 10
15.8403041855
 20
175.6592749879
 30
0.0
 11
15.8403041855
 21
158.6592749879
 31
0.0
  0
LINE
  5
1CD
330
A
100
AcDbEntity
  8
1
  6
CONTINUOUS
370
    50
100
AcDbLine
 10
16.1001118066
 20
175.8092749879
 30
0.0
 11
16.1001118066
 21
158.5092749879
 31
0.0
  0
LINE
  5
1CE
330
A
100
AcDbEntity
  8
1
  6
CONTINUOUS
370
    50
100
AcDbLine
 10
18.4104003749
 20
175.8092749879
 30
0.0
 11
18.4104003749
 21
158.5092749879
 31
0.0
  0
LINE
  5
1CF
330
A
100
AcDbEntity
  8
1
  6
CONTINUOUS
370
    50
100
AcDbLine
 10
19.3197270489
 20
174.2342749879
 30
0.0
 11
19.3197270489
 21
160.0842749879
 31
0.0
  0
LINE
  5
1D0
330
A
100
AcDbEntity
  8
1
  6
CONTINUOUS
370
    50
100
AcDbLine
 10
10.9104003749
 20
175.6592749879
 30
0.0
 11
10.9104003749
 21
158.6592749879
 31
0.0
  0
LINE
  5
1D1
330
A
100
AcDbEntity
  8
1
  6
CONTINUOUS
370
    50
100
AcDbLine
 10
148.6604003749
 20
175.3592749879
 30
0.0
 11
148.6604003749
 21
158.9775865832
 31
0.0
  0
LINE
  5
1D2
330
A
100
AcDbEntity
  8
1
  6
CONTINUOUS
370
    50
100
AcDbLine
 10
148.1604003749
 20
159.4592749989
 30
0.0
 11
148.1604003749
 21
174.8592749879
 31
0.0
  0
LINE
  5
1D3
330
A
100
AcDbEntity
  8
1
  6
CONTINUOUS
370
    50
100
AcDbLine
 10
158.0583277807
 20
158.9592749879
 30
0.0
 11
158.0583277807
 21
175.3592749879
 31
0.0
  0
LINE
  5
1D4
330
A
100
AcDbEntity
  8
1
  6
CONTINUOUS
370
    50
100
AcDbLine
 10
158.1737978345
 20
175.1592749879
 30
0.0
 11
158.1737978345
 21
159.1592749879
 31
0.0
  0
LINE
  5
1D5
330
A
100
AcDbEntity
  8
1
  6
CONTINUOUS
370
    50
100
AcDbLine
 10
92.1767381917
 20
137.5321934379
 30
0.0
 11
97.2104003749
 21
137.5321934379
 31
0.0
  0
LINE
  5
1D6
330
A
100
AcDbEntity
  8
1
  6
CONTINUOUS
370
    50
100
AcDbLine
 10
81.8604003749
 20
137.5321934379
 30
0.0
 11
86.3440625581
 21
137.5321934379
 31
0.0
  0
LINE
  5
1D7
330
A
100
AcDbEntity
  8
1
  6
CONTINUOUS
370
    50
100
AcDbLine
 10
81.8604003749
 20
137.5321934379
 30
0.0
 11
81.8604003749
 21
143.8092749879
 31
0.0
  0
LINE
  5
1D8
330
A
100
AcDbEntity
  8
1
  6
CONTINUOUS
370
    50
100
AcDbLine
 10
81.8604003749
 20
143.8092749879
 30
0.0
 11
97.2104003749
 21
143.8092749879
 31
0.0
  0
LINE
  5
1D9
330
A
100
AcDbEntity
  8
1
  6
CONTINUOUS
370
    50
100
AcDbLine
 10
97.2104003749
 20
144.5592749879
 30
0.0
 11
81.5497402031
 21
144.5592749879
 31
0.0
  0
LINE
  5
1DA
330
A
100
AcDbEntity
  8
1
  6
CONTINUOUS
370
    50
100
AcDbLine
 10
81.8604003749
 20
143.8092749879
 30
0.0
 11
81.5497402031
 21
144.5592749879
 31
0.0
  0
LINE
  5
1DB
330
A
100
AcDbEntity
  8
1
  6
CONTINUOUS
370
    50
100
AcDbLine
 10
81.5497402031
 20
191.9592749879
 30
0.0
 11
97.2104003749
 21
191.9592749879
 31
0.0
  0
LINE
  5
1DC
330
A
100
AcDbEntity
  8
1
  6
CONTINUOUS
370
    50
100
AcDbLine
 10
81.8604003749
 20
192.7092749879
 30
0.0
 11
81.5497402031
 21
191.9592749879
 31
0.0
  0
LINE
  5
1DD
330
A
100
AcDbEntity
  8
1
  6
CONTINUOUS
370
    50
100
AcDbLine
 10
97.2104003749
 20
192.7092749879
 30
0.0
 11
81.8604003749
 21
192.7092749879
 31
0.0
  0
LINE
  5
1DE
330
A
100
AcDbEntity
  8
1
  6
CONTINUOUS
370
    50
100
AcDbLine
 10
92.1767381917
 20
196.7863565379
 30
0.0
 11
97.2104003749
 21
196.7863565379
 31
0.0
  0
LINE
  5
1DF
330
A
100
AcDbEntity
  8
1
  6
CONTINUOUS
370
    50
100
AcDbLine
 10
81.8604003749
 20
196.7863565379
 30
0.0
 11
86.3440625581
 21
196.7863565379
 31
0.0
  0
LINE
  5
1E0
330
A
100
AcDbEntity
  8
1
  6
CONTINUOUS
370
    50
100
AcDbLine
 10
81.8604003749
 20
196.7863565379
 30
0.0
 11
81.8604003749
 21
192.7092749879
 31
0.0
  0
LINE
  5
1E1
330
A
100
AcDbEntity
  8
1
  6
CONTINUOUS
370
    50
100
AcDbLine
 10
43.9104003749
 20
175.1592749879
 30
0.0
 11
43.9104003749
 21
159.1592749879
 31
0.0
  0
LINE
  5
1E2
330
A
100
AcDbEntity
  8
1
  6
CONTINUOUS
370
    50
100
AcDbLine
 10
43.9004003749
 20
175.1592749879
 30
0.0
 11
43.9004003749
 21
159.1592749879
 31
0.0
  0
LINE
  5
1E3
330
A
100
AcDbEntity
  8
1
  6
CONTINUOUS
370
    50
100
AcDbLine
 10
54.9104003749
 20
174.2342749879
 30
0.0
 11
54.9104003749
 21
160.0842749879
 31
0.0
  0
LINE
  5
1E4
330
A
100
AcDbEntity
  8
1
  6
CONTINUOUS
370
    50
100
AcDbLine
 10
54.9285988866
 20
174.1842749879
 30
0.0
 11
54.9285988866
 21
160.1342749879
 31
0.0
  0
LINE
  5
1E5
330
A
100
AcDbEntity
  8
1
  6
CONTINUOUS
370
    50
100
AcDbLine
 10
128.9104003749
 20
174.1842749879
 30
0.0
 11
128.9104003749
 21
160.1342749879
 31
0.0
  0
LWPOLYLINE
  5
1E6
330
A
100
AcDbEntity
  8
1
  6
CONTINUOUS
370
    50
100
AcDbPolyline
 90
       21
 70
   128
 43
0.0
 10
70.9158157024
 20
169.1407601331
 10
70.8382718464
 20
169.5473239822
 10
70.9057518377
 20
169.9468502995
 10
71.1038181274
 20
170.2958571489
 10
71.433661699
 20
170.5981141146
 10
72.0698464625
 20
170.8950075606
 10
73.0849195505
 20
171.0444463528
 10
74.4451698705
 20
170.8740743524
 10
75.2778512306
 20
170.529689662
 10
75.6854686498
 20
170.2104341696
 10
75.8971638537
 20
169.9017101726
 10
75.9702506321
 20
169.6155725265
 10
75.9347677949
 20
169.3176545069
 10
75.808267854
 20
169.0510115901
 10
75.4670416024
 20
168.6793298286
 10
74.7230351977
 20
168.2478041626
 10
73.4106390594
 20
167.9515050714
 10
72.2883988203
 20
168.054128395
 10
71.5992726786
 20
168.346923732
 10
71.1605936021
 20
168.7246829945
 10
70.9158157024
 20
169.1407601331
  0
LINE
  5
1FD
330
A
100
AcDbEntity
  8
1
  6
CONTINUOUS
370
    50
100
AcDbLine
 10
129.7908595354
 20
172.6592749879
 30
0.0
 11
129.7908595354
 21
161.6592749879
 31
0.0
  0
LINE
  5
1FE
330
A
100
AcDbEntity
  8
1
  6
CONTINUOUS
370
    50
100
AcDbLine
 10
84.2604003749
 20
191.7592749879
 30
0.0
 11
94.2604003749
 21
191.7592749879
 31
0.0
  0
LINE
  5
1FF
330
A
100
AcDbEntity
  8
1
  6
CONTINUOUS
370
    50
100
AcDbLine
 10
93.9604003749
 20
187.2592749879
 30
0.0
 11
84.5604003749
 21
187.2592749879
 31
0.0
  0
LINE
  5
200
330
A
100
AcDbEntity
  8
1
  6
CONTINUOUS
370
    50
100
AcDbLine
 10
94.2604003749
 20
187.5592749879
 30
0.0
 11
84.2784129322
 21
187.5592749879
 31
0.0
  0
LINE
  5
201
330
A
100
AcDbEntity
  8
1
  6
CONTINUOUS
370
    50
100
AcDbLine
 10
88.1604003749
 20
186.8592749879
 30
0.0
 11
90.3604003749
 21
186.8592749879
 31
0.0
  0
LINE
  5
202
330
A
100
AcDbEntity
  8
1
  6
CONTINUOUS
370
    50
100
AcDbLine
 10
88.0104003749
 20
183.4592749879
 30
0.0
 11
90.5104003749
 21
183.4592749879
 31
0.0
  0
LINE
  5
203
330
A
100
AcDbEntity
  8
1
  6
CONTINUOUS
370
    50
100
AcDbLine
 10
88.0104003749
 20
183.4492749879
 30
0.0
 11
90.5104003749
 21
183.4492749879
 31
0.0
  0
LINE
  5
204
330
A
100
AcDbEntity
  8
1
  6
CONTINUOUS
370
    50
100
AcDbLine
 10
88.1604003749
 20
180.8592749879
 30
0.0
 11
90.3604003749
 21
180.8592749879
 31
0.0
  0
LWPOLYLINE
  5
205
330
A
100
AcDbEntity
  8
1
  6
CONTINUOUS
370
    50
100
AcDbPolyline
 90
       22
 70
   128
 43
0.0
 10
85.6556569811
 20
173.3709320898
 10
85.6170845691
 20
173.8453794383
 10
85.6727159986
 20
174.2776700579
 10
85.8176081728
 20
174.6293930298
 10
86.0388867861
 20
174.8692962246
 10
86.3168902629
 20
174.9760631905
 10
86.626916774
 20
174.9402072141
 10
86.9414191036
 20
174.7649142562
 10
87.2324523394
 20
174.4657598655
 10
87.4741569012
 20
174.0693252224
 10
87.6450562781
 20
173.6108352845
 10
87.7299653104
 20
173.1310288951
 10
87.721339458
 20
172.6725389572
 10
87.6199451657
 20
172.2761043141
 10
87.4347917614
 20
171.9769499234
 10
87.1823309375
 20
171.8016569655
 10
86.8849949462
 20
171.7658009891
 10
86.5692033952
 20
171.8725679551
 10
86.2630157495
 20
172.1124711498
 10
85.9936381252
 20
172.4641941217
 10
85.7850059063
 20
172.8964847413
 10
85.6556569811
 20
173.3709320898
  0
LINE
  5
21D
330
A
100
AcDbEntity
  8
1
  6
CONTINUOUS
370
    50
100
AcDbLine
 10
87.3354003749
 20
185.5092749879
 30
0.0
 11
87.3354003749
 21
188.9658680276
 31
0.0
  0
LINE
  5
21E
330
A
100
AcDbEntity
  8
1
  6
CONTINUOUS
370
    50
100
AcDbLine
 10
87.8354003749
 20
140.3414171316
 30
0.0
 11
87.8354003749
 21
193.9771328442
 31
0.0
  0
LINE
  5
21F
330
A
100
AcDbEntity
  8
1
  6
CONTINUOUS
370
    50
100
AcDbLine
 10
90.6854003749
 20
140.3414171316
 30
0.0
 11
90.6854003749
 21
193.9771328442
 31
0.0
  0
LINE
  5
220
330
A
100
AcDbEntity
  8
1
  6
CONTINUOUS
370
    50
100
AcDbLine
 10
91.1854003749
 20
185.5092749879
 30
0.0
 11
91.1854003749
 21
188.9658680276
 31
0.0
  0
LINE
  5
221
330
A
100
AcDbEntity
  8
1
  6
CONTINUOUS
370
    50
100
AcDbLine
 10
85.7385637328
 20
193.069504628
 30
0.0
 11
85.7385637328
 21
185.5092749879
 31
0.0
  0
LINE
  5
222
330
A
100
AcDbEntity
  8
1
  6
CONTINUOUS
370
    50
100
AcDbLine
 10
96.7104003749
 20
193.069504628
 30
0.0
 11
96.7104003749
 21
185.5092749879
 31
0.0
  0
LINE
  5
223
330
A
100
AcDbEntity
  8
1
  6
CONTINUOUS
370
    50
100
AcDbLine
 10
92.7822370169
 20
193.069504628
 30
0.0
 11
92.7822370169
 21
185.5092749879
 31
0.0
  0
LINE
  5
224
330
A
100
AcDbEntity
  8
1
  6
CONTINUOUS
370
    50
100
AcDbLine
 10
79.6604003749
 20
185.5092749879
 30
0.0
 11
79.6604003749
 21
193.069504628
 31
0.0
  0
LWPOLYLINE
  5
225
330
A
100
AcDbEntity
  8
1
  6
CONTINUOUS
370
    50
100
AcDbPolyline
 90
       24
 70
   128
 43
0.0
 10
85.4466075435
 20
173.3731305529
 10
85.3993755442
 20
173.8995226802
 10
85.447488701
 20
174.3868747116
 10
85.5873786809
 20
174.7990419762
 10
85.8086704843
 20
175.1054559137
 10
86.0949519104
 20
175.283391204
 10
86.4249907754
 20
175.3196512008
 10
86.7743096066
 20
175.2115466658
 10
87.1170010242
 20
174.9670952179
 10
87.4276491736
 20
174.6044267027
 10
87.6832147027
 20
174.1504385849
 10
87.8647434852
 20
173.6388010863
 10
87.9587723618
 20
173.1074600196
 10
87.9583276409
 20
172.595822521
 10
87.8634423054
 20
172.1418344032
 10
87.6811535666
 20
171.779165888
 10
87.4249809462
 20
171.5347144401
 10
87.1139235958
 20
171.4266099051
 10
86.7710512158
 20
171.4628699018
 10
86.4217930823
 20
171.6408051921
 10
86.0920520732
 20
171.9472191296
 10
85.8062835707
 20
172.3593863943
 10
85.5856817174
 20
172.8467384256
 10
85.4466075435
 20
173.3731305529
  0
LWPOLYLINE
  5
23F
330
A
100
AcDbEntity
  8
1
  6
CONTINUOUS
370
    50
100
AcDbPolyline
 90
       24
 70
   128
 43
0.0
 10
85.438947099
 20
173.3709320898
 10
85.3917150998
 20
173.8973242171
 10
85.4398282565
 20
174.3846762485
 10
85.5797182365
 20
174.7968435131
 10
85.8010100399
 20
175.1032574506
 10
86.0872914659
 20
175.2811927409
 10
86.4173303309
 20
175.3174527376
 10
86.7666491621
 20
175.2093482026
 10
87.1093405798
 20
174.9648967548
 10
87.4199887292
 20
174.6022282396
 10
87.6755542582
 20
174.1482401217
 10
87.8570830407
 20
173.6366026232
 10
87.9511119174
 20
173.1052615565
 10
87.9506671965
 20
172.5936240579
 10
87.855781861
 20
172.1396359401
 10
87.6734931221
 20
171.7769674249
 10
87.4173205018
 20
171.532515977
 10
87.1062631513
 20
171.424411442
 10
86.7633907714
 20
171.4606714387
 10
86.4141326379
 20
171.638606729
 10
86.0843916288
 20
171.9450206665
 10
85.7986231263
 20
172.3571879312
 10
85.578021273
 20
172.8445399625
 10
85.438947099
 20
173.3709320898
  0
LWPOLYLINE
  5
259
330
A
100
AcDbEntity
  8
1
  6
CONTINUOUS
370
    50
100
AcDbPolyline
 90
       22
 70
   128
 43
0.0
 10
85.6633174255
 20
173.3731305529
 10
85.6247450136
 20
173.8475779015
 10
85.680376443
 20
174.279868521
 10
85.8252686172
 20
174.6315914929
 10
86.0465472306
 20
174.8714946877
 10
86.3245507073
 20
174.9782616536
 10
86.6345772185
 20
174.9424056772
 10
86.949079548
 20
174.7671127194
 10
87.2401127838
 20
174.4679583286
 10
87.4818173456
 20
174.0715236855
 10
87.6527167225
 20
173.6130337477
 10
87.7376257548
 20
173.1332273582
 10
87.7289999024
 20
172.6747374203
 10
87.6276056101
 20
172.2783027772
 10
87.4424522058
 20
171.9791483865
 10
87.1899913819
 20
171.8038554286
 10
86.8926553906
 20
171.7679994522
 10
86.5768638396
 20
171.8747664182
 10
86.2706761939
 20
172.1146696129
 10
86.0012985696
 20
172.4663925848
 10
85.7926663507
 20
172.8986832044
 10
85.6633174255
 20
173.3731305529
  0
LWPOLYLINE
  5
271
330
A
100
AcDbEntity
  8
1
  6
CONTINUOUS
370
    50
100
AcDbPolyline
 90
       22
 70
   128
 43
0.0
 10
95.8454322378
 20
175.7088908416
 10
95.7160833126
 20
176.1833381901
 10
95.5074510937
 20
176.6156288097
 10
95.2380734694
 20
176.9673517816
 10
94.9318858237
 20
177.2072549763
 10
94.6160942726
 20
177.3140219422
 10
94.3187582813
 20
177.2781659659
 10
94.0662974575
 20
177.102873008
 10
93.8811440531
 20
176.8037186173
 10
93.7797497609
 20
176.4072839742
 10
93.7711239084
 20
175.9487940363
 10
93.8560329407
 20
175.4689876468
 10
94.0269323176
 20
175.010497709
 10
94.2686368795
 20
174.6140630659
 10
94.5596701153
 20
174.3149086751
 10
94.8741724448
 20
174.1396157173
 10
95.184198956
 20
174.1037597409
 10
95.4622024327
 20
174.2105267068
 10
95.6834810461
 20
174.4504299016
 10
95.8283732202
 20
174.8021528735
 10
95.8840046497
 20
175.234443493
 10
95.8454322378
 20
175.7088908416
  0
ARC
  5
289
330
A
100
AcDbEntity
  8
1
  6
CONTINUOUS
370
    50
100
AcDbCircle
 10
90.5717472644
 20
172.6819742765
 30
0.0
 40
1.5840694353
100
AcDbArc
 50
187.0718338965
 51
190.4162179426
  0
ARC
  5
28A
330
A
100
AcDbEntity
  8
1
  6
CONTINUOUS
370
    50
100
AcDbCircle
 10
84.7737111562
 20
182.4419916539
 30
0.0
 40
10.9045232015
100
AcDbArc
 50
292.8820937121
 51
294.2172889972
  0
ARC
  5
28B
330
A
100
AcDbEntity
  8
1
  6
CONTINUOUS
370
    50
100
AcDbCircle
 10
88.9293391032
 20
177.2092490384
 30
0.0
 40
4.722819891
100
AcDbArc
 50
270.8539739897
 51
273.8533608667
  0
LWPOLYLINE
  5
28C
330
A
100
AcDbEntity
  8
1
  6
CONTINUOUS
370
    50
100
AcDbPolyline
 90
       18
 70
   128
 43
0.0
 10
88.9997285116
 20
175.5879393707
 10
88.9830589929
 20
175.692120778
 10
88.9669571347
 20
175.739954239
 10
88.9519712665
 20
175.7298108424
 10
88.9386117139
 20
175.6620360094
 10
88.9273334206
 20
175.5389377308
 10
88.9185204553
 20
175.3647079707
 10
88.912472933
 20
175.1452799147
 10
88.9093967947
 20
174.8881259221
 10
88.9093967947
 20
174.6020030636
 10
88.912472933
 20
174.29665491
 10
88.9185204553
 20
173.9824797265
 10
88.9273334206
 20
173.670176372
 10
88.9386117139
 20
173.3703799629
 10
88.9519712665
 20
173.0932997063
 10
88.9669571347
 20
172.8483712379
 10
88.9830589929
 20
172.643935303
 10
88.9997285116
 20
172.4869537221
  0
ARC
  5
2A0
330
A
100
AcDbEntity
  8
1
  6
CONTINUOUS
370
    50
100
AcDbCircle
 10
89.0702560687
 20
170.8722900824
 30
0.0
 40
4.7161766661
100
AcDbArc
 50
87.8555877575
 51
90.856855516
  0
ARC
  5
2A1
330
A
100
AcDbEntity
  8
1
  6
CONTINUOUS
370
    50
100
AcDbCircle
 10
95.0201236604
 20
164.6364851025
 30
0.0
 40
12.3776278991
100
AcDbArc
 50
117.8033277307
 51
119.0293663286
  0
ARC
  5
2A2
330
A
100
AcDbEntity
  8
1
  6
CONTINUOUS
370
    50
100
AcDbCircle
 10
84.7444332324
 20
175.058491792
 30
0.0
 40
4.2881059515
100
AcDbArc
 50
5.360907102700001
 51
7.0923433095
  0
LWPOLYLINE
  5
2A3
330
A
100
AcDbEntity
  8
1
  6
CONTINUOUS
370
    50
100
AcDbPolyline
 90
       18
 70
   128
 43
0.0
 10
88.9997285116
 20
172.4869537221
 10
88.5021639101
 20
172.5059237155
 10
88.0215432743
 20
172.5770478821
 10
87.5742335636
 20
172.6979041736
 10
87.1754673736
 20
172.864376974
 10
86.8388242088
 20
173.0707972517
 10
86.5757680482
 20
173.3101356118
 10
86.3952569541
 20
173.5742416735
 10
86.303438015
 20
173.8541216216
 10
86.303438015
 20
174.1402444801
 10
86.3952569541
 20
174.4228666783
 10
86.5757680482
 20
174.6923638561
 10
86.8388242088
 20
174.9395586105
 10
87.1754673736
 20
175.1560330205
 10
87.5742335636
 20
175.3344153096
 10
88.0215432743
 20
175.4686308831
 10
88.5021639101
 20
175.5541091906
 10
88.9997285116
 20
175.5879393707
  0
LWPOLYLINE
  5
2B7
330
A
100
AcDbEntity
  8
1
  6
CONTINUOUS
370
    50
100
AcDbPolyline
 90
        9
 70
   128
 43
0.0
 10
89.0137827638
 20
175.4591253277
 10
89.0427025969
 20
175.479933837
 10
89.0717345191
 20
175.499331952
 10
89.1008508821
 20
175.5173011988
 10
89.1300239569
 20
175.5338244646
 10
89.1592259606
 20
175.5488860134
 10
89.1884290827
 20
175.5624715015
 10
89.2176055118
 20
175.5745679906
 10
89.2467274617
 20
175.5851639608
  0
LWPOLYLINE
  5
2C2
330
A
100
AcDbEntity
  8
1
  6
CONTINUOUS
370
    50
100
AcDbPolyline
 90
       17
 70
   128
 43
0.0
 10
97.2104003749
 20
153.2371203485
 10
96.1714547707
 20
154.0818715054
 10
95.240539696
 20
155.038762846
 10
94.4303227331
 20
156.0947733116
 10
93.7518290448
 20
157.2355330631
 10
93.2142913475
 20
158.4455190217
 10
92.8250242751
 20
159.708266101
 10
92.5893248444
 20
161.0065912592
 10
92.5104003749
 20
162.3228273195
 10
92.5893248444
 20
163.6390633799
 10
92.8250242751
 20
164.937388538
 10
93.2142913475
 20
166.2001356174
 10
93.7518290448
 20
167.4101215759
 10
94.4303227331
 20
168.5508813275
 10
95.240539696
 20
169.606891793
 10
96.1714547707
 20
170.5637831337
 10
97.2104003749
 20
171.4085342905
  0
LWPOLYLINE
  5
2D5
330
A
100
AcDbEntity
  8
1
  6
CONTINUOUS
370
    50
100
AcDbPolyline
 90
       17
 70
   128
 43
0.0
 10
97.2104003749
 20
151.8874140225
 10
96.1714547707
 20
152.7321651793
 10
95.240539696
 20
153.68905652
 10
94.4303227331
 20
154.7450669855
 10
93.7518290448
 20
155.8858267371
 10
93.2142913475
 20
157.0958126956
 10
92.8250242751
 20
158.3585597749
 10
92.5893248444
 20
159.6568849331
 10
92.5104003749
 20
160.9731209935
 10
92.5893248444
 20
162.2893570538
 10
92.8250242751
 20
163.587682212
 10
93.2142913475
 20
164.8504292913
 10
93.7518290448
 20
166.0604152498
 10
94.4303227331
 20
167.2011750014
 10
95.240539696
 20
168.257185467
 10
96.1714547707
 20
169.2140768076
 10
97.2104003749
 20
170.0588279645
  0
LWPOLYLINE
  5
2E8
330
A
100
AcDbEntity
  8
1
  6
CONTINUOUS
370
    50
100
AcDbPolyline
 90
        9
 70
   128
 43
0.0
 10
89.2467274617
 20
172.4971059641
 10
89.2176055118
 20
172.4792523877
 10
89.1884290827
 20
172.462846109
 10
89.1592259606
 20
172.4479027525
 10
89.1300239569
 20
172.4344365493
 10
89.1008508821
 20
172.4224603241
 10
89.0717345191
 20
172.4119854823
 10
89.0427025969
 20
172.4030219997
 10
89.0137827638
 20
172.3955784126
  0
LWPOLYLINE
  5
2F3
330
A
100
AcDbEntity
  8
1
  6
CONTINUOUS
370
    50
100
AcDbPolyline
 90
       25
 70
   128
 43
0.0
 10
93.8111793086
 20
175.7914399672
 10
93.7616536373
 20
176.3216624844
 10
93.8041135807
 20
176.8157512133
 10
93.9356655637
 20
177.2400348235
 10
94.1473445361
 20
177.5655990882
 10
94.4247249258
 20
177.7702573407
 10
94.7489037175
 20
177.8400624593
 10
95.0977886625
 20
177.7702573407
 10
95.4476038282
 20
177.5655990882
 10
95.7745098892
 20
177.2400348235
 10
96.0562287376
 20
176.8157512133
 10
96.2735616996
 20
176.3216624844
 10
96.4116978928
 20
175.7914399672
 10
96.4612235641
 20
175.2612174501
 10
96.4187636208
 20
174.7671287212
 10
96.2872116378
 20
174.342845111
 10
96.0755326654
 20
174.0172808463
 10
95.7981522757
 20
173.8126225938
 10
95.4739734839
 20
173.7428174751
 10
95.125088539
 20
173.8126225938
 10
94.7752733733
 20
174.0172808463
 10
94.4483673123
 20
174.342845111
 10
94.1666484639
 20
174.7671287212
 10
93.9493155019
 20
175.2612174501
 10
93.8111793086
 20
175.7914399672
  0
LWPOLYLINE
  5
30E
330
A
100
AcDbEntity
  8
1
  6
CONTINUOUS
370
    50
100
AcDbPolyline
 90
       25
 70
   128
 43
0.0
 10
96.4031445533
 20
175.790417155
 10
96.2655384207
 20
176.3186050852
 10
96.0490394158
 20
176.8107978809
 10
95.768401588
 20
177.2334534164
 10
95.4427499414
 20
177.5577684154
 10
95.0942770978
 20
177.7616413466
 10
94.7467309054
 20
177.8311786069
 10
94.4237960629
 20
177.7616413466
 10
94.1474800462
 20
177.5577684154
 10
93.9366133351
 20
177.2334534164
 10
93.8055661476
 20
176.8107978809
 10
93.763269133
 20
176.3186050852
 10
93.8126047628
 20
175.790417155
 10
93.9502108954
 20
175.2622292247
 10
94.1667099003
 20
174.770036429
 10
94.4473477281
 20
174.3473808935
 10
94.7729993746
 20
174.0230658946
 10
95.1214722183
 20
173.8191929633
 10
95.4690184107
 20
173.7496557031
 10
95.7919532532
 20
173.8191929633
 10
96.0682692699
 20
174.0230658946
 10
96.2791359809
 20
174.3473808935
 10
96.4101831684
 20
174.770036429
 10
96.4524801831
 20
175.2622292247
 10
96.4031445533
 20
175.790417155
  0
LINE
  5
329
330
A
100
AcDbEntity
  8
1
  6
CONTINUOUS
370
    50
100
AcDbLine
 10
95.7604003749
 20
147.1592749879
 30
0.0
 11
95.7604003749
 21
187.1592749879
 31
0.0
  0
LINE
  5
32A
330
A
100
AcDbEntity
  8
1
  6
CONTINUOUS
370
    50
100
AcDbLine
 10
80.3604003749
 20
147.1592749879
 30
0.0
 11
84.9604003749
 21
147.1592749879
 31
0.0
  0
LINE
  5
32B
330
A
100
AcDbEntity
  8
1
  6
CONTINUOUS
370
    50
100
AcDbLine
 10
80.3604003749
 20
187.1592749879
 30
0.0
 11
80.3604003749
 21
147.1592749879
 31
0.0
  0
LINE
  5
32C
330
A
100
AcDbEntity
  8
1
  6
CONTINUOUS
370
    50
100
AcDbLine
 10
84.9604003749
 20
147.1592749879
 30
0.0
 11
84.9604003749
 21
187.1592749879
 31
0.0
  0
LINE
  5
32D
330
A
100
AcDbEntity
  8
1
  6
CONTINUOUS
370
    50
100
AcDbLine
 10
93.7604003749
 20
187.1592749879
 30
0.0
 11
93.7604003749
 21
147.1592749879
 31
0.0
  0
LINE
  5
32E
330
A
100
AcDbEntity
  8
1
  6
CONTINUOUS
370
    50
100
AcDbLine
 10
93.7604003749
 20
147.1592749879
 30
0.0
 11
95.7604003749
 21
147.1592749879
 31
0.0
  0
LINE
  5
32F
330
A
100
AcDbEntity
  8
1
  6
CONTINUOUS
370
    50
100
AcDbLine
 10
95.7604003749
 20
187.1592749879
 30
0.0
 11
93.7604003749
 21
187.1592749879
 31
0.0
  0
LINE
  5
330
330
A
100
AcDbEntity
  8
1
  6
CONTINUOUS
370
    50
100
AcDbLine
 10
84.9604003749
 20
187.1592749879
 30
0.0
 11
80.3604003749
 21
187.1592749879
 31
0.0
  0
LINE
  5
331
330
A
100
AcDbEntity
  8
1
  6
CONTINUOUS
370
    50
100
AcDbLine
 10
97.2104003749
 20
160.1095009882
 30
0.0
 11
95.6907313684
 21
160.5456292405
 31
0.0
  0
LINE
  5
332
330
A
100
AcDbEntity
  8
1
  6
CONTINUOUS
370
    50
100
AcDbLine
 10
94.5321458331
 20
156.5085907767
 30
0.0
 11
97.2104003749
 21
155.739961248
 31
0.0
  0
LINE
  5
333
330
A
100
AcDbEntity
  8
1
  6
CONTINUOUS
370
    50
100
AcDbLine
 10
79.1604003749
 20
156.2280744564
 30
0.0
 11
88.9628923818
 21
158.5756250641
 31
0.0
  0
LINE
  5
334
330
A
100
AcDbEntity
  8
1
  6
CONTINUOUS
370
    50
100
AcDbLine
 10
87.9002154061
 20
161.7144431043
 30
0.0
 11
79.1604003749
 21
159.6213877798
 31
0.0
  0
LINE
  5
335
330
A
100
AcDbEntity
  8
1
  6
CONTINUOUS
370
    50
100
AcDbLine
 10
94.2585019715
 20
159.7058943697
 30
0.0
 11
94.1538649872
 21
159.5386078
 31
0.0
  0
LINE
  5
336
330
A
100
AcDbEntity
  8
1
  6
CONTINUOUS
370
    50
100
AcDbLine
 10
93.7632003809
 20
158.1773547944
 30
0.0
 11
93.7632003809
 21
157.9800385637
 31
0.0
  0
LINE
  5
337
330
A
100
AcDbEntity
  8
1
  6
CONTINUOUS
370
    50
100
AcDbLine
 10
95.27895854
 20
160.1956385307
 30
0.0
 11
87.1401083296
 21
162.5313988194
 31
0.0
  0
LINE
  5
338
330
A
100
AcDbEntity
  8
1
  6
CONTINUOUS
370
    50
100
AcDbLine
 10
88.9607963815
 20
158.5756716236
 30
0.0
 11
94.3686413337
 21
157.0236797378
 31
0.0
  0
LINE
  5
339
330
A
100
AcDbEntity
  8
1
  6
CONTINUOUS
370
    50
100
AcDbLine
 10
86.2297911233
 20
159.3594400265
 30
0.0
 11
87.8376523766
 21
158.8980015716
 31
0.0
  0
LINE
  5
33A
330
A
100
AcDbEntity
  8
1
  6
CONTINUOUS
370
    50
100
AcDbLine
 10
79.4135542684
 20
190.1519340193
 30
0.0
 11
79.1604003749
 21
190.6948242959
 31
0.0
  0
ARC
  5
33B
330
A
100
AcDbEntity
  8
1
  6
CONTINUOUS
370
    50
100
AcDbCircle
 10
78.9604003749
 20
189.9406248884
 30
0.0
 40
0.5
100
AcDbArc
 50
0.0
 51
25.0
  0
ARC
  5
33C
330
A
100
AcDbEntity
  8
1
  6
CONTINUOUS
370
    50
100
AcDbCircle
 10
78.9604003749
 20
144.7342749879
 30
0.0
 40
0.5
100
AcDbArc
 50
0.0
 51
66.4218215218
  0
ARC
  5
33D
330
A
100
AcDbEntity
  8
1
  6
CONTINUOUS
370
    50
100
AcDbCircle
 10
78.9604003749
 20
189.5842749879
 30
0.0
 40
0.5
100
AcDbArc
 50
293.5781784782001
 51
0.0
  0
LINE
  5
33E
330
A
100
AcDbEntity
  8
1
  6
CONTINUOUS
370
    50
100
AcDbLine
 10
87.1324478851
 20
162.5335972825
 30
0.0
 11
74.3129323659
 21
166.2126569157
 31
0.0
  0
LINE
  5
33F
330
A
100
AcDbEntity
  8
1
  6
CONTINUOUS
370
    50
100
AcDbLine
 10
72.114687214
 20
163.4103192452
 30
0.0
 11
86.2221306789
 21
159.3616384896
 31
0.0
  0
ARC
  5
340
330
A
100
AcDbEntity
  8
1
  6
CONTINUOUS
370
    50
100
AcDbCircle
 10
10.9104003749
 20
157.6592749879
 30
0.0
 40
1.0
100
AcDbArc
 50
136.778654881
 51
180.0
  0
ARC
  5
341
330
A
100
AcDbEntity
  8
1
  6
CONTINUOUS
370
    50
100
AcDbCircle
 10
10.9104003749
 20
176.6592749879
 30
0.0
 40
1.0
100
AcDbArc
 50
180.0
 51
223.221345119
  0
ARC
  5
342
330
A
100
AcDbEntity
  8
1
  6
CONTINUOUS
370
    50
100
AcDbCircle
 10
196.6604003749
 20
157.7242749879
 30
0.0
 40
1.5
100
AcDbArc
 50
0.0
 51
73.0710674448
  0
ARC
  5
343
330
A
100
AcDbEntity
  8
1
  6
CONTINUOUS
370
    50
100
AcDbCircle
 10
196.6604003749
 20
176.5942749879
 30
0.0
 40
1.5
100
AcDbArc
 50
286.9289325552
 51
0.0
  0
LINE
  5
344
330
A
100
AcDbEntity
  8
1
  6
CONTINUOUS
370
    50
100
AcDbLine
 10
10.181686821
 20
158.3440936182
 30
0.0
 11
10.681686821
 21
158.6327687528
 31
0.0
  0
LINE
  5
345
330
A
100
AcDbEntity
  8
1
  6
CONTINUOUS
370
    50
100
AcDbLine
 10
10.681686821
 20
175.685781223
 30
0.0
 11
10.181686821
 21
175.9744563576
 31
0.0
  0
LINE
  5
346
330
A
100
AcDbEntity
  8
1
  6
CONTINUOUS
370
    50
100
AcDbLine
 10
16.1001118066
 20
175.8092749879
 30
0.0
 11
15.8403041855
 21
175.6592749879
 31
0.0
  0
LINE
  5
347
330
A
100
AcDbEntity
  8
1
  6
CONTINUOUS
370
    50
100
AcDbLine
 10
15.8403041855
 20
158.6592749879
 30
0.0
 11
16.1001118066
 21
158.5092749879
 31
0.0
  0
LINE
  5
348
330
A
100
AcDbEntity
  8
1
  6
CONTINUOUS
370
    50
100
AcDbLine
 10
18.4104003749
 20
175.8092749879
 30
0.0
 11
16.1001118066
 21
175.8092749879
 31
0.0
  0
LINE
  5
349
330
A
100
AcDbEntity
  8
1
  6
CONTINUOUS
370
    50
100
AcDbLine
 10
16.1001118066
 20
158.5092749879
 30
0.0
 11
18.4104003749
 21
158.5092749879
 31
0.0
  0
LINE
  5
34A
330
A
100
AcDbEntity
  8
1
  6
CONTINUOUS
370
    50
100
AcDbLine
 10
18.4104003749
 20
158.5092749879
 30
0.0
 11
19.3197270489
 21
160.0842749879
 31
0.0
  0
LINE
  5
34B
330
A
100
AcDbEntity
  8
1
  6
CONTINUOUS
370
    50
100
AcDbLine
 10
19.3197270489
 20
174.2342749879
 30
0.0
 11
18.4104003749
 21
175.8092749879
 31
0.0
  0
ARC
  5
34C
330
A
100
AcDbEntity
  8
1
  6
CONTINUOUS
370
    50
100
AcDbCircle
 10
10.9104003749
 20
157.6592749879
 30
0.0
 40
1.0
100
AcDbArc
 50
90.0
 51
103.221345119
  0
ARC
  5
34D
330
A
100
AcDbEntity
  8
1
  6
CONTINUOUS
370
    50
100
AcDbCircle
 10
10.9104003749
 20
176.6592749879
 30
0.0
 40
1.0
100
AcDbArc
 50
256.778654881
 51
270.0
  0
LINE
  5
34E
330
A
100
AcDbEntity
  8
1
  6
CONTINUOUS
370
    50
100
AcDbLine
 10
10.9104003749
 20
158.6592749879
 30
0.0
 11
15.8403041855
 21
158.6592749879
 31
0.0
  0
LINE
  5
34F
330
A
100
AcDbEntity
  8
1
  6
CONTINUOUS
370
    50
100
AcDbLine
 10
15.8403041855
 20
175.6592749879
 30
0.0
 11
10.9104003749
 21
175.6592749879
 31
0.0
  0
ARC
  5
350
330
A
100
AcDbEntity
  8
1
  6
CONTINUOUS
370
    50
100
AcDbCircle
 10
148.6604003749
 20
159.4592749879
 30
0.0
 40
0.5
100
AcDbArc
 50
180.0
 51
270.0
  0
ARC
  5
351
330
A
100
AcDbEntity
  8
1
  6
CONTINUOUS
370
    50
100
AcDbCircle
 10
148.6604003749
 20
174.8592749879
 30
0.0
 40
0.5
100
AcDbArc
 50
90.0
 51
180.0
  0
LINE
  5
352
330
A
100
AcDbEntity
  8
1
  6
CONTINUOUS
370
    50
100
AcDbLine
 10
148.6604003749
 20
158.9592749879
 30
0.0
 11
158.0583277807
 21
158.9592749879
 31
0.0
  0
LINE
  5
353
330
A
100
AcDbEntity
  8
1
  6
CONTINUOUS
370
    50
100
AcDbLine
 10
158.0583277807
 20
175.3592749879
 30
0.0
 11
148.6604003749
 21
175.3592749879
 31
0.0
  0
LINE
  5
354
330
A
100
AcDbEntity
  8
1
  6
CONTINUOUS
370
    50
100
AcDbLine
 10
158.0583277807
 20
158.9592749879
 30
0.0
 11
158.1737978345
 21
159.1592749879
 31
0.0
  0
LINE
  5
355
330
A
100
AcDbEntity
  8
1
  6
CONTINUOUS
370
    50
100
AcDbLine
 10
158.1737978345
 20
175.1592749879
 30
0.0
 11
158.0583277807
 21
175.3592749879
 31
0.0
  0
LINE
  5
356
330
A
100
AcDbEntity
  8
1
  6
CONTINUOUS
370
    50
100
AcDbLine
 10
158.1737978345
 20
159.1592749879
 30
0.0
 11
197.0971783505
 21
159.1592749879
 31
0.0
  0
LINE
  5
357
330
A
100
AcDbEntity
  8
1
  6
CONTINUOUS
370
    50
100
AcDbLine
 10
197.0971783505
 20
175.1592749879
 30
0.0
 11
158.1737978345
 21
175.1592749879
 31
0.0
  0
LINE
  5
358
330
A
100
AcDbEntity
  8
1
  6
CONTINUOUS
370
    50
100
AcDbLine
 10
54.9104003749
 20
174.2342749879
 30
0.0
 11
43.9104003749
 21
174.2342749879
 31
0.0
  0
LINE
  5
359
330
A
100
AcDbEntity
  8
1
  6
CONTINUOUS
370
    50
100
AcDbLine
 10
43.9104003749
 20
160.0842749879
 30
0.0
 11
54.9104003749
 21
160.0842749879
 31
0.0
  0
LINE
  5
35A
330
A
100
AcDbEntity
  8
1
  6
CONTINUOUS
370
    50
100
AcDbLine
 10
43.9004003749
 20
174.2342749879
 30
0.0
 11
19.3197270489
 21
174.2342749879
 31
0.0
  0
LINE
  5
35B
330
A
100
AcDbEntity
  8
1
  6
CONTINUOUS
370
    50
100
AcDbLine
 10
19.3197270489
 20
160.0842749879
 30
0.0
 11
43.9004003749
 21
160.0842749879
 31
0.0
  0
LINE
  5
35C
330
A
100
AcDbEntity
  8
1
  6
CONTINUOUS
370
    50
100
AcDbLine
 10
128.9104003749
 20
174.1842749879
 30
0.0
 11
54.9285988866
 21
174.1842749879
 31
0.0
  0
LINE
  5
35D
330
A
100
AcDbEntity
  8
1
  6
CONTINUOUS
370
    50
100
AcDbLine
 10
54.9285988866
 20
160.1342749879
 30
0.0
 11
128.9104003749
 21
160.1342749879
 31
0.0
  0
LINE
  5
35E
330
A
100
AcDbEntity
  8
1
  6
CONTINUOUS
370
    50
100
AcDbLine
 10
128.9104003749
 20
160.1342749879
 30
0.0
 11
129.7908595354
 21
161.6592749879
 31
0.0
  0
LINE
  5
35F
330
A
100
AcDbEntity
  8
1
  6
CONTINUOUS
370
    50
100
AcDbLine
 10
129.7908595354
 20
172.6592749879
 30
0.0
 11
128.9104003749
 21
174.1842749879
 31
0.0
  0
LINE
  5
360
330
A
100
AcDbEntity
  8
1
  6
CONTINUOUS
370
    50
100
AcDbLine
 10
129.7908595354
 20
161.6592749879
 30
0.0
 11
148.1604003749
 21
161.6592749879
 31
0.0
  0
LINE
  5
361
330
A
100
AcDbEntity
  8
1
  6
CONTINUOUS
370
    50
100
AcDbLine
 10
148.1604003749
 20
172.6592749879
 30
0.0
 11
129.7908595354
 21
172.6592749879
 31
0.0
  0
LINE
  5
362
330
A
100
AcDbEntity
  8
1
  6
CONTINUOUS
370
    50
100
AcDbLine
 10
84.0604003749
 20
191.9592749879
 30
0.0
 11
84.2604003749
 21
191.7592749879
 31
0.0
  0
LINE
  5
363
330
A
100
AcDbEntity
  8
1
  6
CONTINUOUS
370
    50
100
AcDbLine
 10
94.2604003749
 20
191.7592749879
 30
0.0
 11
94.4604003749
 21
191.9592749879
 31
0.0
  0
ARC
  5
364
330
A
100
AcDbEntity
  8
1
  6
CONTINUOUS
370
    50
100
AcDbCircle
 10
84.5604003749
 20
187.5592749879
 30
0.0
 40
0.3
100
AcDbArc
 50
180.0
 51
270.0
  0
ARC
  5
365
330
A
100
AcDbEntity
  8
1
  6
CONTINUOUS
370
    50
100
AcDbCircle
 10
93.9604003749
 20
187.5592749879
 30
0.0
 40
0.3
100
AcDbArc
 50
270.0
 51
0.0
  0
LINE
  5
366
330
A
100
AcDbEntity
  8
1
  6
CONTINUOUS
370
    50
100
AcDbLine
 10
84.2604003749
 20
191.7592749879
 30
0.0
 11
84.2604003749
 21
187.5592749879
 31
0.0
  0
LINE
  5
367
330
A
100
AcDbEntity
  8
1
  6
CONTINUOUS
370
    50
100
AcDbLine
 10
94.2604003749
 20
187.5592749879
 30
0.0
 11
94.2604003749
 21
191.7592749879
 31
0.0
  0
LINE
  5
368
330
A
100
AcDbEntity
  8
1
  6
CONTINUOUS
370
    50
100
AcDbLine
 10
87.7604003749
 20
187.2592749879
 30
0.0
 11
88.1604003749
 21
186.8592749879
 31
0.0
  0
LINE
  5
369
330
A
100
AcDbEntity
  8
1
  6
CONTINUOUS
370
    50
100
AcDbLine
 10
90.3604003749
 20
186.8592749879
 30
0.0
 11
90.7604003749
 21
187.2592749879
 31
0.0
  0
LINE
  5
36A
330
A
100
AcDbEntity
  8
1
  6
CONTINUOUS
370
    50
100
AcDbLine
 10
88.1604003749
 20
180.8592749879
 30
0.0
 11
89.2604003749
 21
180.4589077302
 31
0.0
  0
LINE
  5
36B
330
A
100
AcDbEntity
  8
1
  6
CONTINUOUS
370
    50
100
AcDbLine
 10
89.2604003749
 20
180.4589077302
 30
0.0
 11
90.3604003749
 21
180.8592749879
 31
0.0
  0
LINE
  5
36C
330
A
100
AcDbEntity
  8
1
  6
CONTINUOUS
370
    50
100
AcDbLine
 10
88.1604003749
 20
183.4492749879
 30
0.0
 11
88.1604003749
 21
180.8592749879
 31
0.0
  0
LINE
  5
36D
330
A
100
AcDbEntity
  8
1
  6
CONTINUOUS
370
    50
100
AcDbLine
 10
90.3604003749
 20
180.8592749879
 30
0.0
 11
90.3604003749
 21
183.4492749879
 31
0.0
  0
LINE
  5
36E
330
A
100
AcDbEntity
  8
1
  6
CONTINUOUS
370
    50
100
AcDbLine
 10
88.1604003749
 20
186.8592749879
 30
0.0
 11
88.1604003749
 21
183.4592749879
 31
0.0
  0
LINE
  5
36F
330
A
100
AcDbEntity
  8
1
  6
CONTINUOUS
370
    50
100
AcDbLine
 10
90.3604003749
 20
183.4592749879
 30
0.0
 11
90.3604003749
 21
186.8592749879
 31
0.0
  0
LINE
  5
370
330
A
100
AcDbEntity
  8
1
  6
CONTINUOUS
370
    50
100
AcDbLine
 10
86.2221306789
 20
174.9569114863
 30
0.0
 11
72.1160643912
 21
170.9086259653
 31
0.0
  0
LINE
  5
371
330
A
100
AcDbEntity
  8
1
  6
CONTINUOUS
370
    50
100
AcDbLine
 10
74.3107972252
 20
168.1052802983
 30
0.0
 11
87.1324478851
 21
171.7849526933
 31
0.0
  0
LINE
  5
372
330
A
100
AcDbEntity
  8
1
  6
CONTINUOUS
370
    50
100
AcDbLine
 10
87.8376523766
 20
175.4205484042
 30
0.0
 11
86.2297911233
 21
174.9591099494
 31
0.0
  0
LINE
  5
373
330
A
100
AcDbEntity
  8
1
  6
CONTINUOUS
370
    50
100
AcDbLine
 10
94.3686413337
 20
177.294870238
 30
0.0
 11
88.9607963815
 21
175.7428783522
 31
0.0
  0
LINE
  5
374
330
A
100
AcDbEntity
  8
1
  6
CONTINUOUS
370
    50
100
AcDbLine
 10
87.1401083296
 20
171.7871511565
 30
0.0
 11
95.27895854
 21
174.1229114451
 31
0.0
  0
LINE
  5
375
330
A
100
AcDbEntity
  8
1
  6
CONTINUOUS
370
    50
100
AcDbLine
 10
79.1604003749
 20
174.697162196
 30
0.0
 11
87.9002154061
 21
172.6041068715
 31
0.0
  0
LINE
  5
376
330
A
100
AcDbEntity
  8
1
  6
CONTINUOUS
370
    50
100
AcDbLine
 10
88.9628923818
 20
175.7429249117
 30
0.0
 11
79.1604003749
 21
178.0904755194
 31
0.0
  0
LINE
  5
377
330
A
100
AcDbEntity
  8
1
  6
CONTINUOUS
370
    50
100
AcDbLine
 10
92.5104003749
 20
162.3228273195
 30
0.0
 11
92.5104003749
 21
160.9731209935
 31
0.0
  0
LINE
  5
378
330
A
100
AcDbEntity
  8
1
  6
CONTINUOUS
370
    50
100
AcDbLine
 10
97.2104003749
 20
178.5785887278
 30
0.0
 11
94.5321458331
 21
177.8099591991
 31
0.0
  0
LINE
  5
379
330
A
100
AcDbEntity
  8
1
  6
CONTINUOUS
370
    50
100
AcDbLine
 10
95.6907313684
 20
173.7729207354
 30
0.0
 11
97.2104003749
 21
174.2090489876
 31
0.0
  0
LINE
  5
37A
330
A
100
AcDbEntity
  8
1
  6
CONTINUOUS
370
    50
100
AcDbLine
 10
93.7632003809
 20
176.3385114121
 30
0.0
 11
93.7632003809
 21
176.1411951815
 31
0.0
  0
LINE
  5
37B
330
A
100
AcDbEntity
  8
1
  6
CONTINUOUS
370
    50
100
AcDbLine
 10
94.1538649872
 20
174.7799421758
 30
0.0
 11
94.2585019715
 21
174.6126556062
 31
0.0
  0
LINE
  5
37C
330
A
100
AcDbEntity
  8
1
  6
CONTINUOUS
370
    50
100
AcDbLine
 10
78.9604003749
 20
189.0842749879
 30
0.0
 11
78.9604003749
 21
145.2342749879
 31
0.0
  0
LINE
  5
37D
330
A
100
AcDbEntity
  8
1
  6
CONTINUOUS
370
    50
100
AcDbLine
 10
78.7032906515
 20
189.1311210944
 30
0.0
 11
78.7032906515
 21
145.1874288814
 31
0.0
  0
LINE
  5
37E
330
A
100
AcDbEntity
  8
1
  6
CONTINUOUS
370
    50
100
AcDbLine
 10
78.9145997824
 20
189.0842749879
 30
0.0
 11
78.9145997824
 21
145.2342749879
 31
0.0
  0
LINE
  5
37F
330
A
100
AcDbEntity
  8
1
  6
CONTINUOUS
370
    50
100
AcDbLine
 10
10.6628842686
 20
179.5388830256
 30
0.0
 11
10.6628842686
 21
154.7796669502
 31
0.0
  0
LINE
  5
380
330
A
100
AcDbEntity
  8
1
  6
CONTINUOUS
370
    50
100
AcDbLine
 10
85.438947099
 20
173.3709320898
 30
0.0
 11
85.3939344808
 21
174.0044431715
 31
0.0
  0
LINE
  5
381
330
A
100
AcDbEntity
  8
1
  6
CONTINUOUS
370
    50
100
AcDbLine
 10
85.3939344808
 20
174.0044431715
 30
0.0
 11
85.4879932685
 21
174.5693034976
 31
0.0
  0
LINE
  5
382
330
A
100
AcDbEntity
  8
1
  6
CONTINUOUS
370
    50
100
AcDbLine
 10
85.4879932685
 20
174.5693034976
 30
0.0
 11
85.7109307331
 21
175.004301687
 31
0.0
  0
LINE
  5
383
330
A
100
AcDbEntity
  8
1
  6
CONTINUOUS
370
    50
100
AcDbLine
 10
85.7109307331
 20
175.004301687
 30
0.0
 11
86.0385881411
 21
175.2622989361
 31
0.0
  0
LINE
  5
384
330
A
100
AcDbEntity
  8
1
  6
CONTINUOUS
370
    50
100
AcDbLine
 10
86.0385881411
 20
175.2622989361
 30
0.0
 11
86.4354587282
 21
175.31533724
 31
0.0
  0
LINE
  5
385
330
A
100
AcDbEntity
  8
1
  6
CONTINUOUS
370
    50
100
AcDbLine
 10
86.4354587282
 20
175.31533724
 30
0.0
 11
86.8585354082
 21
175.1576690752
 31
0.0
  0
LINE
  5
386
330
A
100
AcDbEntity
  8
1
  6
CONTINUOUS
370
    50
100
AcDbLine
 10
86.8585354082
 20
175.1576690752
 30
0.0
 11
87.2619712581
 21
174.806380234
 31
0.0
  0
LINE
  5
387
330
A
100
AcDbEntity
  8
1
  6
CONTINUOUS
370
    50
100
AcDbLine
 10
87.2619712581
 20
174.806380234
 30
0.0
 11
87.6020477436
 21
174.2995383131
 31
0.0
  0
LINE
  5
388
330
A
100
AcDbEntity
  8
1
  6
CONTINUOUS
370
    50
100
AcDbLine
 10
87.6020477436
 20
174.2995383131
 30
0.0
 11
87.8419123006
 21
173.6920674991
 31
0.0
  0
LINE
  5
389
330
A
100
AcDbEntity
  8
1
  6
CONTINUOUS
370
    50
100
AcDbLine
 10
87.8419123006
 20
173.6920674991
 30
0.0
 11
87.9555718827
 21
173.0497966805
 31
0.0
  0
LINE
  5
38A
330
A
100
AcDbEntity
  8
1
  6
CONTINUOUS
370
    50
100
AcDbLine
 10
87.9555718827
 20
173.0497966805
 30
0.0
 11
87.9307097103
 21
172.4423258665
 31
0.0
  0
LINE
  5
38B
330
A
100
AcDbEntity
  8
1
  6
CONTINUOUS
370
    50
100
AcDbLine
 10
87.9307097103
 20
172.4423258665
 30
0.0
 11
87.7700199857
 21
171.9354839456
 31
0.0
  0
LINE
  5
38C
330
A
100
AcDbEntity
  8
1
  6
CONTINUOUS
370
    50
100
AcDbLine
 10
87.7700199857
 20
171.9354839456
 30
0.0
 11
87.4909159339
 21
171.5841951044
 31
0.0
  0
LINE
  5
38D
330
A
100
AcDbEntity
  8
1
  6
CONTINUOUS
370
    50
100
AcDbLine
 10
87.4909159339
 20
171.5841951044
 30
0.0
 11
87.1236428097
 21
171.4265269397
 31
0.0
  0
LINE
  5
38E
330
A
100
AcDbEntity
  8
1
  6
CONTINUOUS
370
    50
100
AcDbLine
 10
87.1236428097
 20
171.4265269397
 30
0.0
 11
86.7080003548
 21
171.4795652435
 31
0.0
  0
LINE
  5
38F
330
A
100
AcDbEntity
  8
1
  6
CONTINUOUS
370
    50
100
AcDbLine
 10
86.7080003548
 20
171.4795652435
 30
0.0
 11
86.2890298787
 21
171.7375624927
 31
0.0
  0
LINE
  5
390
330
A
100
AcDbEntity
  8
1
  6
CONTINUOUS
370
    50
100
AcDbLine
 10
86.2890298787
 20
171.7375624927
 30
0.0
 11
85.9121333334
 21
172.172560682
 31
0.0
  0
LINE
  5
391
330
A
100
AcDbEntity
  8
1
  6
CONTINUOUS
370
    50
100
AcDbLine
 10
85.9121333334
 20
172.172560682
 30
0.0
 11
85.6181533077
 21
172.7374210081
 31
0.0
  0
LINE
  5
392
330
A
100
AcDbEntity
  8
1
  6
CONTINUOUS
370
    50
100
AcDbLine
 10
85.6181533077
 20
172.7374210081
 30
0.0
 11
85.438947099
 21
173.3709320898
 31
0.0
  0
LINE
  5
393
330
A
100
AcDbEntity
  8
1
  6
CONTINUOUS
370
    50
100
AcDbLine
 10
93.6131465381
 20
176.8345724902
 30
0.0
 11
93.538323418
 21
176.2561439462
 31
0.0
  0
LINE
  5
394
330
A
100
AcDbEntity
  8
1
  6
CONTINUOUS
370
    50
100
AcDbLine
 10
93.538323418
 20
176.2561439462
 30
0.0
 11
93.6028016251
 21
175.6184120368
 31
0.0
  0
LINE
  5
395
330
A
100
AcDbEntity
  8
1
  6
CONTINUOUS
370
    50
100
AcDbLine
 10
93.6028016251
 20
175.6184120368
 30
0.0
 11
93.7995939449
 21
174.9904849098
 31
0.0
  0
LINE
  5
396
330
A
100
AcDbEntity
  8
1
  6
CONTINUOUS
370
    50
100
AcDbLine
 10
93.7995939449
 20
174.9904849098
 30
0.0
 11
94.1073748761
 21
174.4404082128
 31
0.0
  0
LINE
  5
397
330
A
100
AcDbEntity
  8
1
  6
CONTINUOUS
370
    50
100
AcDbLine
 10
94.1073748761
 20
174.4404082128
 30
0.0
 11
94.4927915792
 21
174.0277912911
 31
0.0
  0
LINE
  5
398
330
A
100
AcDbEntity
  8
1
  6
CONTINUOUS
370
    50
100
AcDbLine
 10
94.4927915792
 20
174.0277912911
 30
0.0
 11
94.9140781739
 21
173.7973475907
 31
0.0
  0
LINE
  5
399
330
A
100
AcDbEntity
  8
1
  6
CONTINUOUS
370
    50
100
AcDbLine
 10
94.9140781739
 20
173.7973475907
 30
0.0
 11
95.3255817209
 21
173.7740492621
 31
0.0
  0
LINE
  5
39A
330
A
100
AcDbEntity
  8
1
  6
CONTINUOUS
370
    50
100
AcDbLine
 10
95.3255817209
 20
173.7740492621
 30
0.0
 11
95.6827094255
 21
173.9604210408
 31
0.0
  0
LINE
  5
39B
330
A
100
AcDbEntity
  8
1
  6
CONTINUOUS
370
    50
100
AcDbLine
 10
95.6827094255
 20
173.9604210408
 30
0.0
 11
95.9467609598
 21
174.3362666528
 31
0.0
  0
LINE
  5
39C
330
A
100
AcDbEntity
  8
1
  6
CONTINUOUS
370
    50
100
AcDbLine
 10
95.9467609598
 20
174.3362666528
 30
0.0
 11
96.0891222426
 21
174.8608573941
 31
0.0
  0
LINE
  5
39D
330
A
100
AcDbEntity
  8
1
  6
CONTINUOUS
370
    50
100
AcDbLine
 10
96.0891222426
 20
174.8608573941
 30
0.0
 11
96.0943662202
 21
175.477345718
 31
0.0
  0
LINE
  5
39E
330
A
100
AcDbEntity
  8
1
  6
CONTINUOUS
370
    50
100
AcDbLine
 10
96.0943662202
 20
175.477345718
 30
0.0
 11
95.961924626
 21
176.1189255488
 31
0.0
  0
LINE
  5
39F
330
A
100
AcDbEntity
  8
1
  6
CONTINUOUS
370
    50
100
AcDbLine
 10
95.961924626
 20
176.1189255488
 30
0.0
 11
95.706149562
 21
176.7160717568
 31
0.0
  0
LINE
  5
3A0
330
A
100
AcDbEntity
  8
1
  6
CONTINUOUS
370
    50
100
AcDbLine
 10
95.706149562
 20
176.7160717568
 30
0.0
 11
95.354758225
 21
177.2040742846
 31
0.0
  0
LINE
  5
3A1
330
A
100
AcDbEntity
  8
1
  6
CONTINUOUS
370
    50
100
AcDbLine
 10
95.354758225
 20
177.2040742846
 30
0.0
 11
94.9458293188
 21
177.5300504861
 31
0.0
  0
LINE
  5
3A2
330
A
100
AcDbEntity
  8
1
  6
CONTINUOUS
370
    50
100
AcDbLine
 10
94.9458293188
 20
177.5300504861
 30
0.0
 11
94.5236766356
 21
177.658675782
 31
0.0
  0
LINE
  5
3A3
330
A
100
AcDbEntity
  8
1
  6
CONTINUOUS
370
    50
100
AcDbLine
 10
94.5236766356
 20
177.658675782
 30
0.0
 11
94.134046969
 21
177.5760116256
 31
0.0
  0
LINE
  5
3A4
330
A
100
AcDbEntity
  8
1
  6
CONTINUOUS
370
    50
100
AcDbLine
 10
94.134046969
 20
177.5760116256
 30
0.0
 11
93.8191627391
 21
177.2910159608
 31
0.0
  0
LINE
  5
3A5
330
A
100
AcDbEntity
  8
1
  6
CONTINUOUS
370
    50
100
AcDbLine
 10
93.8191627391
 20
177.2910159608
 30
0.0
 11
93.6131465381
 21
176.8345724902
 31
0.0
  0
LINE
  5
3A6
330
A
100
AcDbEntity
  8
1
  6
CONTINUOUS
370
    50
100
AcDbLine
 10
87.9232919094
 20
173.3731305529
 30
0.0
 11
87.9683045277
 21
172.7396194712
 31
0.0
  0
LINE
  5
3A7
330
A
100
AcDbEntity
  8
1
  6
CONTINUOUS
370
    50
100
AcDbLine
 10
87.9683045277
 20
172.7396194712
 30
0.0
 11
87.8742457399
 21
172.1747591451
 31
0.0
  0
LINE
  5
3A8
330
A
100
AcDbEntity
  8
1
  6
CONTINUOUS
370
    50
100
AcDbLine
 10
87.8742457399
 20
172.1747591451
 30
0.0
 11
87.6513082753
 21
171.7397609558
 31
0.0
  0
LINE
  5
3A9
330
A
100
AcDbEntity
  8
1
  6
CONTINUOUS
370
    50
100
AcDbLine
 10
87.6513082753
 20
171.7397609558
 30
0.0
 11
87.3236508673
 21
171.4817637066
 31
0.0
  0
LINE
  5
3AA
330
A
100
AcDbEntity
  8
1
  6
CONTINUOUS
370
    50
100
AcDbLine
 10
87.3236508673
 20
171.4817637066
 30
0.0
 11
86.9267802802
 21
171.4287254028
 31
0.0
  0
LINE
  5
3AB
330
A
100
AcDbEntity
  8
1
  6
CONTINUOUS
370
    50
100
AcDbLine
 10
86.9267802802
 20
171.4287254028
 30
0.0
 11
86.5037036002
 21
171.5863935675
 31
0.0
  0
LINE
  5
3AC
330
A
100
AcDbEntity
  8
1
  6
CONTINUOUS
370
    50
100
AcDbLine
 10
86.5037036002
 20
171.5863935675
 30
0.0
 11
86.1002677504
 21
171.9376824087
 31
0.0
  0
LINE
  5
3AD
330
A
100
AcDbEntity
  8
1
  6
CONTINUOUS
370
    50
100
AcDbLine
 10
86.1002677504
 20
171.9376824087
 30
0.0
 11
85.7601912649
 21
172.4445243296
 31
0.0
  0
LINE
  5
3AE
330
A
100
AcDbEntity
  8
1
  6
CONTINUOUS
370
    50
100
AcDbLine
 10
85.7601912649
 20
172.4445243296
 30
0.0
 11
85.5203267078
 21
173.0519951436
 31
0.0
  0
LINE
  5
3AF
330
A
100
AcDbEntity
  8
1
  6
CONTINUOUS
370
    50
100
AcDbLine
 10
85.5203267078
 20
173.0519951436
 30
0.0
 11
85.4066671258
 21
173.6942659622
 31
0.0
  0
LINE
  5
3B0
330
A
100
AcDbEntity
  8
1
  6
CONTINUOUS
370
    50
100
AcDbLine
 10
85.4066671258
 20
173.6942659622
 30
0.0
 11
85.4315292981
 21
174.3017367762
 31
0.0
  0
LINE
  5
3B1
330
A
100
AcDbEntity
  8
1
  6
CONTINUOUS
370
    50
100
AcDbLine
 10
85.4315292981
 20
174.3017367762
 30
0.0
 11
85.5922190227
 21
174.8085786971
 31
0.0
  0
LINE
  5
3B2
330
A
100
AcDbEntity
  8
1
  6
CONTINUOUS
370
    50
100
AcDbLine
 10
85.5922190227
 20
174.8085786971
 30
0.0
 11
85.8713230745
 21
175.1598675383
 31
0.0
  0
LINE
  5
3B3
330
A
100
AcDbEntity
  8
1
  6
CONTINUOUS
370
    50
100
AcDbLine
 10
85.8713230745
 20
175.1598675383
 30
0.0
 11
86.2385961988
 21
175.3175357031
 31
0.0
  0
LINE
  5
3B4
330
A
100
AcDbEntity
  8
1
  6
CONTINUOUS
370
    50
100
AcDbLine
 10
86.2385961988
 20
175.3175357031
 30
0.0
 11
86.6542386536
 21
175.2644973992
 31
0.0
  0
LINE
  5
3B5
330
A
100
AcDbEntity
  8
1
  6
CONTINUOUS
370
    50
100
AcDbLine
 10
86.6542386536
 20
175.2644973992
 30
0.0
 11
87.0732091298
 21
175.0065001501
 31
0.0
  0
LINE
  5
3B6
330
A
100
AcDbEntity
  8
1
  6
CONTINUOUS
370
    50
100
AcDbLine
 10
87.0732091298
 20
175.0065001501
 30
0.0
 11
87.4501056751
 21
174.5715019607
 31
0.0
  0
LINE
  5
3B7
330
A
100
AcDbEntity
  8
1
  6
CONTINUOUS
370
    50
100
AcDbLine
 10
87.4501056751
 20
174.5715019607
 30
0.0
 11
87.7440857007
 21
174.0066416346
 31
0.0
  0
LINE
  5
3B8
330
A
100
AcDbEntity
  8
1
  6
CONTINUOUS
370
    50
100
AcDbLine
 10
87.7440857007
 20
174.0066416346
 30
0.0
 11
87.9232919094
 21
173.3731305529
 31
0.0
  0
LINE
  5
3B9
330
A
100
AcDbEntity
  8
1
  6
CONTINUOUS
370
    50
100
AcDbLine
 10
85.438947099
 20
160.947617886
 30
0.0
 11
85.3939344808
 21
160.3141068043
 31
0.0
  0
LINE
  5
3BA
330
A
100
AcDbEntity
  8
1
  6
CONTINUOUS
370
    50
100
AcDbLine
 10
85.3939344808
 20
160.3141068043
 30
0.0
 11
85.4879932685
 21
159.7492464783
 31
0.0
  0
LINE
  5
3BB
330
A
100
AcDbEntity
  8
1
  6
CONTINUOUS
370
    50
100
AcDbLine
 10
85.4879932685
 20
159.7492464783
 30
0.0
 11
85.7109307331
 21
159.3142482889
 31
0.0
  0
LINE
  5
3BC
330
A
100
AcDbEntity
  8
1
  6
CONTINUOUS
370
    50
100
AcDbLine
 10
85.7109307331
 20
159.3142482889
 30
0.0
 11
86.0385881411
 21
159.0562510397
 31
0.0
  0
LINE
  5
3BD
330
A
100
AcDbEntity
  8
1
  6
CONTINUOUS
370
    50
100
AcDbLine
 10
86.0385881411
 20
159.0562510397
 30
0.0
 11
86.4354587282
 21
159.0032127359
 31
0.0
  0
LINE
  5
3BE
330
A
100
AcDbEntity
  8
1
  6
CONTINUOUS
370
    50
100
AcDbLine
 10
86.4354587282
 20
159.0032127359
 30
0.0
 11
86.8585354082
 21
159.1608809006
 31
0.0
  0
LINE
  5
3BF
330
A
100
AcDbEntity
  8
1
  6
CONTINUOUS
370
    50
100
AcDbLine
 10
86.8585354082
 20
159.1608809006
 30
0.0
 11
87.2619712581
 21
159.5121697419
 31
0.0
  0
LINE
  5
3C0
330
A
100
AcDbEntity
  8
1
  6
CONTINUOUS
370
    50
100
AcDbLine
 10
87.2619712581
 20
159.5121697419
 30
0.0
 11
87.6020477436
 21
160.0190116628
 31
0.0
  0
LINE
  5
3C1
330
A
100
AcDbEntity
  8
1
  6
CONTINUOUS
370
    50
100
AcDbLine
 10
87.6020477436
 20
160.0190116628
 30
0.0
 11
87.8419123006
 21
160.6264824768
 31
0.0
  0
LINE
  5
3C2
330
A
100
AcDbEntity
  8
1
  6
CONTINUOUS
370
    50
100
AcDbLine
 10
87.8419123006
 20
160.6264824768
 30
0.0
 11
87.9555718827
 21
161.2687532953
 31
0.0
  0
LINE
  5
3C3
330
A
100
AcDbEntity
  8
1
  6
CONTINUOUS
370
    50
100
AcDbLine
 10
87.9555718827
 20
161.2687532953
 30
0.0
 11
87.9307097103
 21
161.8762241093
 31
0.0
  0
LINE
  5
3C4
330
A
100
AcDbEntity
  8
1
  6
CONTINUOUS
370
    50
100
AcDbLine
 10
87.9307097103
 20
161.8762241093
 30
0.0
 11
87.7700199857
 21
162.3830660302
 31
0.0
  0
LINE
  5
3C5
330
A
100
AcDbEntity
  8
1
  6
CONTINUOUS
370
    50
100
AcDbLine
 10
87.7700199857
 20
162.3830660302
 30
0.0
 11
87.4909159339
 21
162.7343548714
 31
0.0
  0
LINE
  5
3C6
330
A
100
AcDbEntity
  8
1
  6
CONTINUOUS
370
    50
100
AcDbLine
 10
87.4909159339
 20
162.7343548714
 30
0.0
 11
87.1236428097
 21
162.8920230362
 31
0.0
  0
LINE
  5
3C7
330
A
100
AcDbEntity
  8
1
  6
CONTINUOUS
370
    50
100
AcDbLine
 10
87.1236428097
 20
162.8920230362
 30
0.0
 11
86.7080003548
 21
162.8389847324
 31
0.0
  0
LINE
  5
3C8
330
A
100
AcDbEntity
  8
1
  6
CONTINUOUS
370
    50
100
AcDbLine
 10
86.7080003548
 20
162.8389847324
 30
0.0
 11
86.2890298787
 21
162.5809874832
 31
0.0
  0
LINE
  5
3C9
330
A
100
AcDbEntity
  8
1
  6
CONTINUOUS
370
    50
100
AcDbLine
 10
86.2890298787
 20
162.5809874832
 30
0.0
 11
85.9121333334
 21
162.1459892938
 31
0.0
  0
LINE
  5
3CA
330
A
100
AcDbEntity
  8
1
  6
CONTINUOUS
370
    50
100
AcDbLine
 10
85.9121333334
 20
162.1459892938
 30
0.0
 11
85.6181533077
 21
161.5811289677
 31
0.0
  0
LINE
  5
3CB
330
A
100
AcDbEntity
  8
1
  6
CONTINUOUS
370
    50
100
AcDbLine
 10
85.6181533077
 20
161.5811289677
 30
0.0
 11
85.438947099
 21
160.947617886
 31
0.0
  0
LINE
  5
3CC
330
A
100
AcDbEntity
  8
1
  6
CONTINUOUS
370
    50
100
AcDbLine
 10
93.6131465381
 20
157.4839774856
 30
0.0
 11
93.538323418
 21
158.0624060296
 31
0.0
  0
LINE
  5
3CD
330
A
100
AcDbEntity
  8
1
  6
CONTINUOUS
370
    50
100
AcDbLine
 10
93.538323418
 20
158.0624060296
 30
0.0
 11
93.6028016251
 21
158.700137939
 31
0.0
  0
LINE
  5
3CE
330
A
100
AcDbEntity
  8
1
  6
CONTINUOUS
370
    50
100
AcDbLine
 10
93.6028016251
 20
158.700137939
 30
0.0
 11
93.7995939449
 21
159.328065066
 31
0.0
  0
LINE
  5
3CF
330
A
100
AcDbEntity
  8
1
  6
CONTINUOUS
370
    50
100
AcDbLine
 10
93.7995939449
 20
159.328065066
 30
0.0
 11
94.1073748761
 21
159.878141763
 31
0.0
  0
LINE
  5
3D0
330
A
100
AcDbEntity
  8
1
  6
CONTINUOUS
370
    50
100
AcDbLine
 10
94.1073748761
 20
159.878141763
 30
0.0
 11
94.4927915792
 21
160.2907586847
 31
0.0
  0
LINE
  5
3D1
330
A
100
AcDbEntity
  8
1
  6
CONTINUOUS
370
    50
100
AcDbLine
 10
94.4927915792
 20
160.2907586847
 30
0.0
 11
94.9140781739
 21
160.5212023852
 31
0.0
  0
LINE
  5
3D2
330
A
100
AcDbEntity
  8
1
  6
CONTINUOUS
370
    50
100
AcDbLine
 10
94.9140781739
 20
160.5212023852
 30
0.0
 11
95.3255817209
 21
160.5445007137
 31
0.0
  0
LINE
  5
3D3
330
A
100
AcDbEntity
  8
1
  6
CONTINUOUS
370
    50
100
AcDbLine
 10
95.3255817209
 20
160.5445007137
 30
0.0
 11
95.6827094255
 21
160.358128935
 31
0.0
  0
LINE
  5
3D4
330
A
100
AcDbEntity
  8
1
  6
CONTINUOUS
370
    50
100
AcDbLine
 10
95.6827094255
 20
160.358128935
 30
0.0
 11
95.9467609598
 21
159.982283323
 31
0.0
  0
LINE
  5
3D5
330
A
100
AcDbEntity
  8
1
  6
CONTINUOUS
370
    50
100
AcDbLine
 10
95.9467609598
 20
159.982283323
 30
0.0
 11
96.0891222426
 21
159.4576925818
 31
0.0
  0
LINE
  5
3D6
330
A
100
AcDbEntity
  8
1
  6
CONTINUOUS
370
    50
100
AcDbLine
 10
96.0891222426
 20
159.4576925818
 30
0.0
 11
96.0943662202
 21
158.8412042579
 31
0.0
  0
LINE
  5
3D7
330
A
100
AcDbEntity
  8
1
  6
CONTINUOUS
370
    50
100
AcDbLine
 10
96.0943662202
 20
158.8412042579
 30
0.0
 11
95.961924626
 21
158.199624427
 31
0.0
  0
LINE
  5
3D8
330
A
100
AcDbEntity
  8
1
  6
CONTINUOUS
370
    50
100
AcDbLine
 10
95.961924626
 20
158.199624427
 30
0.0
 11
95.706149562
 21
157.6024782191
 31
0.0
  0
LINE
  5
3D9
330
A
100
AcDbEntity
  8
1
  6
CONTINUOUS
370
    50
100
AcDbLine
 10
95.706149562
 20
157.6024782191
 30
0.0
 11
95.354758225
 21
157.1144756913
 31
0.0
  0
LINE
  5
3DA
330
A
100
AcDbEntity
  8
1
  6
CONTINUOUS
370
    50
100
AcDbLine
 10
95.354758225
 20
157.1144756913
 30
0.0
 11
94.9458293188
 21
156.7884994897
 31
0.0
  0
LINE
  5
3DB
330
A
100
AcDbEntity
  8
1
  6
CONTINUOUS
370
    50
100
AcDbLine
 10
94.9458293188
 20
156.7884994897
 30
0.0
 11
94.5236766356
 21
156.6598741938
 31
0.0
  0
LINE
  5
3DC
330
A
100
AcDbEntity
  8
1
  6
CONTINUOUS
370
    50
100
AcDbLine
 10
94.5236766356
 20
156.6598741938
 30
0.0
 11
94.134046969
 21
156.7425383503
 31
0.0
  0
LINE
  5
3DD
330
A
100
AcDbEntity
  8
1
  6
CONTINUOUS
370
    50
100
AcDbLine
 10
94.134046969
 20
156.7425383503
 30
0.0
 11
93.8191627391
 21
157.027534015
 31
0.0
  0
LINE
  5
3DE
330
A
100
AcDbEntity
  8
1
  6
CONTINUOUS
370
    50
100
AcDbLine
 10
93.8191627391
 20
157.027534015
 30
0.0
 11
93.6131465381
 21
157.4839774856
 31
0.0
  0
LINE
  5
3DF
330
A
100
AcDbEntity
  8
1
  6
CONTINUOUS
370
    50
100
AcDbLine
 10
85.4466075435
 20
160.9454194229
 30
0.0
 11
85.4015949252
 21
160.3119083412
 31
0.0
  0
LINE
  5
3E0
330
A
100
AcDbEntity
  8
1
  6
CONTINUOUS
370
    50
100
AcDbLine
 10
85.4015949252
 20
160.3119083412
 30
0.0
 11
85.4956537129
 21
159.7470480152
 31
0.0
  0
LINE
  5
3E1
330
A
100
AcDbEntity
  8
1
  6
CONTINUOUS
370
    50
100
AcDbLine
 10
85.4956537129
 20
159.7470480152
 30
0.0
 11
85.7185911776
 21
159.3120498258
 31
0.0
  0
LINE
  5
3E2
330
A
100
AcDbEntity
  8
1
  6
CONTINUOUS
370
    50
100
AcDbLine
 10
85.7185911776
 20
159.3120498258
 30
0.0
 11
86.0462485856
 21
159.0540525766
 31
0.0
  0
LINE
  5
3E3
330
A
100
AcDbEntity
  8
1
  6
CONTINUOUS
370
    50
100
AcDbLine
 10
86.0462485856
 20
159.0540525766
 30
0.0
 11
86.4431191726
 21
159.0010142728
 31
0.0
  0
LINE
  5
3E4
330
A
100
AcDbEntity
  8
1
  6
CONTINUOUS
370
    50
100
AcDbLine
 10
86.4431191726
 20
159.0010142728
 30
0.0
 11
86.8661958526
 21
159.1586824375
 31
0.0
  0
LINE
  5
3E5
330
A
100
AcDbEntity
  8
1
  6
CONTINUOUS
370
    50
100
AcDbLine
 10
86.8661958526
 20
159.1586824375
 30
0.0
 11
87.2696317025
 21
159.5099712787
 31
0.0
  0
LINE
  5
3E6
330
A
100
AcDbEntity
  8
1
  6
CONTINUOUS
370
    50
100
AcDbLine
 10
87.2696317025
 20
159.5099712787
 30
0.0
 11
87.609708188
 21
160.0168131997
 31
0.0
  0
LINE
  5
3E7
330
A
100
AcDbEntity
  8
1
  6
CONTINUOUS
370
    50
100
AcDbLine
 10
87.609708188
 20
160.0168131997
 30
0.0
 11
87.8495727451
 21
160.6242840137
 31
0.0
  0
LINE
  5
3E8
330
A
100
AcDbEntity
  8
1
  6
CONTINUOUS
370
    50
100
AcDbLine
 10
87.8495727451
 20
160.6242840137
 30
0.0
 11
87.9632323271
 21
161.2665548322
 31
0.0
  0
LINE
  5
3E9
330
A
100
AcDbEntity
  8
1
  6
CONTINUOUS
370
    50
100
AcDbLine
 10
87.9632323271
 20
161.2665548322
 30
0.0
 11
87.9383701547
 21
161.8740256462
 31
0.0
  0
LINE
  5
3EA
330
A
100
AcDbEntity
  8
1
  6
CONTINUOUS
370
    50
100
AcDbLine
 10
87.9383701547
 20
161.8740256462
 30
0.0
 11
87.7776804301
 21
162.3808675671
 31
0.0
  0
LINE
  5
3EB
330
A
100
AcDbEntity
  8
1
  6
CONTINUOUS
370
    50
100
AcDbLine
 10
87.7776804301
 20
162.3808675671
 30
0.0
 11
87.4985763783
 21
162.7321564083
 31
0.0
  0
LINE
  5
3EC
330
A
100
AcDbEntity
  8
1
  6
CONTINUOUS
370
    50
100
AcDbLine
 10
87.4985763783
 20
162.7321564083
 30
0.0
 11
87.1313032541
 21
162.8898245731
 31
0.0
  0
LINE
  5
3ED
330
A
100
AcDbEntity
  8
1
  6
CONTINUOUS
370
    50
100
AcDbLine
 10
87.1313032541
 20
162.8898245731
 30
0.0
 11
86.7156607992
 21
162.8367862693
 31
0.0
  0
LINE
  5
3EE
330
A
100
AcDbEntity
  8
1
  6
CONTINUOUS
370
    50
100
AcDbLine
 10
86.7156607992
 20
162.8367862693
 30
0.0
 11
86.2966903231
 21
162.5787890201
 31
0.0
  0
LINE
  5
3EF
330
A
100
AcDbEntity
  8
1
  6
CONTINUOUS
370
    50
100
AcDbLine
 10
86.2966903231
 20
162.5787890201
 30
0.0
 11
85.9197937778
 21
162.1437908307
 31
0.0
  0
LINE
  5
3F0
330
A
100
AcDbEntity
  8
1
  6
CONTINUOUS
370
    50
100
AcDbLine
 10
85.9197937778
 20
162.1437908307
 30
0.0
 11
85.6258137521
 21
161.5789305046
 31
0.0
  0
LINE
  5
3F1
330
A
100
AcDbEntity
  8
1
  6
CONTINUOUS
370
    50
100
AcDbLine
 10
85.6258137521
 20
161.5789305046
 30
0.0
 11
85.4466075435
 21
160.9454194229
 31
0.0
  0
LINE
  5
3F2
330
A
100
AcDbEntity
  8
1
  6
CONTINUOUS
370
    50
100
AcDbLine
 10
43.8204003749
 20
175.1592749879
 30
0.0
 11
18.7856780499
 21
175.1592749879
 31
0.0
  0
LINE
  5
3F3
330
A
100
AcDbEntity
  8
1
  6
CONTINUOUS
370
    50
100
AcDbLine
 10
18.7856780499
 20
159.1592749879
 30
0.0
 11
43.8204003749
 21
159.1592749879
 31
0.0
  0
LINE
  5
3F4
330
A
100
AcDbEntity
  8
1
  6
CONTINUOUS
370
    50
100
AcDbLine
 10
43.8204003749
 20
175.1592749879
 30
0.0
 11
43.8204003749
 21
175.131950932
 31
0.0
  0
LINE
  5
3F5
330
A
100
AcDbEntity
  8
1
  6
CONTINUOUS
370
    50
100
AcDbLine
 10
43.8204003749
 20
175.131950932
 30
0.0
 11
43.8204003749
 21
159.1592749879
 31
0.0
  0
LINE
  5
3F6
330
A
100
AcDbEntity
  8
1
  6
CONTINUOUS
370
    50
100
AcDbLine
 10
148.1604003749
 20
173.1592749879
 30
0.0
 11
129.7908595354
 21
173.1592749879
 31
0.0
  0
LINE
  5
3F7
330
A
100
AcDbEntity
  8
1
  6
CONTINUOUS
370
    50
100
AcDbLine
 10
129.7908595354
 20
161.1592749879
 30
0.0
 11
148.1604003749
 21
161.1592749879
 31
0.0
  0
ENDSEC
  0
SECTION
  2
OBJECTS
  0
DICTIONARY
  5
19
330
0
100
AcDbDictionary
281
     1
  3
ACAD_GROUP
350
1A
  3
ACAD_LAYOUT
350
41C
  3
ACAD_MATERIAL
350
430
  3
ACAD_MLEADERSTYLE
350
438
  3
ACAD_MLINESTYLE
350
1B
  3
ACAD_SCALELIST
350
3FA
  3
ACAD_VISUALSTYLE
350
41F
  3
ACDB_RECOMPOSE_DATA
350
465
  3
AcDbVariableDictionary
350
436
  0
DICTIONARY
  5
43C
330
7
100
AcDbDictionary
280
     1
281
     1
  3
ACAD_XREC_ROUNDTRIP
360
43D
  0
DICTIONARY
  5
1A
102
{ACAD_REACTORS
330
19
102
}
330
19
100
AcDbDictionary
281
     1
  0
DICTIONARY
  5
41C
102
{ACAD_REACTORS
330
19
102
}
330
19
100
AcDbDictionary
281
     1
  3
Layout1
350
41E
  3
Model
350
41D
  0
DICTIONARY
  5
430
102
{ACAD_REACTORS
330
19
102
}
330
19
100
AcDbDictionary
281
     1
  3
ByBlock
350
432
  3
ByLayer
350
431
  3
Global
350
433
  0
DICTIONARY
  5
438
102
{ACAD_REACTORS
330
19
102
}
330
19
100
AcDbDictionary
281
     1
  0
DICTIONARY
  5
1B
102
{ACAD_REACTORS
330
19
102
}
330
19
100
AcDbDictionary
281
     1
  3
STANDARD
350
1C
  0
DICTIONARY
  5
3FA
102
{ACAD_REACTORS
330
19
102
}
330
19
100
AcDbDictionary
281
     1
  3
A0
350
3FB
  3
A1
350
3FC
  3
A2
350
3FD
  3
A3
350
3FE
  3
A4
350
3FF
  3
A5
350
400
  3
A6
350
401
  3
A7
350
402
  3
A8
350
403
  3
A9
350
404
  3
B0
350
405
  3
B1
350
406
  3
B2
350
407
  3
B3
350
408
  3
B4
350
409
  3
B5
350
40A
  3
B6
350
40B
  3
B7
350
40C
  3
B8
350
40D
  3
B9
350
40E
  3
C0
350
40F
  3
C1
350
410
  3
C2
350
411
  3
C3
350
412
  3
C4
350
413
  3
C5
350
414
  3
C6
350
415
  3
C7
350
416
  3
C8
350
417
  3
C9
350
418
  3
D0
350
419
  3
D1
350
41A
  3
D2
350
41B
  0
DICTIONARY
  5
41F
102
{ACAD_REACTORS
330
19
102
}
330
19
100
AcDbDictionary
281
     1
  3
2dWireframe
350
424
  3
3D Hidden
350
426
  3
3dWireframe
350
425
  3
Basic
350
427
  3
Brighten
350
42B
  3
ColorChange
350
42F
  3
Conceptual
350
429
  3
Dim
350
42A
  3
Facepattern
350
42E
  3
Flat
350
420
  3
FlatWithEdges
350
421
  3
Gouraud
350
422
  3
GouraudWithEdges
350
423
  3
Linepattern
350
42D
  3
Realistic
350
428
  3
Thicken
350
42C
  0
XRECORD
  5
465
102
{ACAD_REACTORS
330
19
102
}
330
19
100
AcDbXrecord
280
     1
  0
DICTIONARY
  5
436
102
{ACAD_REACTORS
330
19
102
}
330
19
100
AcDbDictionary
281
     1
  3
CANNOSCALE
350
43E
  3
DIMASSOC
350
43A
  3
HIDETEXT
350
43B
  3
MSLTSCALE
350
439
  0
XRECORD
  5
43D
102
{ACAD_REACTORS
330
43C
102
}
330
43C
100
AcDbXrecord
280
     1
102
VTR_0.000_0.000_1.000_1.000_VISUALSTYLE
340
424
102
VTR_0.000_0.000_1.000_1.000_GRIDDISPLAY
 70
     3
102
VTR_0.000_0.000_1.000_1.000_GRIDMAJOR
 70
     5
102
VTR_0.000_0.000_1.000_1.000_DEFAULTLIGHTING
280
     1
102
VTR_0.000_0.000_1.000_1.000_DEFAULTLIGHTINGTYPE
 70
     1
102
VTR_0.000_0.000_1.000_1.000_BRIGHTNESS
141
0.0
102
VTR_0.000_0.000_1.000_1.000_CONTRAST
142
0.0
  0
LAYOUT
  5
41E
102
{ACAD_REACTORS
330
41C
102
}
330
41C
100
AcDbPlotSettings
  1

  2
none_device
  4

  6

 40
0.0
 41
0.0
 42
0.0
 43
0.0
 44
0.0
 45
0.0
 46
0.0
 47
0.0
 48
0.0
 49
0.0
140
0.0
141
0.0
142
1.0
143
1.0
 70
   688
 72
     0
 73
     0
 74
     5
  7

 75
    16
147
1.0
148
0.0
149
0.0
100
AcDbLayout
  1
Layout1
 70
     1
 71
     1
 10
0.0
 20
0.0
 11
12.0
 21
9.0
 12
0.0
 22
0.0
 32
0.0
 14
1.000000000000000E+20
 24
1.000000000000000E+20
 34
1.000000000000000E+20
 15
-1.000000000000000E+20
 25
-1.000000000000000E+20
 35
-1.000000000000000E+20
146
0.0
 13
0.0
 23
0.0
 33
0.0
 16
1.0
 26
0.0
 36
0.0
 17
0.0
 27
1.0
 37
0.0
 76
     0
330
B
  0
LAYOUT
  5
41D
102
{ACAD_REACTORS
330
41C
102
}
330
41C
100
AcDbPlotSettings
  1

  2
none_device
  4

  6

 40
0.0
 41
0.0
 42
0.0
 43
0.0
 44
0.0
 45
0.0
 46
0.0
 47
0.0
 48
0.0
 49
0.0
140
0.0
141
0.0
142
1.0
143
1.0
 70
  1712
 72
     0
 73
     0
 74
     0
  7

 75
     0
147
1.0
148
2667.54428576817
149
0.0
100
AcDbLayout
  1
Model
 70
     1
 71
     0
 10
0.0
 20
0.0
 11
0.0
 21
0.0
 12
0.0
 22
0.0
 32
0.0
 14
0.0
 24
0.0
 34
0.0
 15
210.0
 25
297.0
 35
0.0
146
0.0
 13
0.0
 23
0.0
 33
0.0
 16
1.0
 26
0.0
 36
0.0
 17
0.0
 27
1.0
 37
0.0
 76
     0
330
A
331
15
  0
MATERIAL
  5
432
102
{ACAD_REACTORS
330
430
102
}
102
{ACAD_XDICTIONARY
360
461
102
}
330
430
100
AcDbMaterial
  1
ByBlock
  0
MATERIAL
  5
431
102
{ACAD_REACTORS
330
430
102
}
102
{ACAD_XDICTIONARY
360
45F
102
}
330
430
100
AcDbMaterial
  1
ByLayer
  0
MATERIAL
  5
433
102
{ACAD_REACTORS
330
430
102
}
102
{ACAD_XDICTIONARY
360
463
102
}
330
430
100
AcDbMaterial
  1
Global
  0
MLINESTYLE
  5
1C
102
{ACAD_REACTORS
330
1B
102
}
330
1B
100
AcDbMlineStyle
  2
STANDARD
 70
     0
  3

 62
     0
 51
90.0
 52
90.0
 71
     2
 49
0.5
 62
   256
  6
BYLAYER
 49
-0.5
 62
   256
  6
BYLAYER
  0
SCALE
  5
3FB
102
{ACAD_REACTORS
330
3FA
102
}
330
3FA
100
AcDbScale
 70
     0
300
1:1
140
1.0
141
1.0
290
     1
  0
SCALE
  5
3FC
102
{ACAD_REACTORS
330
3FA
102
}
330
3FA
100
AcDbScale
 70
     0
300
1:2
140
1.0
141
2.0
290
     0
  0
SCALE
  5
3FD
102
{ACAD_REACTORS
330
3FA
102
}
330
3FA
100
AcDbScale
 70
     0
300
1:4
140
1.0
141
4.0
290
     0
  0
SCALE
  5
3FE
102
{ACAD_REACTORS
330
3FA
102
}
330
3FA
100
AcDbScale
 70
     0
300
1:5
140
1.0
141
5.0
290
     0
  0
SCALE
  5
3FF
102
{ACAD_REACTORS
330
3FA
102
}
330
3FA
100
AcDbScale
 70
     0
300
1:8
140
1.0
141
8.0
290
     0
  0
SCALE
  5
400
102
{ACAD_REACTORS
330
3FA
102
}
330
3FA
100
AcDbScale
 70
     0
300
1:10
140
1.0
141
10.0
290
     0
  0
SCALE
  5
401
102
{ACAD_REACTORS
330
3FA
102
}
330
3FA
100
AcDbScale
 70
     0
300
1:16
140
1.0
141
16.0
290
     0
  0
SCALE
  5
402
102
{ACAD_REACTORS
330
3FA
102
}
330
3FA
100
AcDbScale
 70
     0
300
1:20
140
1.0
141
20.0
290
     0
  0
SCALE
  5
403
102
{ACAD_REACTORS
330
3FA
102
}
330
3FA
100
AcDbScale
 70
     0
300
1:30
140
1.0
141
30.0
290
     0
  0
SCALE
  5
404
102
{ACAD_REACTORS
330
3FA
102
}
330
3FA
100
AcDbScale
 70
     0
300
1:40
140
1.0
141
40.0
290
     0
  0
SCALE
  5
405
102
{ACAD_REACTORS
330
3FA
102
}
330
3FA
100
AcDbScale
 70
     0
300
1:50
140
1.0
141
50.0
290
     0
  0
SCALE
  5
406
102
{ACAD_REACTORS
330
3FA
102
}
330
3FA
100
AcDbScale
 70
     0
300
1:100
140
1.0
141
100.0
290
     0
  0
SCALE
  5
407
102
{ACAD_REACTORS
330
3FA
102
}
330
3FA
100
AcDbScale
 70
     0
300
2:1
140
2.0
141
1.0
290
     0
  0
SCALE
  5
408
102
{ACAD_REACTORS
330
3FA
102
}
330
3FA
100
AcDbScale
 70
     0
300
4:1
140
4.0
141
1.0
290
     0
  0
SCALE
  5
409
102
{ACAD_REACTORS
330
3FA
102
}
330
3FA
100
AcDbScale
 70
     0
300
8:1
140
8.0
141
1.0
290
     0
  0
SCALE
  5
40A
102
{ACAD_REACTORS
330
3FA
102
}
330
3FA
100
AcDbScale
 70
     0
300
10:1
140
10.0
141
1.0
290
     0
  0
SCALE
  5
40B
102
{ACAD_REACTORS
330
3FA
102
}
330
3FA
100
AcDbScale
 70
     0
300
100:1
140
100.0
141
1.0
290
     0
  0
SCALE
  5
40C
102
{ACAD_REACTORS
330
3FA
102
}
330
3FA
100
AcDbScale
 70
     0
300
1/128" = 1'-0"
140
0.0078125
141
12.0
290
     0
  0
SCALE
  5
40D
102
{ACAD_REACTORS
330
3FA
102
}
330
3FA
100
AcDbScale
 70
     0
300
1/64" = 1'-0"
140
0.015625
141
12.0
290
     0
  0
SCALE
  5
40E
102
{ACAD_REACTORS
330
3FA
102
}
330
3FA
100
AcDbScale
 70
     0
300
1/32" = 1'-0"
140
0.03125
141
12.0
290
     0
  0
SCALE
  5
40F
102
{ACAD_REACTORS
330
3FA
102
}
330
3FA
100
AcDbScale
 70
     0
300
1/16" = 1'-0"
140
0.0625
141
12.0
290
     0
  0
SCALE
  5
410
102
{ACAD_REACTORS
330
3FA
102
}
330
3FA
100
AcDbScale
 70
     0
300
3/32" = 1'-0"
140
0.09375
141
12.0
290
     0
  0
SCALE
  5
411
102
{ACAD_REACTORS
330
3FA
102
}
330
3FA
100
AcDbScale
 70
     0
300
1/8" = 1'-0"
140
0.125
141
12.0
290
     0
  0
SCALE
  5
412
102
{ACAD_REACTORS
330
3FA
102
}
330
3FA
100
AcDbScale
 70
     0
300
3/16" = 1'-0"
140
0.1875
141
12.0
290
     0
  0
SCALE
  5
413
102
{ACAD_REACTORS
330
3FA
102
}
330
3FA
100
AcDbScale
 70
     0
300
1/4" = 1'-0"
140
0.25
141
12.0
290
     0
  0
SCALE
  5
414
102
{ACAD_REACTORS
330
3FA
102
}
330
3FA
100
AcDbScale
 70
     0
300
3/8" = 1'-0"
140
0.375
141
12.0
290
     0
  0
SCALE
  5
415
102
{ACAD_REACTORS
330
3FA
102
}
330
3FA
100
AcDbScale
 70
     0
300
1/2" = 1'-0"
140
0.5
141
12.0
290
     0
  0
SCALE
  5
416
102
{ACAD_REACTORS
330
3FA
102
}
330
3FA
100
AcDbScale
 70
     0
300
3/4" = 1'-0"
140
0.75
141
12.0
290
     0
  0
SCALE
  5
417
102
{ACAD_REACTORS
330
3FA
102
}
330
3FA
100
AcDbScale
 70
     0
300
1" = 1'-0"
140
1.0
141
12.0
290
     0
  0
SCALE
  5
418
102
{ACAD_REACTORS
330
3FA
102
}
330
3FA
100
AcDbScale
 70
     0
300
1-1/2" = 1'-0"
140
1.5
141
12.0
290
     0
  0
SCALE
  5
419
102
{ACAD_REACTORS
330
3FA
102
}
330
3FA
100
AcDbScale
 70
     0
300
3" = 1'-0"
140
3.0
141
12.0
290
     0
  0
SCALE
  5
41A
102
{ACAD_REACTORS
330
3FA
102
}
330
3FA
100
AcDbScale
 70
     0
300
6" = 1'-0"
140
6.0
141
12.0
290
     0
  0
SCALE
  5
41B
102
{ACAD_REACTORS
330
3FA
102
}
330
3FA
100
AcDbScale
 70
     0
300
1'-0" = 1'-0"
140
12.0
141
12.0
290
     0
  0
VISUALSTYLE
  5
424
102
{ACAD_REACTORS
330
41F
102
}
102
{ACAD_XDICTIONARY
360
447
102
}
330
41F
100
AcDbVisualStyle
  2
2dWireframe
 70
     4
 71
     0
 72
     2
 73
     0
 90
        0
 40
-0.6
 41
-30.0
 62
     5
 63
     7
 74
     1
 91
        4
 64
     7
 65
   257
 75
     1
175
     1
 42
1.0
 92
        0
 66
   257
 43
1.0
 76
     1
 77
     6
 78
     2
 67
     7
 79
     5
170
     0
171
     0
290
     0
174
     0
 93
        1
 44
0.0
173
     0
291
     0
 45
0.0
1001
ACAD
1000
AcDbSavedByObjectVersion
1070
     0
  0
VISUALSTYLE
  5
426
102
{ACAD_REACTORS
330
41F
102
}
102
{ACAD_XDICTIONARY
360
44B
102
}
330
41F
100
AcDbVisualStyle
  2
3D Hidden
 70
     6
 71
     1
 72
     2
 73
     2
 90
        0
 40
-0.6
 41
-30.0
 62
     5
 63
     7
 74
     2
 91
        2
 64
     7
 65
   257
 75
     2
175
     1
 42
40.0
 92
        0
 66
   257
 43
1.0
 76
     1
 77
     6
 78
     2
 67
     7
 79
     3
170
     0
171
     0
290
     0
174
     0
 93
        1
 44
0.0
173
     0
291
     0
 45
0.0
1001
ACAD
1000
AcDbSavedByObjectVersion
1070
     0
  0
VISUALSTYLE
  5
425
102
{ACAD_REACTORS
330
41F
102
}
102
{ACAD_XDICTIONARY
360
449
102
}
330
41F
100
AcDbVisualStyle
  2
3dWireframe
 70
     5
 71
     0
 72
     2
 73
     0
 90
        0
 40
-0.6
 41
-30.0
 62
     5
 63
     7
 74
     1
 91
        4
 64
     7
 65
   257
 75
     1
175
     1
 42
1.0
 92
        0
 66
   257
 43
1.0
 76
     1
 77
     6
 78
     2
 67
     7
 79
     5
170
     0
171
     0
290
     0
174
     0
 93
        1
 44
0.0
173
     0
291
     0
 45
0.0
1001
ACAD
1000
AcDbSavedByObjectVersion
1070
     0
  0
VISUALSTYLE
  5
427
102
{ACAD_REACTORS
330
41F
102
}
102
{ACAD_XDICTIONARY
360
44D
102
}
330
41F
100
AcDbVisualStyle
  2
Basic
 70
     7
 71
     1
 72
     0
 73
     1
 90
        0
 40
-0.6
 41
-30.0
 62
     5
 63
     7
 74
     0
 91
        4
 64
     7
 65
   257
 75
     1
175
     1
 42
1.0
 92
        8
 66
     7
 43
1.0
 76
     1
 77
     6
 78
     2
 67
     7
 79
     5
170
     0
171
     0
290
     0
174
     0
 93
        1
 44
0.0
173
     0
291
     1
 45
0.0
1001
ACAD
1000
AcDbSavedByObjectVersion
1070
     0
  0
VISUALSTYLE
  5
42B
102
{ACAD_REACTORS
330
41F
102
}
102
{ACAD_XDICTIONARY
360
455
102
}
330
41F
100
AcDbVisualStyle
  2
Brighten
 70
    12
 71
     2
 72
     2
 73
     0
 90
        0
 40
-0.6
 41
-30.0
 62
     5
 63
     7
 74
     1
 91
        4
 64
     7
 65
   257
 75
     1
175
     1
 42
1.0
 92
        8
 66
     7
 43
1.0
 76
     1
 77
     6
 78
     2
 67
     7
 79
     5
170
     0
171
     0
290
     0
174
     0
 93
        1
 44
50.0
173
     0
291
     1
 45
0.0
1001
ACAD
1000
AcDbSavedByObjectVersion
1070
     0
  0
VISUALSTYLE
  5
42F
102
{ACAD_REACTORS
330
41F
102
}
102
{ACAD_XDICTIONARY
360
45D
102
}
330
41F
100
AcDbVisualStyle
  2
ColorChange
 70
    16
 71
     2
 72
     2
 73
     3
 90
        0
 40
-0.6
 41
-30.0
 62
     5
 63
     8
 74
     1
 91
        4
 64
     7
 65
   257
 75
     1
175
     1
 42
1.0
 92
        8
 66
     8
 43
1.0
 76
     1
 77
     6
 78
     2
 67
     7
 79
     5
170
     0
171
     0
290
     0
174
     0
 93
        1
 44
0.0
173
     0
291
     1
 45
0.0
1001
ACAD
1000
AcDbSavedByObjectVersion
1070
     0
  0
VISUALSTYLE
  5
429
102
{ACAD_REACTORS
330
41F
102
}
102
{ACAD_XDICTIONARY
360
451
102
}
330
41F
100
AcDbVisualStyle
  2
Conceptual
 70
     9
 71
     3
 72
     2
 73
     0
 90
        0
 40
-0.6
 41
-30.0
 62
     5
 63
     7
 74
     2
 91
        2
 64
     7
 65
   257
 75
     1
175
     1
 42
40.0
 92
        8
 66
     7
 43
1.0
 76
     1
 77
     6
 78
     2
 67
     7
 79
     3
170
     0
171
     0
290
     0
174
     0
 93
        1
 44
0.0
173
     0
291
     0
 45
0.0
1001
ACAD
1000
AcDbSavedByObjectVersion
1070
     0
  0
VISUALSTYLE
  5
42A
102
{ACAD_REACTORS
330
41F
102
}
102
{ACAD_XDICTIONARY
360
453
102
}
330
41F
100
AcDbVisualStyle
  2
Dim
 70
    11
 71
     2
 72
     2
 73
     0
 90
        0
 40
-0.6
 41
-30.0
 62
     5
 63
     7
 74
     1
 91
        4
 64
     7
 65
   257
 75
     1
175
     1
 42
1.0
 92
        8
 66
     7
 43
1.0
 76
     1
 77
     6
 78
     2
 67
     7
 79
     5
170
     0
171
     0
290
     0
174
     0
 93
        1
 44
-50.0
173
     0
291
     1
 45
0.0
1001
ACAD
1000
AcDbSavedByObjectVersion
1070
     0
  0
VISUALSTYLE
  5
42E
102
{ACAD_REACTORS
330
41F
102
}
102
{ACAD_XDICTIONARY
360
45B
102
}
330
41F
100
AcDbVisualStyle
  2
Facepattern
 70
    15
 71
     2
 72
     2
 73
     0
 90
        0
 40
-0.6
 41
-30.0
 62
     5
 63
     7
 74
     1
 91
        4
 64
     7
 65
   257
 75
     1
175
     1
 42
1.0
 92
        8
 66
     7
 43
1.0
 76
     1
 77
     6
 78
     2
 67
     7
 79
     5
170
     0
171
     0
290
     0
174
     0
 93
        1
 44
0.0
173
     0
291
     1
 45
0.0
1001
ACAD
1000
AcDbSavedByObjectVersion
1070
     0
  0
VISUALSTYLE
  5
420
102
{ACAD_REACTORS
330
41F
102
}
102
{ACAD_XDICTIONARY
360
43F
102
}
330
41F
100
AcDbVisualStyle
  2
Flat
 70
     0
 71
     2
 72
     1
 73
     1
 90
        2
 40
-0.6
 41
30.0
 62
     5
 63
     7
 74
     0
 91
        4
 64
     7
 65
   257
 75
     1
175
     1
 42
1.0
 92
        8
 66
     7
 43
1.0
 76
     1
 77
     6
 78
     2
 67
     7
 79
     5
170
     0
171
     0
290
     0
174
     0
 93
       13
 44
0.0
173
     0
291
     1
 45
0.0
1001
ACAD
1000
AcDbSavedByObjectVersion
1070
     0
  0
VISUALSTYLE
  5
421
102
{ACAD_REACTORS
330
41F
102
}
102
{ACAD_XDICTIONARY
360
441
102
}
330
41F
100
AcDbVisualStyle
  2
FlatWithEdges
 70
     1
 71
     2
 72
     1
 73
     1
 90
        2
 40
-0.6
 41
30.0
 62
     5
 63
     7
 74
     1
 91
        4
 64
     7
 65
   257
 75
     1
175
     1
 42
1.0
 92
        0
 66
   257
 43
1.0
 76
     1
 77
     6
 78
     2
 67
     7
 79
     5
170
     0
171
     0
290
     0
174
     0
 93
       13
 44
0.0
173
     0
291
     1
 45
0.0
1001
ACAD
1000
AcDbSavedByObjectVersion
1070
     0
  0
VISUALSTYLE
  5
422
102
{ACAD_REACTORS
330
41F
102
}
102
{ACAD_XDICTIONARY
360
443
102
}
330
41F
100
AcDbVisualStyle
  2
Gouraud
 70
     2
 71
     2
 72
     2
 73
     1
 90
        2
 40
-0.6
 41
30.0
 62
     5
 63
     7
 74
     0
 91
        4
 64
     7
 65
   257
 75
     1
175
     1
 42
1.0
 92
        0
 66
     7
 43
1.0
 76
     1
 77
     6
 78
     2
 67
     7
 79
     5
170
     0
171
     0
290
     0
174
     0
 93
       13
 44
0.0
173
     0
291
     1
 45
0.0
1001
ACAD
1000
AcDbSavedByObjectVersion
1070
     0
  0
VISUALSTYLE
  5
423
102
{ACAD_REACTORS
330
41F
102
}
102
{ACAD_XDICTIONARY
360
445
102
}
330
41F
100
AcDbVisualStyle
  2
GouraudWithEdges
 70
     3
 71
     2
 72
     2
 73
     1
 90
        2
 40
-0.6
 41
30.0
 62
     5
 63
     7
 74
     1
 91
        4
 64
     7
 65
   257
 75
     1
175
     1
 42
1.0
 92
        0
 66
   257
 43
1.0
 76
     1
 77
     6
 78
     2
 67
     7
 79
     5
170
     0
171
     0
290
     0
174
     0
 93
       13
 44
0.0
173
     0
291
     1
 45
0.0
1001
ACAD
1000
AcDbSavedByObjectVersion
1070
     0
  0
VISUALSTYLE
  5
42D
102
{ACAD_REACTORS
330
41F
102
}
102
{ACAD_XDICTIONARY
360
459
102
}
330
41F
100
AcDbVisualStyle
  2
Linepattern
 70
    14
 71
     2
 72
     2
 73
     0
 90
        0
 40
-0.6
 41
-30.0
 62
     5
 63
     7
 74
     1
 91
        4
 64
     7
 65
   257
 75
     7
175
     7
 42
1.0
 92
        8
 66
     7
 43
1.0
 76
     1
 77
     6
 78
     2
 67
     7
 79
     5
170
     0
171
     0
290
     0
174
     0
 93
        1
 44
0.0
173
     0
291
     1
 45
0.0
1001
ACAD
1000
AcDbSavedByObjectVersion
1070
     0
  0
VISUALSTYLE
  5
428
102
{ACAD_REACTORS
330
41F
102
}
102
{ACAD_XDICTIONARY
360
44F
102
}
330
41F
100
AcDbVisualStyle
  2
Realistic
 70
     8
 71
     2
 72
     2
 73
     0
 90
        0
 40
-0.6
 41
-30.0
 62
     5
 63
     7
 74
     1
 91
        0
 64
     7
 65
   257
 75
     1
175
     1
 42
1.0
 92
        8
 66
     8
 43
1.0
 76
     1
 77
     6
 78
     2
 67
     7
 79
     5
170
     0
171
     0
290
     0
174
     0
 93
       13
 44
0.0
173
     0
291
     0
 45
0.0
1001
ACAD
1000
AcDbSavedByObjectVersion
1070
     0
  0
VISUALSTYLE
  5
42C
102
{ACAD_REACTORS
330
41F
102
}
102
{ACAD_XDICTIONARY
360
457
102
}
330
41F
100
AcDbVisualStyle
  2
Thicken
 70
    13
 71
     2
 72
     2
 73
     0
 90
        0
 40
-0.6
 41
-30.0
 62
     5
 63
     7
 74
     1
 91
        4
 64
     7
 65
   257
 75
     1
175
     1
 42
1.0
 92
       12
 66
     7
 43
1.0
 76
     1
 77
     6
 78
     2
 67
     7
 79
     5
170
     0
171
     0
290
     0
174
     0
 93
        1
 44
0.0
173
     0
291
     1
 45
0.0
1001
ACAD
1000
AcDbSavedByObjectVersion
1070
     0
  0
DICTIONARYVAR
  5
43E
102
{ACAD_REACTORS
330
436
102
}
330
436
100
DictionaryVariables
280
     0
  1
1:1
  0
DICTIONARYVAR
  5
43A
102
{ACAD_REACTORS
330
436
102
}
330
436
100
DictionaryVariables
280
     0
  1
2
  0
DICTIONARYVAR
  5
43B
102
{ACAD_REACTORS
330
436
102
}
330
436
100
DictionaryVariables
280
     0
  1
1
  0
DICTIONARYVAR
  5
439
102
{ACAD_REACTORS
330
436
102
}
330
436
100
DictionaryVariables
280
     0
  1
0
  0
DICTIONARY
  5
461
330
432
100
AcDbDictionary
280
     1
281
     1
  3
ACAD_XREC_ROUNDTRIP
360
462
  0
DICTIONARY
  5
45F
330
431
100
AcDbDictionary
280
     1
281
     1
  3
ACAD_XREC_ROUNDTRIP
360
460
  0
DICTIONARY
  5
463
330
433
100
AcDbDictionary
280
     1
281
     1
  3
ACAD_XREC_ROUNDTRIP
360
464
  0
DICTIONARY
  5
447
330
424
100
AcDbDictionary
280
     1
281
     1
  3
ACAD_XREC_ROUNDTRIP
360
448
  0
DICTIONARY
  5
44B
330
426
100
AcDbDictionary
280
     1
281
     1
  3
ACAD_XREC_ROUNDTRIP
360
44C
  0
DICTIONARY
  5
449
330
425
100
AcDbDictionary
280
     1
281
     1
  3
ACAD_XREC_ROUNDTRIP
360
44A
  0
DICTIONARY
  5
44D
330
427
100
AcDbDictionary
280
     1
281
     1
  3
ACAD_XREC_ROUNDTRIP
360
44E
  0
DICTIONARY
  5
455
330
42B
100
AcDbDictionary
280
     1
281
     1
  3
ACAD_XREC_ROUNDTRIP
360
456
  0
DICTIONARY
  5
45D
330
42F
100
AcDbDictionary
280
     1
281
     1
  3
ACAD_XREC_ROUNDTRIP
360
45E
  0
DICTIONARY
  5
451
330
429
100
AcDbDictionary
280
     1
281
     1
  3
ACAD_XREC_ROUNDTRIP
360
452
  0
DICTIONARY
  5
453
330
42A
100
AcDbDictionary
280
     1
281
     1
  3
ACAD_XREC_ROUNDTRIP
360
454
  0
DICTIONARY
  5
45B
330
42E
100
AcDbDictionary
280
     1
281
     1
  3
ACAD_XREC_ROUNDTRIP
360
45C
  0
DICTIONARY
  5
43F
330
420
100
AcDbDictionary
280
     1
281
     1
  3
ACAD_XREC_ROUNDTRIP
360
440
  0
DICTIONARY
  5
441
330
421
100
AcDbDictionary
280
     1
281
     1
  3
ACAD_XREC_ROUNDTRIP
360
442
  0
DICTIONARY
  5
443
330
422
100
AcDbDictionary
280
     1
281
     1
  3
ACAD_XREC_ROUNDTRIP
360
444
  0
DICTIONARY
  5
445
330
423
100
AcDbDictionary
280
     1
281
     1
  3
ACAD_XREC_ROUNDTRIP
360
446
  0
DICTIONARY
  5
459
330
42D
100
AcDbDictionary
280
     1
281
     1
  3
ACAD_XREC_ROUNDTRIP
360
45A
  0
DICTIONARY
  5
44F
330
428
100
AcDbDictionary
280
     1
281
     1
  3
ACAD_XREC_ROUNDTRIP
360
450
  0
DICTIONARY
  5
457
330
42C
100
AcDbDictionary
280
     1
281
     1
  3
ACAD_XREC_ROUNDTRIP
360
458
  0
XRECORD
  5
462
102
{ACAD_REACTORS
330
461
102
}
330
461
100
AcDbXrecord
280
     1
102
MATERIAL
148
0.0
149
0.0
149
0.0
 93
        0
 94
      127
282
     0
 72
     1
 77
     1
171
     1
175
     1
179
     1
273
     0
  0
XRECORD
  5
460
102
{ACAD_REACTORS
330
45F
102
}
330
45F
100
AcDbXrecord
280
     1
102
MATERIAL
148
0.0
149
0.0
149
0.0
 93
        0
 94
      127
282
     0
 72
     1
 77
     1
171
     1
175
     1
179
     1
273
     0
  0
XRECORD
  5
464
102
{ACAD_REACTORS
330
463
102
}
330
463
100
AcDbXrecord
280
     1
102
MATERIAL
148
0.0
149
0.0
149
0.0
 93
        0
 94
      127
282
     0
 72
     1
 77
     1
171
     1
175
     1
179
     1
273
     0
  0
XRECORD
  5
448
102
{ACAD_REACTORS
330
447
102
}
330
447
100
AcDbXrecord
280
     1
102
RTVSPropertyOp0
 70
     1
102
RTVSPropertyOp1
 70
     1
102
RTVSPropertyOp2
 70
     1
102
RTVSPropertyOp3
 70
     1
102
RTVSPropertyOp4
 70
     1
102
RTVSPropertyOp5
 70
     1
102
RTVSPropertyOp6
 70
     1
102
RTVSPropertyOp7
 70
     1
102
RTVSPropertyOp8
 70
     1
102
RTVSPropertyOp9
 70
     1
102
RTVSPropertyOp10
 70
     1
102
RTVSPropertyOp11
 70
     1
102
RTVSPropertyOp12
 70
     1
102
RTVSPropertyOp13
 70
     1
102
RTVSPropertyOp14
 70
     1
102
RTVSPropertyOp15
 70
     1
102
RTVSPropertyOp16
 70
     1
102
RTVSPropertyOp17
 70
     1
102
RTVSPropertyOp18
 70
     1
102
RTVSPropertyOp19
 70
     1
102
RTVSPropertyOp20
 70
     1
102
RTVSPropertyOp21
 70
     1
102
RTVSPropertyOp22
 70
     1
102
RTVSPropertyOp23
 70
     1
102
RTVSPropertyOp24
 70
     1
102
RTVSPropertyOp25
 70
     1
102
RTVSPropertyOp26
 70
     1
102
RTVSPropertyOp27
 70
     1
102
RTVSPropertyOp28
 70
     1
102
RTVSPropertyOp29
 70
     1
102
RTVSPropertyOp30
 70
     1
102
RTVSPropertyOp31
 70
     1
102
RTVSPropertyOp32
 70
     1
  0
XRECORD
  5
44C
102
{ACAD_REACTORS
330
44B
102
}
330
44B
100
AcDbXrecord
280
     1
102
RTVSPropertyOp0
 70
     1
102
RTVSPropertyOp1
 70
     1
102
RTVSPropertyOp2
 70
     1
102
RTVSPropertyOp3
 70
     1
102
RTVSPropertyOp4
 70
     1
102
RTVSPropertyOp5
 70
     1
102
RTVSPropertyOp6
 70
     1
102
RTVSPropertyOp7
 70
     1
102
RTVSPropertyOp8
 70
     1
102
RTVSPropertyOp9
 70
     1
102
RTVSPropertyOp10
 70
     1
102
RTVSPropertyOp11
 70
     1
102
RTVSPropertyOp12
 70
     1
102
RTVSPropertyOp13
 70
     1
102
RTVSPropertyOp14
 70
     1
102
RTVSPropertyOp15
 70
     1
102
RTVSPropertyOp16
 70
     1
102
RTVSPropertyOp17
 70
     1
102
RTVSPropertyOp18
 70
     1
102
RTVSPropertyOp19
 70
     1
102
RTVSPropertyOp20
 70
     1
102
RTVSPropertyOp21
 70
     1
102
RTVSPropertyOp22
 70
     1
102
RTVSPropertyOp23
 70
     1
102
RTVSPropertyOp24
 70
     1
102
RTVSPropertyOp25
 70
     1
102
RTVSPropertyOp26
 70
     1
102
RTVSPropertyOp27
 70
     1
102
RTVSPropertyOp28
 70
     1
102
RTVSPropertyOp29
 70
     1
102
RTVSPropertyOp30
 70
     1
102
RTVSPropertyOp31
 70
     1
102
RTVSPropertyOp32
 70
     1
  0
XRECORD
  5
44A
102
{ACAD_REACTORS
330
449
102
}
330
449
100
AcDbXrecord
280
     1
102
RTVSPropertyOp0
 70
     1
102
RTVSPropertyOp1
 70
     1
102
RTVSPropertyOp2
 70
     1
102
RTVSPropertyOp3
 70
     1
102
RTVSPropertyOp4
 70
     1
102
RTVSPropertyOp5
 70
     1
102
RTVSPropertyOp6
 70
     1
102
RTVSPropertyOp7
 70
     1
102
RTVSPropertyOp8
 70
     1
102
RTVSPropertyOp9
 70
     1
102
RTVSPropertyOp10
 70
     1
102
RTVSPropertyOp11
 70
     1
102
RTVSPropertyOp12
 70
     1
102
RTVSPropertyOp13
 70
     1
102
RTVSPropertyOp14
 70
     1
102
RTVSPropertyOp15
 70
     1
102
RTVSPropertyOp16
 70
     1
102
RTVSPropertyOp17
 70
     1
102
RTVSPropertyOp18
 70
     1
102
RTVSPropertyOp19
 70
     1
102
RTVSPropertyOp20
 70
     1
102
RTVSPropertyOp21
 70
     1
102
RTVSPropertyOp22
 70
     1
102
RTVSPropertyOp23
 70
     1
102
RTVSPropertyOp24
 70
     1
102
RTVSPropertyOp25
 70
     1
102
RTVSPropertyOp26
 70
     1
102
RTVSPropertyOp27
 70
     1
102
RTVSPropertyOp28
 70
     1
102
RTVSPropertyOp29
 70
     1
102
RTVSPropertyOp30
 70
     1
102
RTVSPropertyOp31
 70
     1
102
RTVSPropertyOp32
 70
     1
  0
XRECORD
  5
44E
102
{ACAD_REACTORS
330
44D
102
}
330
44D
100
AcDbXrecord
280
     1
102
RTVSPropertyOp0
 70
     1
102
RTVSPropertyOp1
 70
     1
102
RTVSPropertyOp2
 70
     1
102
RTVSPropertyOp3
 70
     1
102
RTVSPropertyOp4
 70
     1
102
RTVSPropertyOp5
 70
     1
102
RTVSPropertyOp6
 70
     1
102
RTVSPropertyOp7
 70
     1
102
RTVSPropertyOp8
 70
     1
102
RTVSPropertyOp9
 70
     1
102
RTVSPropertyOp10
 70
     1
102
RTVSPropertyOp11
 70
     1
102
RTVSPropertyOp12
 70
     1
102
RTVSPropertyOp13
 70
     1
102
RTVSPropertyOp14
 70
     1
102
RTVSPropertyOp15
 70
     1
102
RTVSPropertyOp16
 70
     1
102
RTVSPropertyOp17
 70
     1
102
RTVSPropertyOp18
 70
     1
102
RTVSPropertyOp19
 70
     1
102
RTVSPropertyOp20
 70
     1
102
RTVSPropertyOp21
 70
     1
102
RTVSPropertyOp22
 70
     1
102
RTVSPropertyOp23
 70
     1
102
RTVSPropertyOp24
 70
     1
102
RTVSPropertyOp25
 70
     1
102
RTVSPropertyOp26
 70
     1
102
RTVSPropertyOp27
 70
     1
102
RTVSPropertyOp28
 70
     1
102
RTVSPropertyOp29
 70
     1
102
RTVSPropertyOp30
 70
     1
102
RTVSPropertyOp31
 70
     1
102
RTVSPropertyOp32
 70
     1
  0
XRECORD
  5
456
102
{ACAD_REACTORS
330
455
102
}
330
455
100
AcDbXrecord
280
     1
102
RTVSPropertyOp0
 70
     1
102
RTVSPropertyOp1
 70
     1
102
RTVSPropertyOp2
 70
     1
102
RTVSPropertyOp3
 70
     1
102
RTVSPropertyOp4
 70
     1
102
RTVSPropertyOp5
 70
     1
102
RTVSPropertyOp6
 70
     1
102
RTVSPropertyOp7
 70
     1
102
RTVSPropertyOp8
 70
     1
102
RTVSPropertyOp9
 70
     1
102
RTVSPropertyOp10
 70
     1
102
RTVSPropertyOp11
 70
     1
102
RTVSPropertyOp12
 70
     1
102
RTVSPropertyOp13
 70
     1
102
RTVSPropertyOp14
 70
     1
102
RTVSPropertyOp15
 70
     1
102
RTVSPropertyOp16
 70
     1
102
RTVSPropertyOp17
 70
     1
102
RTVSPropertyOp18
 70
     1
102
RTVSPropertyOp19
 70
     1
102
RTVSPropertyOp20
 70
     1
102
RTVSPropertyOp21
 70
     1
102
RTVSPropertyOp22
 70
     1
102
RTVSPropertyOp23
 70
     1
102
RTVSPropertyOp24
 70
     1
102
RTVSPropertyOp25
 70
     1
102
RTVSPropertyOp26
 70
     1
102
RTVSPropertyOp27
 70
     1
102
RTVSPropertyOp28
 70
     1
102
RTVSPropertyOp29
 70
     1
102
RTVSPropertyOp30
 70
     1
102
RTVSPropertyOp31
 70
     1
102
RTVSPropertyOp32
 70
     1
  0
XRECORD
  5
45E
102
{ACAD_REACTORS
330
45D
102
}
330
45D
100
AcDbXrecord
280
     1
102
RTVSPropertyOp0
 70
     1
102
RTVSPropertyOp1
 70
     1
102
RTVSPropertyOp2
 70
     1
102
RTVSPropertyOp3
 70
     1
102
RTVSPropertyOp4
 70
     1
102
RTVSPropertyOp5
 70
     1
102
RTVSPropertyOp6
 70
     1
102
RTVSPropertyOp7
 70
     1
102
RTVSPropertyOp8
 70
     1
102
RTVSPropertyOp9
 70
     1
102
RTVSPropertyOp10
 70
     1
102
RTVSPropertyOp11
 70
     1
102
RTVSPropertyOp12
 70
     1
102
RTVSPropertyOp13
 70
     1
102
RTVSPropertyOp14
 70
     1
102
RTVSPropertyOp15
 70
     1
102
RTVSPropertyOp16
 70
     1
102
RTVSPropertyOp17
 70
     1
102
RTVSPropertyOp18
 70
     1
102
RTVSPropertyOp19
 70
     1
102
RTVSPropertyOp20
 70
     1
102
RTVSPropertyOp21
 70
     1
102
RTVSPropertyOp22
 70
     1
102
RTVSPropertyOp23
 70
     1
102
RTVSPropertyOp24
 70
     1
102
RTVSPropertyOp25
 70
     1
102
RTVSPropertyOp26
 70
     1
102
RTVSPropertyOp27
 70
     1
102
RTVSPropertyOp28
 70
     1
102
RTVSPropertyOp29
 70
     1
102
RTVSPropertyOp30
 70
     1
102
RTVSPropertyOp31
 70
     1
102
RTVSPropertyOp32
 70
     1
  0
XRECORD
  5
452
102
{ACAD_REACTORS
330
451
102
}
330
451
100
AcDbXrecord
280
     1
102
RTVSPropertyOp0
 70
     1
102
RTVSPropertyOp1
 70
     1
102
RTVSPropertyOp2
 70
     1
102
RTVSPropertyOp3
 70
     1
102
RTVSPropertyOp4
 70
     1
102
RTVSPropertyOp5
 70
     1
102
RTVSPropertyOp6
 70
     1
102
RTVSPropertyOp7
 70
     1
102
RTVSPropertyOp8
 70
     1
102
RTVSPropertyOp9
 70
     1
102
RTVSPropertyOp10
 70
     1
102
RTVSPropertyOp11
 70
     1
102
RTVSPropertyOp12
 70
     1
102
RTVSPropertyOp13
 70
     1
102
RTVSPropertyOp14
 70
     1
102
RTVSPropertyOp15
 70
     1
102
RTVSPropertyOp16
 70
     1
102
RTVSPropertyOp17
 70
     1
102
RTVSPropertyOp18
 70
     1
102
RTVSPropertyOp19
 70
     1
102
RTVSPropertyOp20
 70
     1
102
RTVSPropertyOp21
 70
     1
102
RTVSPropertyOp22
 70
     1
102
RTVSPropertyOp23
 70
     1
102
RTVSPropertyOp24
 70
     1
102
RTVSPropertyOp25
 70
     1
102
RTVSPropertyOp26
 70
     1
102
RTVSPropertyOp27
 70
     1
102
RTVSPropertyOp28
 70
     1
102
RTVSPropertyOp29
 70
     1
102
RTVSPropertyOp30
 70
     1
102
RTVSPropertyOp31
 70
     1
102
RTVSPropertyOp32
 70
     1
  0
XRECORD
  5
454
102
{ACAD_REACTORS
330
453
102
}
330
453
100
AcDbXrecord
280
     1
102
RTVSPropertyOp0
 70
     1
102
RTVSPropertyOp1
 70
     1
102
RTVSPropertyOp2
 70
     1
102
RTVSPropertyOp3
 70
     1
102
RTVSPropertyOp4
 70
     1
102
RTVSPropertyOp5
 70
     1
102
RTVSPropertyOp6
 70
     1
102
RTVSPropertyOp7
 70
     1
102
RTVSPropertyOp8
 70
     1
102
RTVSPropertyOp9
 70
     1
102
RTVSPropertyOp10
 70
     1
102
RTVSPropertyOp11
 70
     1
102
RTVSPropertyOp12
 70
     1
102
RTVSPropertyOp13
 70
     1
102
RTVSPropertyOp14
 70
     1
102
RTVSPropertyOp15
 70
     1
102
RTVSPropertyOp16
 70
     1
102
RTVSPropertyOp17
 70
     1
102
RTVSPropertyOp18
 70
     1
102
RTVSPropertyOp19
 70
     1
102
RTVSPropertyOp20
 70
     1
102
RTVSPropertyOp21
 70
     1
102
RTVSPropertyOp22
 70
     1
102
RTVSPropertyOp23
 70
     1
102
RTVSPropertyOp24
 70
     1
102
RTVSPropertyOp25
 70
     1
102
RTVSPropertyOp26
 70
     1
102
RTVSPropertyOp27
 70
     1
102
RTVSPropertyOp28
 70
     1
102
RTVSPropertyOp29
 70
     1
102
RTVSPropertyOp30
 70
     1
102
RTVSPropertyOp31
 70
     1
102
RTVSPropertyOp32
 70
     1
  0
XRECORD
  5
45C
102
{ACAD_REACTORS
330
45B
102
}
330
45B
100
AcDbXrecord
280
     1
102
RTVSPropertyOp0
 70
     1
102
RTVSPropertyOp1
 70
     1
102
RTVSPropertyOp2
 70
     1
102
RTVSPropertyOp3
 70
     1
102
RTVSPropertyOp4
 70
     1
102
RTVSPropertyOp5
 70
     1
102
RTVSPropertyOp6
 70
     1
102
RTVSPropertyOp7
 70
     1
102
RTVSPropertyOp8
 70
     1
102
RTVSPropertyOp9
 70
     1
102
RTVSPropertyOp10
 70
     1
102
RTVSPropertyOp11
 70
     1
102
RTVSPropertyOp12
 70
     1
102
RTVSPropertyOp13
 70
     1
102
RTVSPropertyOp14
 70
     1
102
RTVSPropertyOp15
 70
     1
102
RTVSPropertyOp16
 70
     1
102
RTVSPropertyOp17
 70
     1
102
RTVSPropertyOp18
 70
     1
102
RTVSPropertyOp19
 70
     1
102
RTVSPropertyOp20
 70
     1
102
RTVSPropertyOp21
 70
     1
102
RTVSPropertyOp22
 70
     1
102
RTVSPropertyOp23
 70
     1
102
RTVSPropertyOp24
 70
     1
102
RTVSPropertyOp25
 70
     1
102
RTVSPropertyOp26
 70
     1
102
RTVSPropertyOp27
 70
     1
102
RTVSPropertyOp28
 70
     1
102
RTVSPropertyOp29
 70
     1
102
RTVSPropertyOp30
 70
     1
102
RTVSPropertyOp31
 70
     1
102
RTVSPropertyOp32
 70
     1
  0
XRECORD
  5
440
102
{ACAD_REACTORS
330
43F
102
}
330
43F
100
AcDbXrecord
280
     1
102
RTVSPropertyOp0
 70
     1
102
RTVSPropertyOp1
 70
     1
102
RTVSPropertyOp2
 70
     1
102
RTVSPropertyOp3
 70
     1
102
RTVSPropertyOp4
 70
     1
102
RTVSPropertyOp5
 70
     1
102
RTVSPropertyOp6
 70
     1
102
RTVSPropertyOp7
 70
     1
102
RTVSPropertyOp8
 70
     1
102
RTVSPropertyOp9
 70
     1
102
RTVSPropertyOp10
 70
     1
102
RTVSPropertyOp11
 70
     1
102
RTVSPropertyOp12
 70
     1
102
RTVSPropertyOp13
 70
     1
102
RTVSPropertyOp14
 70
     1
102
RTVSPropertyOp15
 70
     1
102
RTVSPropertyOp16
 70
     1
102
RTVSPropertyOp17
 70
     1
102
RTVSPropertyOp18
 70
     1
102
RTVSPropertyOp19
 70
     1
102
RTVSPropertyOp20
 70
     1
102
RTVSPropertyOp21
 70
     1
102
RTVSPropertyOp22
 70
     1
102
RTVSPropertyOp23
 70
     1
102
RTVSPropertyOp24
 70
     1
102
RTVSPropertyOp25
 70
     1
102
RTVSPropertyOp26
 70
     1
102
RTVSPropertyOp27
 70
     1
102
RTVSPropertyOp28
 70
     1
102
RTVSPropertyOp29
 70
     1
102
RTVSPropertyOp30
 70
     1
102
RTVSPropertyOp31
 70
     1
102
RTVSPropertyOp32
 70
     1
  0
XRECORD
  5
442
102
{ACAD_REACTORS
330
441
102
}
330
441
100
AcDbXrecord
280
     1
102
RTVSPropertyOp0
 70
     1
102
RTVSPropertyOp1
 70
     1
102
RTVSPropertyOp2
 70
     1
102
RTVSPropertyOp3
 70
     1
102
RTVSPropertyOp4
 70
     1
102
RTVSPropertyOp5
 70
     1
102
RTVSPropertyOp6
 70
     1
102
RTVSPropertyOp7
 70
     1
102
RTVSPropertyOp8
 70
     1
102
RTVSPropertyOp9
 70
     1
102
RTVSPropertyOp10
 70
     1
102
RTVSPropertyOp11
 70
     1
102
RTVSPropertyOp12
 70
     1
102
RTVSPropertyOp13
 70
     1
102
RTVSPropertyOp14
 70
     1
102
RTVSPropertyOp15
 70
     1
102
RTVSPropertyOp16
 70
     1
102
RTVSPropertyOp17
 70
     1
102
RTVSPropertyOp18
 70
     1
102
RTVSPropertyOp19
 70
     1
102
RTVSPropertyOp20
 70
     1
102
RTVSPropertyOp21
 70
     1
102
RTVSPropertyOp22
 70
     1
102
RTVSPropertyOp23
 70
     1
102
RTVSPropertyOp24
 70
     1
102
RTVSPropertyOp25
 70
     1
102
RTVSPropertyOp26
 70
     1
102
RTVSPropertyOp27
 70
     1
102
RTVSPropertyOp28
 70
     1
102
RTVSPropertyOp29
 70
     1
102
RTVSPropertyOp30
 70
     1
102
RTVSPropertyOp31
 70
     1
102
RTVSPropertyOp32
 70
     1
  0
XRECORD
  5
444
102
{ACAD_REACTORS
330
443
102
}
330
443
100
AcDbXrecord
280
     1
102
RTVSPropertyOp0
 70
     1
102
RTVSPropertyOp1
 70
     1
102
RTVSPropertyOp2
 70
     1
102
RTVSPropertyOp3
 70
     1
102
RTVSPropertyOp4
 70
     1
102
RTVSPropertyOp5
 70
     1
102
RTVSPropertyOp6
 70
     1
102
RTVSPropertyOp7
 70
     1
102
RTVSPropertyOp8
 70
     1
102
RTVSPropertyOp9
 70
     1
102
RTVSPropertyOp10
 70
     1
102
RTVSPropertyOp11
 70
     1
102
RTVSPropertyOp12
 70
     1
102
RTVSPropertyOp13
 70
     1
102
RTVSPropertyOp14
 70
     1
102
RTVSPropertyOp15
 70
     1
102
RTVSPropertyOp16
 70
     1
102
RTVSPropertyOp17
 70
     1
102
RTVSPropertyOp18
 70
     1
102
RTVSPropertyOp19
 70
     1
102
RTVSPropertyOp20
 70
     1
102
RTVSPropertyOp21
 70
     1
102
RTVSPropertyOp22
 70
     1
102
RTVSPropertyOp23
 70
     1
102
RTVSPropertyOp24
 70
     1
102
RTVSPropertyOp25
 70
     1
102
RTVSPropertyOp26
 70
     1
102
RTVSPropertyOp27
 70
     1
102
RTVSPropertyOp28
 70
     1
102
RTVSPropertyOp29
 70
     1
102
RTVSPropertyOp30
 70
     1
102
RTVSPropertyOp31
 70
     1
102
RTVSPropertyOp32
 70
     1
  0
XRECORD
  5
446
102
{ACAD_REACTORS
330
445
102
}
330
445
100
AcDbXrecord
280
     1
102
RTVSPropertyOp0
 70
     1
102
RTVSPropertyOp1
 70
     1
102
RTVSPropertyOp2
 70
     1
102
RTVSPropertyOp3
 70
     1
102
RTVSPropertyOp4
 70
     1
102
RTVSPropertyOp5
 70
     1
102
RTVSPropertyOp6
 70
     1
102
RTVSPropertyOp7
 70
     1
102
RTVSPropertyOp8
 70
     1
102
RTVSPropertyOp9
 70
     1
102
RTVSPropertyOp10
 70
     1
102
RTVSPropertyOp11
 70
     1
102
RTVSPropertyOp12
 70
     1
102
RTVSPropertyOp13
 70
     1
102
RTVSPropertyOp14
 70
     1
102
RTVSPropertyOp15
 70
     1
102
RTVSPropertyOp16
 70
     1
102
RTVSPropertyOp17
 70
     1
102
RTVSPropertyOp18
 70
     1
102
RTVSPropertyOp19
 70
     1
102
RTVSPropertyOp20
 70
     1
102
RTVSPropertyOp21
 70
     1
102
RTVSPropertyOp22
 70
     1
102
RTVSPropertyOp23
 70
     1
102
RTVSPropertyOp24
 70
     1
102
RTVSPropertyOp25
 70
     1
102
RTVSPropertyOp26
 70
     1
102
RTVSPropertyOp27
 70
     1
102
RTVSPropertyOp28
 70
     1
102
RTVSPropertyOp29
 70
     1
102
RTVSPropertyOp30
 70
     1
102
RTVSPropertyOp31
 70
     1
102
RTVSPropertyOp32
 70
     1
  0
XRECORD
  5
45A
102
{ACAD_REACTORS
330
459
102
}
330
459
100
AcDbXrecord
280
     1
102
RTVSPropertyOp0
 70
     1
102
RTVSPropertyOp1
 70
     1
102
RTVSPropertyOp2
 70
     1
102
RTVSPropertyOp3
 70
     1
102
RTVSPropertyOp4
 70
     1
102
RTVSPropertyOp5
 70
     1
102
RTVSPropertyOp6
 70
     1
102
RTVSPropertyOp7
 70
     1
102
RTVSPropertyOp8
 70
     1
102
RTVSPropertyOp9
 70
     1
102
RTVSPropertyOp10
 70
     1
102
RTVSPropertyOp11
 70
     1
102
RTVSPropertyOp12
 70
     1
102
RTVSPropertyOp13
 70
     1
102
RTVSPropertyOp14
 70
     1
102
RTVSPropertyOp15
 70
     1
102
RTVSPropertyOp16
 70
     1
102
RTVSPropertyOp17
 70
     1
102
RTVSPropertyOp18
 70
     1
102
RTVSPropertyOp19
 70
     1
102
RTVSPropertyOp20
 70
     1
102
RTVSPropertyOp21
 70
     1
102
RTVSPropertyOp22
 70
     1
102
RTVSPropertyOp23
 70
     1
102
RTVSPropertyOp24
 70
     1
102
RTVSPropertyOp25
 70
     1
102
RTVSPropertyOp26
 70
     1
102
RTVSPropertyOp27
 70
     1
102
RTVSPropertyOp28
 70
     1
102
RTVSPropertyOp29
 70
     1
102
RTVSPropertyOp30
 70
     1
102
RTVSPropertyOp31
 70
     1
102
RTVSPropertyOp32
 70
     1
  0
XRECORD
  5
450
102
{ACAD_REACTORS
330
44F
102
}
330
44F
100
AcDbXrecord
280
     1
102
RTVSPropertyOp0
 70
     1
102
RTVSPropertyOp1
 70
     1
102
RTVSPropertyOp2
 70
     1
102
RTVSPropertyOp3
 70
     1
102
RTVSPropertyOp4
 70
     1
102
RTVSPropertyOp5
 70
     1
102
RTVSPropertyOp6
 70
     1
102
RTVSPropertyOp7
 70
     1
102
RTVSPropertyOp8
 70
     1
102
RTVSPropertyOp9
 70
     1
102
RTVSPropertyOp10
 70
     1
102
RTVSPropertyOp11
 70
     1
102
RTVSPropertyOp12
 70
     1
102
RTVSPropertyOp13
 70
     1
102
RTVSPropertyOp14
 70
     1
102
RTVSPropertyOp15
 70
     1
102
RTVSPropertyOp16
 70
     1
102
RTVSPropertyOp17
 70
     1
102
RTVSPropertyOp18
 70
     1
102
RTVSPropertyOp19
 70
     1
102
RTVSPropertyOp20
 70
     1
102
RTVSPropertyOp21
 70
     1
102
RTVSPropertyOp22
 70
     1
102
RTVSPropertyOp23
 70
     1
102
RTVSPropertyOp24
 70
     1
102
RTVSPropertyOp25
 70
     1
102
RTVSPropertyOp26
 70
     1
102
RTVSPropertyOp27
 70
     1
102
RTVSPropertyOp28
 70
     1
102
RTVSPropertyOp29
 70
     1
102
RTVSPropertyOp30
 70
     1
102
RTVSPropertyOp31
 70
     1
102
RTVSPropertyOp32
 70
     1
  0
XRECORD
  5
458
102
{ACAD_REACTORS
330
457
102
}
330
457
100
AcDbXrecord
280
     1
102
RTVSPropertyOp0
 70
     1
102
RTVSPropertyOp1
 70
     1
102
RTVSPropertyOp2
 70
     1
102
RTVSPropertyOp3
 70
     1
102
RTVSPropertyOp4
 70
     1
102
RTVSPropertyOp5
 70
     1
102
RTVSPropertyOp6
 70
     1
102
RTVSPropertyOp7
 70
     1
102
RTVSPropertyOp8
 70
     1
102
RTVSPropertyOp9
 70
     1
102
RTVSPropertyOp10
 70
     1
102
RTVSPropertyOp11
 70
     1
102
RTVSPropertyOp12
 70
     1
102
RTVSPropertyOp13
 70
     1
102
RTVSPropertyOp14
 70
     1
102
RTVSPropertyOp15
 70
     1
102
RTVSPropertyOp16
 70
     1
102
RTVSPropertyOp17
 70
     1
102
RTVSPropertyOp18
 70
     1
102
RTVSPropertyOp19
 70
     1
102
RTVSPropertyOp20
 70
     1
102
RTVSPropertyOp21
 70
     1
102
RTVSPropertyOp22
 70
     1
102
RTVSPropertyOp23
 70
     1
102
RTVSPropertyOp24
 70
     1
102
RTVSPropertyOp25
 70
     1
102
RTVSPropertyOp26
 70
     1
102
RTVSPropertyOp27
 70
     1
102
RTVSPropertyOp28
 70
     1
102
RTVSPropertyOp29
 70
     1
102
RTVSPropertyOp30
 70
     1
102
RTVSPropertyOp31
 70
     1
102
RTVSPropertyOp32
 70
     1
  0
ENDSEC
  0
EOF
