  0
SECTION
  2
HEADER
  9
$ACADVER
  1
AC1015
  9
$ACADMAINTVER
 70
     6
  9
$DWGCODEPAGE
  3
ANSI_1252
  9
$INSBASE
 10
0.0
 20
0.0
 30
0.0
  9
$EXTMIN
 10
0.0
 20
0.0
 30
0.0
  9
$EXTMAX
 10
210.0
 20
297.0
 30
0.0
  9
$LIMMIN
 10
0.0
 20
0.0
  9
$LIMMAX
 10
0.0
 20
0.0
  9
$ORTHOMODE
 70
     0
  9
$REGENMODE
 70
     1
  9
$FILLMODE
 70
     1
  9
$QTEXTMODE
 70
     0
  9
$MIRRTEXT
 70
     1
  9
$LTSCALE
 40
1.0
  9
$ATTMODE
 70
     1
  9
$TEXTSIZE
 40
0.0
  9
$TRACEWID
 40
0.05
  9
$TEXTSTYLE
  7
STANDARD
  9
$CLAYER
  8
0
  9
$CELTYPE
  6
CONTINUOUS
  9
$CECOLOR
 62
   256
  9
$CELTSCALE
 40
1.0
  9
$DISPSILH
 70
     0
  9
$DIMSCALE
 40
1.0
  9
$DIMASZ
 40
0.0
  9
$DIMEXO
 40
0.0
  9
$DIMDLI
 40
0.38
  9
$DIMRND
 40
0.0
  9
$DIMDLE
 40
0.0
  9
$DIMEXE
 40
0.18
  9
$DIMTP
 40
0.0
  9
$DIMTM
 40
0.0
  9
$DIMTXT
 40
3.5
  9
$DIMCEN
 40
0.09
  9
$DIMTSZ
 40
0.0
  9
$DIMTOL
 70
     0
  9
$DIMLIM
 70
     0
  9
$DIMTIH
 70
     1
  9
$DIMTOH
 70
     1
  9
$DIMSE1
 70
     0
  9
$DIMSE2
 70
     0
  9
$DIMTAD
 70
     1
  9
$DIMZIN
 70
     0
  9
$DIMBLK
  1

  9
$DIMASO
 70
     1
  9
$DIMSHO
 70
     1
  9
$DIMPOST
  1

  9
$DIMAPOST
  1

  9
$DIMALT
 70
     0
  9
$DIMALTD
 70
     2
  9
$DIMALTF
 40
0.0394
  9
$DIMLFAC
 40
1.0
  9
$DIMTOFL
 70
     0
  9
$DIMTVP
 40
0.0
  9
$DIMTIX
 70
     0
  9
$DIMSOXD
 70
     0
  9
$DIMSAH
 70
     0
  9
$DIMBLK1
  1

  9
$DIMBLK2
  1

  9
$DIMSTYLE
  2
STANDARD
  9
$DIMCLRD
 70
     0
  9
$DIMCLRE
 70
     0
  9
$DIMCLRT
 70
     0
  9
$DIMTFAC
 40
1.0
  9
$DIMGAP
 40
0.0
  9
$DIMJUST
 70
     0
  9
$DIMSD1
 70
     0
  9
$DIMSD2
 70
     0
  9
$DIMTOLJ
 70
     1
  9
$DIMTZIN
 70
     0
  9
$DIMALTZ
 70
     0
  9
$DIMALTTZ
 70
     0
  9
$DIMUPT
 70
     0
  9
$DIMDEC
 70
     4
  9
$DIMTDEC
 70
     4
  9
$DIMALTU
 70
     2
  9
$DIMALTTD
 70
     2
  9
$DIMTXSTY
  7
STANDARD
  9
$DIMAUNIT
 70
     0
  9
$DIMADEC
 70
     0
  9
$DIMALTRND
 40
0.0
  9
$DIMAZIN
 70
     0
  9
$DIMDSEP
 70
    46
  9
$DIMATFIT
 70
     3
  9
$DIMFRAC
 70
     0
  9
$DIMLDRBLK
  1

  9
$DIMLUNIT
 70
     2
  9
$DIMLWD
 70
    -2
  9
$DIMLWE
 70
    -2
  9
$DIMTMOVE
 70
     2
  9
$LUNITS
 70
     2
  9
$LUPREC
 70
     2
  9
$SKETCHINC
 40
0.1
  9
$FILLETRAD
 40
0.0
  9
$AUNITS
 70
     0
  9
$AUPREC
 70
     2
  9
$MENU
  1
acad
  9
$ELEVATION
 40
0.0
  9
$PELEVATION
 40
0.0
  9
$THICKNESS
 40
0.0
  9
$LIMCHECK
 70
     0
  9
$CHAMFERA
 40
0.0
  9
$CHAMFERB
 40
0.0
  9
$CHAMFERC
 40
0.0
  9
$CHAMFERD
 40
0.0
  9
$SKPOLY
 70
     0
  9
$TDCREATE
 40
2447893.0
  9
$TDUCREATE
 40
2447892.916666667
  9
$TDUPDATE
 40
2458327.54878434
  9
$TDUUPDATE
 40
2458327.465451007
  9
$TDINDWG
 40
0.0
  9
$TDUSRTIMER
 40
0.0
  9
$USRTIMER
 70
     1
  9
$ANGBASE
 50
0.0
  9
$ANGDIR
 70
     0
  9
$PDMODE
 70
     0
  9
$PDSIZE
 40
-1.0
  9
$PLINEWID
 40
0.0
  9
$SPLFRAME
 70
     0
  9
$SPLINETYPE
 70
     6
  9
$SPLINESEGS
 70
     8
  9
$HANDSEED
  5
494
  9
$SURFTAB1
 70
     6
  9
$SURFTAB2
 70
     6
  9
$SURFTYPE
 70
     6
  9
$SURFU
 70
     6
  9
$SURFV
 70
     6
  9
$UCSBASE
  2

  9
$UCSNAME
  2

  9
$UCSORG
 10
0.0
 20
0.0
 30
0.0
  9
$UCSXDIR
 10
1.0
 20
0.0
 30
0.0
  9
$UCSYDIR
 10
0.0
 20
1.0
 30
0.0
  9
$UCSORTHOREF
  2

  9
$UCSORTHOVIEW
 70
     0
  9
$UCSORGTOP
 10
0.0
 20
0.0
 30
0.0
  9
$UCSORGBOTTOM
 10
0.0
 20
0.0
 30
0.0
  9
$UCSORGLEFT
 10
0.0
 20
0.0
 30
0.0
  9
$UCSORGRIGHT
 10
0.0
 20
0.0
 30
0.0
  9
$UCSORGFRONT
 10
0.0
 20
0.0
 30
0.0
  9
$UCSORGBACK
 10
0.0
 20
0.0
 30
0.0
  9
$PUCSBASE
  2

  9
$PUCSNAME
  2

  9
$PUCSORG
 10
0.0
 20
0.0
 30
0.0
  9
$PUCSXDIR
 10
1.0
 20
0.0
 30
0.0
  9
$PUCSYDIR
 10
0.0
 20
1.0
 30
0.0
  9
$PUCSORTHOREF
  2

  9
$PUCSORTHOVIEW
 70
     0
  9
$PUCSORGTOP
 10
0.0
 20
0.0
 30
0.0
  9
$PUCSORGBOTTOM
 10
0.0
 20
0.0
 30
0.0
  9
$PUCSORGLEFT
 10
0.0
 20
0.0
 30
0.0
  9
$PUCSORGRIGHT
 10
0.0
 20
0.0
 30
0.0
  9
$PUCSORGFRONT
 10
0.0
 20
0.0
 30
0.0
  9
$PUCSORGBACK
 10
0.0
 20
0.0
 30
0.0
  9
$USERI1
 70
     0
  9
$USERI2
 70
     0
  9
$USERI3
 70
     0
  9
$USERI4
 70
     0
  9
$USERI5
 70
     0
  9
$USERR1
 40
0.0
  9
$USERR2
 40
0.0
  9
$USERR3
 40
0.0
  9
$USERR4
 40
0.0
  9
$USERR5
 40
0.0
  9
$WORLDVIEW
 70
     1
  9
$SHADEDGE
 70
     3
  9
$SHADEDIF
 70
    70
  9
$TILEMODE
 70
     1
  9
$MAXACTVP
 70
    16
  9
$PINSBASE
 10
0.0
 20
0.0
 30
0.0
  9
$PLIMCHECK
 70
     0
  9
$PEXTMIN
 10
1.000000000000000E+20
 20
1.000000000000000E+20
 30
1.000000000000000E+20
  9
$PEXTMAX
 10
-1.000000000000000E+20
 20
-1.000000000000000E+20
 30
-1.000000000000000E+20
  9
$PLIMMIN
 10
0.0
 20
0.0
  9
$PLIMMAX
 10
12.0
 20
9.0
  9
$UNITMODE
 70
     0
  9
$VISRETAIN
 70
     0
  9
$PLINEGEN
 70
     1
  9
$PSLTSCALE
 70
     1
  9
$TREEDEPTH
 70
  3020
  9
$CMLSTYLE
  2
STANDARD
  9
$CMLJUST
 70
     0
  9
$CMLSCALE
 40
1.0
  9
$PROXYGRAPHICS
 70
     1
  9
$MEASUREMENT
 70
     0
  9
$CELWEIGHT
370
    -1
  9
$ENDCAPS
280
     0
  9
$JOINSTYLE
280
     0
  9
$LWDISPLAY
290
     0
  9
$INSUNITS
 70
     0
  9
$HYPERLINKBASE
  1

  9
$STYLESHEET
  1

  9
$XEDIT
290
     1
  9
$CEPSNTYPE
380
     0
  9
$PSTYLEMODE
290
     1
  9
$FINGERPRINTGUID
  2
{9698778C-2F28-4771-8D11-E94E3BABC720}
  9
$VERSIONGUID
  2
{FAEB1C32-E019-11D5-929B-00C0DF256EC4}
  9
$EXTNAMES
290
     1
  9
$PSVPSCALE
 40
0.0
  9
$OLESTARTUP
290
     0
  0
ENDSEC
  0
SECTION
  2
CLASSES
  0
CLASS
  1
LWPOLYLINE
  2
AcDbPolyline
  3
ObjectDBX Classes
 90
        0
280
     0
281
     1
  0
CLASS
  1
IMAGE
  2
AcDbRasterImage
  3
ISM
 90
      127
280
     0
281
     1
  0
CLASS
  1
OLE2FRAME
  2
AcDbOle2Frame
  3
ObjectDBX Classes
 90
        0
280
     0
281
     1
  0
CLASS
  1
HATCH
  2
AcDbHatch
  3
ObjectDBX Classes
 90
        0
280
     0
281
     1
  0
CLASS
  1
DICTIONARYVAR
  2
AcDbDictionaryVar
  3
ObjectDBX Classes
 90
        0
280
     0
281
     0
  0
CLASS
  1
RASTERVARIABLES
  2
AcDbRasterVariables
  3
ISM
 90
        0
280
     0
281
     0
  0
CLASS
  1
IMAGEDEF
  2
AcDbRasterImageDef
  3
ISM
 90
        0
280
     0
281
     0
  0
CLASS
  1
IMAGEDEF_REACTOR
  2
AcDbRasterImageDefReactor
  3
ISM
 90
        1
280
     0
281
     0
  0
CLASS
  1
IDBUFFER
  2
AcDbIdBuffer
  3
ObjectDBX Classes
 90
        0
280
     0
281
     0
  0
CLASS
  1
SPATIAL_FILTER
  2
AcDbSpatialFilter
  3
ObjectDBX Classes
 90
        0
280
     0
281
     0
  0
CLASS
  1
XRECORD
  2
AcDbXrecord
  3
ObjectDBX Classes
 90
        0
280
     0
281
     0
  0
CLASS
  1
SORTENTSTABLE
  2
AcDbSortentsTable
  3
ObjectDBX Classes
 90
        0
280
     0
281
     0
  0
CLASS
  1
LAYER_INDEX
  2
AcDbLayerIndex
  3
ObjectDBX Classes
 90
        0
280
     0
281
     0
  0
CLASS
  1
SPATIAL_INDEX
  2
AcDbSpatialIndex
  3
AutoCAD 2000
 90
        0
280
     0
281
     0
  0
CLASS
  1
OBJECT_PTR
  2
CAseDLPNTableRecord
  3
ASE-LPNTableRecord
 90
        1
280
     0
281
     0
  0
CLASS
  1
LAYOUT
  2
AcDbLayout
  3
ObjectDBX Classes
 90
        0
280
     0
281
     0
  0
CLASS
  1
PLOTSETTINGS
  2
AcDbPlotSettings
  3
ObjectDBX Classes
 90
        0
280
     0
281
     0
  0
CLASS
  1
ACDBDICTIONARYWDFLT
  2
AcDbDictionaryWithDefault
  3
ObjectDBX Classes
 90
        0
280
     0
281
     0
  0
CLASS
  1
ACDBPLACEHOLDER
  2
AcDbPlaceHolder
  3
ObjectDBX Classes
 90
        0
280
     0
281
     0
  0
CLASS
  1
VBA_PROJECT
  2
AcDbVbaProject
  3
ObjectDBX Classes
 90
        0
280
     0
281
     0
  0
CLASS
  1
WIPEOUT
  2
AcDbWipeout
  3
WipeOut|AutoCAD Express Tool|expresstools@autodesk.com
 90
      127
280
     0
281
     1
  0
CLASS
  1
WIPEOUTVARIABLES
  2
AcDbWipeoutVariables
  3
WipeOut|AutoCAD Express Tool|expresstools@autodesk.com
 90
        0
280
     0
281
     0
  0
CLASS
  1
RTEXT
  2
RText
  3
RText|AutoCAD Express Tool|expresstools@autodesk.com
 90
        0
280
     0
281
     1
  0
CLASS
  1
ARCALIGNEDTEXT
  2
AcDbArcAlignedText
  3
ATEXT|AutoCAD Express Tool|expresstools@autodesk.com
 90
        0
280
     0
281
     1
  0
CLASS
  1
SCALE
  2
AcDbScale
  3
ObjectDBX Classes
 90
     1153
280
     0
281
     0
  0
CLASS
  1
VISUALSTYLE
  2
AcDbVisualStyle
  3
ObjectDBX Classes
 90
     4095
280
     0
281
     0
  0
CLASS
  1
MATERIAL
  2
AcDbMaterial
  3
ObjectDBX Classes
 90
     1153
280
     0
281
     0
  0
ENDSEC
  0
SECTION
  2
TABLES
  0
TABLE
  2
VPORT
  5
7
102
{ACAD_XDICTIONARY
360
459
102
}
330
0
100
AcDbSymbolTable
 70
     1
  0
VPORT
  5
15
330
7
100
AcDbSymbolTableRecord
100
AcDbViewportTableRecord
  2
*ACTIVE
 70
     0
 10
0.0
 20
0.0
 11
1.0
 21
1.0
 12
105.0
 22
148.5
 13
0.0
 23
0.0
 14
1.0
 24
1.0
 15
0.0
 25
0.0
 16
0.0
 26
0.0
 36
1.0
 17
0.0
 27
0.0
 37
0.0
 40
297.0
 41
1.4142857143
 42
50.0
 43
0.0
 44
0.0
 50
0.0
 51
0.0
 71
     0
 72
  2000
 73
     1
 74
     1
 75
     0
 76
     0
 77
     0
 78
     0
281
     0
 65
     1
110
0.0
120
0.0
130
0.0
111
1.0
121
0.0
131
0.0
112
0.0
122
1.0
132
0.0
 79
     0
146
0.0
  0
ENDTAB
  0
TABLE
  2
LTYPE
  5
4
330
0
100
AcDbSymbolTable
 70
     6
  0
LTYPE
  5
11
330
4
100
AcDbSymbolTableRecord
100
AcDbLinetypeTableRecord
  2
BYBLOCK
 70
     0
  3

 72
    65
 73
     0
 40
0.0
  0
LTYPE
  5
12
330
4
100
AcDbSymbolTableRecord
100
AcDbLinetypeTableRecord
  2
BYLAYER
 70
     0
  3

 72
    65
 73
     0
 40
0.0
  0
LTYPE
  5
13
330
4
100
AcDbSymbolTableRecord
100
AcDbLinetypeTableRecord
  2
CONTINUOUS
 70
     0
  3
Solid line
 72
    65
 73
     0
 40
0.0
  0
LTYPE
  5
1D
330
4
100
AcDbSymbolTableRecord
100
AcDbLinetypeTableRecord
  2
HIDDEN
 70
     0
  3
Hidden __ __ __ __ __ __ __ __ __ __ __ __ __ __
 72
    65
 73
     2
 40
1.905
 49
1.27
 74
     0
 49
-0.635
 74
     0
  0
LTYPE
  5
1E
330
4
100
AcDbSymbolTableRecord
100
AcDbLinetypeTableRecord
  2
PHANTOM
 70
     0
  3
Phantom ______  __  __  ______  __  __  ______
 72
    65
 73
     6
 40
12.7
 49
6.35
 74
     0
 49
-1.27
 74
     0
 49
1.27
 74
     0
 49
-1.27
 74
     0
 49
1.27
 74
     0
 49
-1.27
 74
     0
  0
LTYPE
  5
1F
330
4
100
AcDbSymbolTableRecord
100
AcDbLinetypeTableRecord
  2
CENTER
 70
     0
  3
Center ____ _ ____ _ ____ _ ____ _ ____ _ ____
 72
    65
 73
     4
 40
10.16
 49
6.35
 74
     0
 49
-1.27
 74
     0
 49
1.27
 74
     0
 49
-1.27
 74
     0
  0
LTYPE
  5
20
330
4
100
AcDbSymbolTableRecord
100
AcDbLinetypeTableRecord
  2
CENTERX2
 70
     0
  3
Center (2x) ________  __  ________  __  _____
 72
    65
 73
     4
 40
20.32
 49
12.7
 74
     0
 49
-2.54
 74
     0
 49
2.54
 74
     0
 49
-2.54
 74
     0
  0
LTYPE
  5
21
330
4
100
AcDbSymbolTableRecord
100
AcDbLinetypeTableRecord
  2
DOT2
 70
     0
  3
Dot (.5x) ........................................
 72
    65
 73
     2
 40
0.635
 49
0.0
 74
     0
 49
-0.635
 74
     0
  0
LTYPE
  5
483
330
5
100
AcDbSymbolTableRecord
100
AcDbLinetypeTableRecord
  2
DASH
 70
     0
  3
DASH _ _ _ _ _
 72
    65
 73
     2
 40
0.75
 49
0.40
 74
     0
 49
-0.35
 74
     0
  0
LTYPE
  5
484
330
5
100
AcDbSymbolTableRecord
100
AcDbLinetypeTableRecord
  2
LONGDASH_DASH
 70
     0
  3
LONGDASH_DASH __ . __ . __
 72
    65
 73
     4
 40
0.85
 49
0.40
 74
     0
 49
-0.20
 74
     0
 49
0.05
 74
     0
 49
-0.20
 74
     0
  0
LTYPE
  5
485
330
5
100
AcDbSymbolTableRecord
100
AcDbLinetypeTableRecord
  2
LONGDASH_DASH_DASH
 70
     0
  3
LONGDASH_DASH_DASH __ . . __ . . __
 72
    65
 73
     6
 40
1.10
 49
0.40
 74
     0
 49
-0.20
 74
     0
 49
0.05
 74
     0
 49
-0.20
 74
     0
 49
0.05
 74
     0
 49
-0.20
 74
     0
  0
ENDTAB
  0
TABLE
  2
LAYER
  5
2
330
0
100
AcDbSymbolTable
 70
     8
  0
LAYER
  5
23
330
2
100
AcDbSymbolTableRecord
100
AcDbLayerTableRecord
  2
DEFPOINTS
 70
     0
 62
     7
  6
CONTINUOUS
290
     0
370
    -3
390
0
  0
LAYER
  5
486
330
2
100
AcDbSymbolTableRecord
100
AcDbLayerTableRecord
  2
0
 70
     0
 62
     -1
  6
CONTINUOUS
370
    -3
390
F
  0
LAYER
  5
487
330
2
100
AcDbSymbolTableRecord
100
AcDbLayerTableRecord
  2
1
 70
     0
 62
     4
  6
CONTINUOUS
370
    50
390
F
  0
LAYER
  5
488
330
2
100
AcDbSymbolTableRecord
100
AcDbLayerTableRecord
  2
2
 70
     0
 62
     7
  6
CONTINUOUS
370
    25
390
F
  0
LAYER
  5
489
330
2
100
AcDbSymbolTableRecord
100
AcDbLayerTableRecord
  2
3
 70
     0
 62
     1
  6
DASH
370
    35
390
F
  0
LAYER
  5
48A
330
2
100
AcDbSymbolTableRecord
100
AcDbLayerTableRecord
  2
4
 70
     0
 62
     2
  6
LONGDASH_DASH
370
    25
390
F
  0
LAYER
  5
48B
330
2
100
AcDbSymbolTableRecord
100
AcDbLayerTableRecord
  2
6
 70
     0
 62
     5
  6
CONTINUOUS
370
    -3
390
F
  0
LAYER
  5
48C
330
2
100
AcDbSymbolTableRecord
100
AcDbLayerTableRecord
  2
CUT
 70
     0
 62
     1
  6
CONTINUOUS
370
    25
390
F
  0
LAYER
  5
48D
330
2
100
AcDbSymbolTableRecord
100
AcDbLayerTableRecord
  2
NOCUT
 70
     0
 62
     7
  6
CONTINUOUS
370
    25
390
F
  0
LAYER
  5
48E
330
2
100
AcDbSymbolTableRecord
100
AcDbLayerTableRecord
  2
SK1
 70
     0
 62
     4
  6
CONTINUOUS
370
    50
390
F
  0
LAYER
  5
48F
330
2
100
AcDbSymbolTableRecord
100
AcDbLayerTableRecord
  2
SK2
 70
     0
 62
     7
  6
CONTINUOUS
370
    25
390
F
  0
LAYER
  5
490
330
2
100
AcDbSymbolTableRecord
100
AcDbLayerTableRecord
  2
SK3
 70
     0
 62
     1
  6
DASH
370
    35
390
F
  0
LAYER
  5
491
330
2
100
AcDbSymbolTableRecord
100
AcDbLayerTableRecord
  2
SK4
 70
     0
 62
     2
  6
LONGDASH_DASH
370
    25
390
F
  0
LAYER
  5
492
330
2
100
AcDbSymbolTableRecord
100
AcDbLayerTableRecord
  2
SK6
 70
     0
 62
     5
  6
CONTINUOUS
370
    -3
390
F
  0
LAYER
  5
493
330
2
100
AcDbSymbolTableRecord
100
AcDbLayerTableRecord
  2
INFTOTAL
 70
     0
 62
     9
  6
CONTINUOUS
370
    18
390
F
  0
ENDTAB
  0
TABLE
  2
STYLE
  5
3
330
0
100
AcDbSymbolTable
 70
     2
  0
STYLE
  5
17
330
3
100
AcDbSymbolTableRecord
100
AcDbTextStyleTableRecord
  2
STANDARD
 70
     0
 40
0.0
 41
1.0
 50
0.0
 71
     0
 42
0.2
  3
txt
  4

  0
STYLE
  5
451
330
3
100
AcDbSymbolTableRecord
100
AcDbTextStyleTableRecord
  2
BMG_Text
 70
     0
 40
3.5
 41
1.0
 50
0.0
 71
     0
 42
0.0
  3
monos.ttf
  4

1001
ACAD
1000
Monospac821 BT
1071
       49
  0
ENDTAB
  0
TABLE
  2
VIEW
  5
5
330
0
100
AcDbSymbolTable
 70
     0
  0
ENDTAB
  0
TABLE
  2
UCS
  5
6
330
0
100
AcDbSymbolTable
 70
     0
  0
ENDTAB
  0
TABLE
  2
APPID
  5
8
330
0
100
AcDbSymbolTable
 70
     1
  0
APPID
  5
16
330
8
100
AcDbSymbolTableRecord
100
AcDbRegAppTableRecord
  2
ACAD
 70
     0
  0
ENDTAB
  0
TABLE
  2
DIMSTYLE
  5
9
330
0
100
AcDbSymbolTable
 70
     1
100
AcDbDimStyleTable
  0
DIMSTYLE
105
18
330
9
100
AcDbSymbolTableRecord
100
AcDbDimStyleTableRecord
  2
STANDARD
 70
     0
178
     0
340
17
  0
ENDTAB
  0
TABLE
  2
BLOCK_RECORD
  5
1
330
0
100
AcDbSymbolTable
 70
     0
  0
BLOCK_RECORD
  5
A
330
1
100
AcDbSymbolTableRecord
100
AcDbBlockTableRecord
  2
*MODEL_SPACE
340
43A
  0
BLOCK_RECORD
  5
B
330
1
100
AcDbSymbolTableRecord
100
AcDbBlockTableRecord
  2
*PAPER_SPACE
340
43B
  0
ENDTAB
  0
ENDSEC
  0
SECTION
  2
BLOCKS
  0
BLOCK
  5
D
330
A
100
AcDbEntity
  8
0
100
AcDbBlockBegin
  2
*MODEL_SPACE
 70
     0
 10
0.0
 20
0.0
 30
0.0
  3
*MODEL_SPACE
  1

  0
ENDBLK
  5
E
330
A
100
AcDbEntity
  8
0
100
AcDbBlockEnd
  0
BLOCK
  5
F
330
B
100
AcDbEntity
 67
     1
  8
0
100
AcDbBlockBegin
  2
*PAPER_SPACE
 70
     0
 10
0.0
 20
0.0
 30
0.0
  3
*PAPER_SPACE
  1

  0
ENDBLK
  5
10
330
B
100
AcDbEntity
 67
     1
  8
0
100
AcDbBlockEnd
  0
ENDSEC
  0
SECTION
  2
ENTITIES
  0
ARC
  5
29
330
A
100
AcDbEntity
  8
1
  6
CONTINUOUS
370
    50
100
AcDbCircle
 10
104.7096260626
 20
142.9944361934
 30
0.0
 40
5.0
100
AcDbArc
 50
81.890385544
 51
137.9493233775
  0
ARC
  5
2A
330
A
100
AcDbEntity
  8
1
  6
CONTINUOUS
370
    50
100
AcDbCircle
 10
104.7096260626
 20
194.8944361934
 30
0.0
 40
5.0
100
AcDbArc
 50
193.2862093701
 51
278.109614456
  0
ARC
  5
2B
330
A
100
AcDbEntity
  8
1
  6
CONTINUOUS
370
    50
100
AcDbCircle
 10
81.4596260626
 20
146.5194361934
 30
0.0
 40
0.5
100
AcDbArc
 50
66.4218215218
 51
90.0
  0
ARC
  5
2C
330
A
100
AcDbEntity
  8
1
  6
CONTINUOUS
370
    50
100
AcDbCircle
 10
81.4596260626
 20
191.3694361934
 30
0.0
 40
0.5
100
AcDbArc
 50
270.0
 51
293.5781784782001
  0
LINE
  5
2D
330
A
100
AcDbEntity
  8
1
  6
CONTINUOUS
370
    50
100
AcDbLine
 10
80.6596260626
 20
146.7194361934
 30
0.0
 11
81.2025163392
 21
146.9725900869
 31
0.0
  0
LINE
  5
2E
330
A
100
AcDbEntity
  8
1
  6
CONTINUOUS
370
    50
100
AcDbLine
 10
81.2025163392
 20
190.9162822999
 30
0.0
 11
80.6596260626
 21
191.1694361934
 31
0.0
  0
LINE
  5
2F
330
A
100
AcDbEntity
  8
1
  6
CONTINUOUS
370
    50
100
AcDbLine
 10
80.6596260626
 20
191.1694361934
 30
0.0
 11
13.1921474211
 21
181.3304288913
 31
0.0
  0
LINE
  5
30
330
A
100
AcDbEntity
  8
1
  6
CONTINUOUS
370
    50
100
AcDbLine
 10
13.1921474211
 20
156.5584434955
 30
0.0
 11
80.6596260626
 21
146.7194361934
 31
0.0
  0
ARC
  5
31
330
A
100
AcDbEntity
  8
1
  6
CONTINUOUS
370
    50
100
AcDbCircle
 10
81.41382547
 20
146.5194361934
 30
0.0
 40
0.5
100
AcDbArc
 50
90.0
 51
115.0
  0
ARC
  5
32
330
A
100
AcDbEntity
  8
1
  6
CONTINUOUS
370
    50
100
AcDbCircle
 10
81.41382547
 20
191.3694361934
 30
0.0
 40
0.5
100
AcDbArc
 50
245.0
 51
270.0
  0
LINE
  5
33
330
A
100
AcDbEntity
  8
1
  6
CONTINUOUS
370
    50
100
AcDbLine
 10
105.4149628615
 20
147.9444361934
 30
0.0
 11
143.4817047498
 21
147.9444361934
 31
0.0
  0
LINE
  5
34
330
A
100
AcDbEntity
  8
1
  6
CONTINUOUS
370
    50
100
AcDbLine
 10
143.4817047498
 20
189.9444361934
 30
0.0
 11
105.4149628615
 21
189.9444361934
 31
0.0
  0
LINE
  5
35
330
A
100
AcDbEntity
  8
1
  6
CONTINUOUS
370
    50
100
AcDbLine
 10
143.4817047498
 20
147.9444361934
 30
0.0
 11
199.6264979586
 21
152.3631272482
 31
0.0
  0
LINE
  5
36
330
A
100
AcDbEntity
  8
1
  6
CONTINUOUS
370
    50
100
AcDbLine
 10
199.6264979586
 20
185.5257451386
 30
0.0
 11
143.4817047498
 21
189.9444361934
 31
0.0
  0
ARC
  5
37
330
A
100
AcDbEntity
  8
1
  6
CONTINUOUS
370
    50
100
AcDbCircle
 10
198.6596260626
 20
154.1138867225
 30
0.0
 40
2.0
100
AcDbArc
 50
298.9100507072
 51
0.0
  0
ARC
  5
38
330
A
100
AcDbEntity
  8
1
  6
CONTINUOUS
370
    50
100
AcDbCircle
 10
198.6596260626
 20
183.7749856643
 30
0.0
 40
2.0
100
AcDbArc
 50
0.0
 51
61.08994929280001
  0
ARC
  5
39
330
A
100
AcDbEntity
  8
1
  6
CONTINUOUS
370
    50
100
AcDbCircle
 10
13.3596260626
 20
157.4940683764
 30
0.0
 40
0.95
100
AcDbArc
 50
180.0
 51
258.0
  0
ARC
  5
3A
330
A
100
AcDbEntity
  8
1
  6
CONTINUOUS
370
    50
100
AcDbCircle
 10
13.3596260626
 20
180.3948040104
 30
0.0
 40
0.95
100
AcDbArc
 50
102.0
 51
180.0
  0
LINE
  5
3B
330
A
100
AcDbEntity
  8
1
  6
CONTINUOUS
370
    50
100
AcDbLine
 10
95.2814627046
 20
138.4673546409
 30
0.0
 11
95.2814627046
 21
187.2944361934
 31
0.0
  0
LINE
  5
3C
330
A
100
AcDbEntity
  8
1
  6
CONTINUOUS
370
    50
100
AcDbLine
 10
99.2096260626
 20
187.2944361934
 30
0.0
 11
95.2814627046
 21
187.2944361934
 31
0.0
  0
LINE
  5
3D
330
A
100
AcDbEntity
  8
1
  6
CONTINUOUS
370
    50
100
AcDbLine
 10
99.2096260626
 20
138.4673546409
 30
0.0
 11
99.2096260626
 21
187.2944361934
 31
0.0
  0
LINE
  5
3E
330
A
100
AcDbEntity
  8
1
  6
CONTINUOUS
370
    50
100
AcDbLine
 10
99.2096260626
 20
138.4673546409
 30
0.0
 11
95.2814627046
 21
138.4673546409
 31
0.0
  0
LINE
  5
3F
330
A
100
AcDbEntity
  8
1
  6
CONTINUOUS
370
    50
100
AcDbLine
 10
95.2814627046
 20
138.4673546409
 30
0.0
 11
94.6759638793
 21
139.3173546434
 31
0.0
  0
LWPOLYLINE
  5
40
330
A
100
AcDbEntity
  8
1
  6
CONTINUOUS
370
    50
100
AcDbPolyline
 90
        3
 70
   128
 43
0.0
 10
93.6846260626
 20
141.1005639344
 10
94.2637914543
 20
140.0577928858
 10
94.6759638793
 20
139.3173546434
  0
LINE
  5
45
330
A
100
AcDbEntity
  8
1
  6
CONTINUOUS
370
    50
100
AcDbLine
 10
93.6846260626
 20
187.2944361934
 30
0.0
 11
93.6846260626
 21
141.1005639344
 31
0.0
  0
LINE
  5
46
330
A
100
AcDbEntity
  8
1
  6
CONTINUOUS
370
    50
100
AcDbLine
 10
95.2814627046
 20
187.2944361934
 30
0.0
 11
93.6846260626
 21
187.2944361934
 31
0.0
  0
LINE
  5
47
330
A
100
AcDbEntity
  8
1
  6
CONTINUOUS
370
    50
100
AcDbLine
 10
88.2377894205
 20
138.4673546409
 30
0.0
 11
88.2377894205
 21
187.2944361934
 31
0.0
  0
LINE
  5
48
330
A
100
AcDbEntity
  8
1
  6
CONTINUOUS
370
    50
100
AcDbLine
 10
88.2377894205
 20
138.4673546409
 30
0.0
 11
83.5096260601
 21
138.4673546409
 31
0.0
  0
LWPOLYLINE
  5
49
330
A
100
AcDbEntity
  8
1
  6
CONTINUOUS
370
    50
100
AcDbPolyline
 90
        3
 70
   128
 43
0.0
 10
82.1596260626
 20
138.8944777908
 10
82.8322447101
 20
138.6733895245
 10
83.5096260601
 20
138.4673546409
  0
LINE
  5
4E
330
A
100
AcDbEntity
  8
1
  6
CONTINUOUS
370
    50
100
AcDbLine
 10
82.1596260626
 20
187.2944361934
 30
0.0
 11
82.1596260626
 21
138.8944777908
 31
0.0
  0
LINE
  5
4F
330
A
100
AcDbEntity
  8
1
  6
CONTINUOUS
370
    50
100
AcDbLine
 10
88.2377894205
 20
187.2944361934
 30
0.0
 11
82.1596260626
 21
187.2944361934
 31
0.0
  0
LINE
  5
50
330
A
100
AcDbEntity
  8
1
  6
CONTINUOUS
370
    50
100
AcDbLine
 10
88.8432882458
 20
139.3173546434
 30
0.0
 11
88.2377894205
 21
138.4673546409
 31
0.0
  0
LINE
  5
51
330
A
100
AcDbEntity
  8
1
  6
CONTINUOUS
370
    50
100
AcDbLine
 10
89.8346260626
 20
187.2944361934
 30
0.0
 11
88.2377894205
 21
187.2944361934
 31
0.0
  0
LINE
  5
52
330
A
100
AcDbEntity
  8
1
  6
CONTINUOUS
370
    50
100
AcDbLine
 10
89.8346260626
 20
141.1005639344
 30
0.0
 11
89.8346260626
 21
187.2944361934
 31
0.0
  0
LWPOLYLINE
  5
53
330
A
100
AcDbEntity
  8
1
  6
CONTINUOUS
370
    50
100
AcDbPolyline
 90
        3
 70
   128
 43
0.0
 10
88.8432882458
 20
139.3173546434
 10
89.2554606708
 20
140.0577928858
 10
89.8346260626
 20
141.1005639344
  0
LINE
  5
58
330
A
100
AcDbEntity
  8
1
  6
CONTINUOUS
370
    50
100
AcDbLine
 10
99.7096260626
 20
187.2944361934
 30
0.0
 11
99.7096260626
 21
138.8714810393
 31
0.0
  0
LINE
  5
59
330
A
100
AcDbEntity
  8
1
  6
CONTINUOUS
370
    50
100
AcDbLine
 10
99.7096260626
 20
138.8714810393
 30
0.0
 11
99.2096260626
 21
138.4673546409
 31
0.0
  0
LINE
  5
5A
330
A
100
AcDbEntity
  8
1
  6
CONTINUOUS
370
    50
100
AcDbLine
 10
99.2096260626
 20
187.2944361934
 30
0.0
 11
99.7096260626
 21
187.2944361934
 31
0.0
  0
LINE
  5
5B
330
A
100
AcDbEntity
  8
1
  6
CONTINUOUS
370
    50
100
AcDbLine
 10
82.1596260626
 20
138.8944777908
 30
0.0
 11
81.6596260626
 21
139.6016346912
 31
0.0
  0
LINE
  5
5C
330
A
100
AcDbEntity
  8
1
  6
CONTINUOUS
370
    50
100
AcDbLine
 10
81.6596260626
 20
139.6016346912
 30
0.0
 11
81.6596260626
 21
187.2944361934
 31
0.0
  0
LINE
  5
5D
330
A
100
AcDbEntity
  8
1
  6
CONTINUOUS
370
    50
100
AcDbLine
 10
81.6596260626
 20
187.2944361934
 30
0.0
 11
82.1596260626
 21
187.2944361934
 31
0.0
  0
ARC
  5
5E
330
A
100
AcDbEntity
  8
1
  6
CONTINUOUS
370
    50
100
AcDbCircle
 10
93.1749235721
 20
141.6168297552
 30
0.0
 40
0.5098409115
100
AcDbArc
 50
358.6648465174
 51
88.909571003
  0
LINE
  5
5F
330
A
100
AcDbEntity
  8
1
  6
CONTINUOUS
370
    50
100
AcDbLine
 10
93.1846260626
 20
187.2944361934
 30
0.0
 11
93.1846260626
 21
142.1265783371
 31
0.0
  0
LINE
  5
60
330
A
100
AcDbEntity
  8
1
  6
CONTINUOUS
370
    50
100
AcDbLine
 10
93.1846260626
 20
187.2944361934
 30
0.0
 11
93.6846260626
 21
187.2944361934
 31
0.0
  0
ARC
  5
61
330
A
100
AcDbEntity
  8
1
  6
CONTINUOUS
370
    50
100
AcDbCircle
 10
90.3460220013
 20
141.6152065223
 30
0.0
 40
0.5114987785
100
AcDbArc
 50
91.2766271414
 51
181.1489553382
  0
LINE
  5
62
330
A
100
AcDbEntity
  8
1
  6
CONTINUOUS
370
    50
100
AcDbLine
 10
89.8346260626
 20
187.2944361934
 30
0.0
 11
90.3346260626
 21
187.2944361934
 31
0.0
  0
LINE
  5
63
330
A
100
AcDbEntity
  8
1
  6
CONTINUOUS
370
    50
100
AcDbLine
 10
90.3346260626
 20
187.2944361934
 30
0.0
 11
90.3346260626
 21
142.1265783371
 31
0.0
  0
ARC
  5
64
330
A
100
AcDbEntity
  8
1
  6
CONTINUOUS
370
    50
100
AcDbCircle
 10
93.6099761737
 20
160.0932499501
 30
0.0
 40
6.3599411658
100
AcDbArc
 50
343.5512342854001
 51
16.4487657146
  0
LINE
  5
65
330
A
100
AcDbEntity
  8
1
  6
CONTINUOUS
370
    50
100
AcDbLine
 10
93.1846260626
 20
142.1265783371
 30
0.0
 11
90.3346260626
 21
142.1265783371
 31
0.0
  0
LINE
  5
66
330
A
100
AcDbEntity
  8
1
  6
CONTINUOUS
370
    50
100
AcDbLine
 10
90.3346260626
 20
187.2944361934
 30
0.0
 11
93.1846260626
 21
187.2944361934
 31
0.0
  0
LINE
  5
67
330
A
100
AcDbEntity
  8
1
  6
CONTINUOUS
370
    50
100
AcDbLine
 10
105.4149628615
 20
147.9444361934
 30
0.0
 11
105.4149628615
 21
189.9444361934
 31
0.0
  0
LINE
  5
68
330
A
100
AcDbEntity
  8
1
  6
CONTINUOUS
370
    50
100
AcDbLine
 10
99.7105850024
 20
193.7444361934
 30
0.0
 11
99.8434549841
 21
193.7453587221
 31
0.0
  0
LINE
  5
69
330
A
100
AcDbEntity
  8
1
  6
CONTINUOUS
370
    50
100
AcDbLine
 10
100.9978180461
 20
146.3444361934
 30
0.0
 11
100.2197661505
 21
146.3444361934
 31
0.0
  0
LINE
  5
6A
330
A
100
AcDbEntity
  8
1
  6
CONTINUOUS
370
    50
100
AcDbLine
 10
100.2197661505
 20
146.3444361934
 30
0.0
 11
99.868736815
 21
145.5944361934
 31
0.0
  0
LWPOLYLINE
  5
6B
330
A
100
AcDbEntity
  8
1
  6
CONTINUOUS
370
    50
100
AcDbPolyline
 90
        3
 70
   128
 43
0.0
 10
99.868736815
 20
145.5944361934
 10
99.7322480898
 20
144.7748551805
 10
99.7096260626
 20
144.2746165751
  0
LINE
  5
70
330
A
100
AcDbEntity
  8
1
  6
CONTINUOUS
370
    50
100
AcDbLine
 10
80.6596260626
 20
146.7194361934
 30
0.0
 11
80.6596260626
 21
191.1694361934
 31
0.0
  0
LINE
  5
71
330
A
100
AcDbEntity
  8
1
  6
CONTINUOUS
370
    50
100
AcDbLine
 10
13.1921474211
 20
181.3304288913
 30
0.0
 11
13.1921474211
 21
156.5584434955
 31
0.0
  0
LINE
  5
72
330
A
100
AcDbEntity
  8
1
  6
CONTINUOUS
370
    50
100
AcDbLine
 10
143.4817047498
 20
147.9444361934
 30
0.0
 11
143.4817047498
 21
189.9444361934
 31
0.0
  0
LINE
  5
73
330
A
100
AcDbEntity
  8
1
  6
CONTINUOUS
370
    50
100
AcDbLine
 10
199.6264979586
 20
185.5257451386
 30
0.0
 11
199.6264979586
 21
152.3631272482
 31
0.0
  0
LINE
  5
74
330
A
100
AcDbEntity
  8
1
  6
CONTINUOUS
370
    50
100
AcDbLine
 10
82.1596260626
 20
194.8546658334
 30
0.0
 11
81.6596260626
 21
194.2394949994
 31
0.0
  0
LINE
  5
75
330
A
100
AcDbEntity
  8
1
  6
CONTINUOUS
370
    50
100
AcDbLine
 10
82.1596260626
 20
194.8546658334
 30
0.0
 11
88.2377894205
 21
194.8546658334
 31
0.0
  0
LINE
  5
76
330
A
100
AcDbEntity
  8
1
  6
CONTINUOUS
370
    50
100
AcDbLine
 10
88.2377894205
 20
194.8546658334
 30
0.0
 11
89.8346260626
 21
191.3801492949
 31
0.0
  0
LINE
  5
77
330
A
100
AcDbEntity
  8
1
  6
CONTINUOUS
370
    50
100
AcDbLine
 10
89.8346260626
 20
190.7510292331
 30
0.0
 11
89.8346260626
 21
191.3801492949
 31
0.0
  0
ARC
  5
78
330
A
100
AcDbEntity
  8
1
  6
CONTINUOUS
370
    50
100
AcDbCircle
 10
90.4083463734
 20
190.6683171966
 30
0.0
 40
0.5796518576
100
AcDbArc
 50
171.7963139128
 51
262.6933157901
  0
LINE
  5
79
330
A
100
AcDbEntity
  8
1
  6
CONTINUOUS
370
    50
100
AcDbLine
 10
93.1846260626
 20
190.0933723369
 30
0.0
 11
90.3346260626
 21
190.0933723369
 31
0.0
  0
LWPOLYLINE
  5
7A
330
A
100
AcDbEntity
  8
1
  6
CONTINUOUS
370
    50
100
AcDbPolyline
 90
        7
 70
   128
 43
0.0
 10
93.6846260626
 20
190.7510292331
 10
93.6401175343
 20
190.4808094419
 10
93.5352327788
 20
190.2830270457
 10
93.4133251597
 20
190.1666234022
 10
93.3423216465
 20
190.127146642
 10
93.2158433876
 20
190.0946637911
 10
93.1846260626
 20
190.0933723369
  0
LINE
  5
83
330
A
100
AcDbEntity
  8
1
  6
CONTINUOUS
370
    50
100
AcDbLine
 10
93.6846260626
 20
191.3801492949
 30
0.0
 11
93.6846260626
 21
190.7510292331
 31
0.0
  0
LINE
  5
84
330
A
100
AcDbEntity
  8
1
  6
CONTINUOUS
370
    50
100
AcDbLine
 10
93.6846260626
 20
191.3801492949
 30
0.0
 11
95.2814627046
 21
194.8546658334
 31
0.0
  0
LINE
  5
85
330
A
100
AcDbEntity
  8
1
  6
CONTINUOUS
370
    50
100
AcDbLine
 10
95.2814627046
 20
194.8546658334
 30
0.0
 11
99.2096260626
 21
194.8546658334
 31
0.0
  0
LINE
  5
86
330
A
100
AcDbEntity
  8
1
  6
CONTINUOUS
370
    50
100
AcDbLine
 10
99.7096260626
 20
194.2394949994
 30
0.0
 11
99.2096260626
 21
194.8546658334
 31
0.0
  0
LINE
  5
87
330
A
100
AcDbEntity
  8
1
  6
CONTINUOUS
370
    50
100
AcDbLine
 10
81.6596260626
 20
194.2394949994
 30
0.0
 11
81.6596260626
 21
187.2944361934
 31
0.0
  0
LINE
  5
88
330
A
100
AcDbEntity
  8
1
  6
CONTINUOUS
370
    50
100
AcDbLine
 10
99.7096260626
 20
194.2394949994
 30
0.0
 11
99.7096260626
 21
187.2944361934
 31
0.0
  0
LINE
  5
89
330
A
100
AcDbEntity
  8
1
  6
CONTINUOUS
370
    50
100
AcDbLine
 10
90.3346260626
 20
195.7622940497
 30
0.0
 11
90.3346260626
 21
190.0933723369
 31
0.0
  0
ARC
  5
8A
330
A
100
AcDbEntity
  8
1
  6
CONTINUOUS
370
    50
100
AcDbCircle
 10
90.3469197162
 20
196.2745263575
 30
0.0
 40
0.5123798114
100
AcDbArc
 50
178.9492610517
 51
268.6251564687
  0
LINE
  5
8B
330
A
100
AcDbEntity
  8
1
  6
CONTINUOUS
370
    50
100
AcDbLine
 10
93.1846260626
 20
195.7622940497
 30
0.0
 11
93.1846260626
 21
190.0933723369
 31
0.0
  0
ARC
  5
8C
330
A
100
AcDbEntity
  8
1
  6
CONTINUOUS
370
    50
100
AcDbCircle
 10
93.1739926543
 20
196.2729349508
 30
0.0
 40
0.5107516023
100
AcDbArc
 50
271.1929349483
 51
1.2326475313
  0
LINE
  5
8D
330
A
100
AcDbEntity
  8
1
  6
CONTINUOUS
370
    50
100
AcDbLine
 10
93.1846260626
 20
195.7622940497
 30
0.0
 11
90.3346260626
 21
195.7622940497
 31
0.0
  0
LINE
  5
8E
330
A
100
AcDbEntity
  8
1
  6
CONTINUOUS
370
    50
100
AcDbLine
 10
94.6759638793
 20
198.5715177434
 30
0.0
 11
95.2814627046
 21
199.4215177459
 31
0.0
  0
LINE
  5
8F
330
A
100
AcDbEntity
  8
1
  6
CONTINUOUS
370
    50
100
AcDbLine
 10
95.2814627046
 20
194.8546658334
 30
0.0
 11
95.2814627046
 21
199.4215177459
 31
0.0
  0
LINE
  5
90
330
A
100
AcDbEntity
  8
1
  6
CONTINUOUS
370
    50
100
AcDbLine
 10
93.6846260626
 20
196.7883084524
 30
0.0
 11
94.6759638793
 21
198.5715177434
 31
0.0
  0
LINE
  5
91
330
A
100
AcDbEntity
  8
1
  6
CONTINUOUS
370
    50
100
AcDbLine
 10
93.6846260626
 20
196.7883084524
 30
0.0
 11
93.6846260626
 21
191.3801492949
 31
0.0
  0
LINE
  5
92
330
A
100
AcDbEntity
  8
1
  6
CONTINUOUS
370
    50
100
AcDbLine
 10
88.2377894205
 20
199.4215177459
 30
0.0
 11
88.8432882458
 21
198.5715177434
 31
0.0
  0
LINE
  5
93
330
A
100
AcDbEntity
  8
1
  6
CONTINUOUS
370
    50
100
AcDbLine
 10
88.8432882458
 20
198.5715177434
 30
0.0
 11
89.8346260626
 21
196.7883084524
 31
0.0
  0
LINE
  5
94
330
A
100
AcDbEntity
  8
1
  6
CONTINUOUS
370
    50
100
AcDbLine
 10
88.2377894205
 20
194.8546658334
 30
0.0
 11
88.2377894205
 21
199.4215177459
 31
0.0
  0
LINE
  5
95
330
A
100
AcDbEntity
  8
1
  6
CONTINUOUS
370
    50
100
AcDbLine
 10
89.8346260626
 20
191.3801492949
 30
0.0
 11
89.8346260626
 21
196.7883084524
 31
0.0
  0
LINE
  5
96
330
A
100
AcDbEntity
  8
1
  6
CONTINUOUS
370
    50
100
AcDbLine
 10
82.1596260626
 20
198.994394596
 30
0.0
 11
82.1596260626
 21
194.8546658334
 31
0.0
  0
LINE
  5
97
330
A
100
AcDbEntity
  8
1
  6
CONTINUOUS
370
    50
100
AcDbLine
 10
81.6596260626
 20
198.2872376956
 30
0.0
 11
82.1596260626
 21
198.994394596
 31
0.0
  0
LINE
  5
98
330
A
100
AcDbEntity
  8
1
  6
CONTINUOUS
370
    50
100
AcDbLine
 10
81.6596260626
 20
194.2394949994
 30
0.0
 11
81.6596260626
 21
198.2872376956
 31
0.0
  0
LINE
  5
99
330
A
100
AcDbEntity
  8
1
  6
CONTINUOUS
370
    50
100
AcDbLine
 10
95.2814627046
 20
199.4215177459
 30
0.0
 11
99.2096260626
 21
199.4215177459
 31
0.0
  0
LINE
  5
9A
330
A
100
AcDbEntity
  8
1
  6
CONTINUOUS
370
    50
100
AcDbLine
 10
99.2096260626
 20
194.8546658334
 30
0.0
 11
99.2096260626
 21
199.4215177459
 31
0.0
  0
LINE
  5
9B
330
A
100
AcDbEntity
  8
1
  6
CONTINUOUS
370
    50
100
AcDbLine
 10
83.5096260601
 20
199.4215177459
 30
0.0
 11
88.2377894205
 21
199.4215177459
 31
0.0
  0
LWPOLYLINE
  5
9C
330
A
100
AcDbEntity
  8
1
  6
CONTINUOUS
370
    50
100
AcDbPolyline
 90
        3
 70
   128
 43
0.0
 10
82.1596260626
 20
198.994394596
 10
82.8322447101
 20
199.2154828623
 10
83.5096260601
 20
199.4215177459
  0
LINE
  5
A1
330
A
100
AcDbEntity
  8
1
  6
CONTINUOUS
370
    50
100
AcDbLine
 10
99.2096260626
 20
199.4215177459
 30
0.0
 11
99.7096260626
 21
199.0173913475
 31
0.0
  0
LINE
  5
A2
330
A
100
AcDbEntity
  8
1
  6
CONTINUOUS
370
    50
100
AcDbLine
 10
99.7096260626
 20
199.0173913475
 30
0.0
 11
99.7096260626
 21
194.2394949994
 31
0.0
  0
LINE
  5
A3
330
A
100
AcDbEntity
  8
1
  6
CONTINUOUS
370
    50
100
AcDbLine
 10
200.6596260626
 20
154.1138867289
 30
0.0
 11
200.6596260626
 21
183.7749856643
 31
0.0
  0
LINE
  5
A4
330
A
100
AcDbEntity
  8
1
  6
CONTINUOUS
370
    50
100
AcDbLine
 10
12.4096260626
 20
157.4940684037
 30
0.0
 11
12.4096260626
 21
180.3948040104
 31
0.0
  0
LINE
  5
A5
330
A
100
AcDbEntity
  8
1
  6
CONTINUOUS
370
    50
100
AcDbLine
 10
81.4596260626
 20
147.0194361934
 30
0.0
 11
81.4596260626
 21
190.8694361934
 31
0.0
  0
LINE
  5
A6
330
A
100
AcDbEntity
  8
1
  6
CONTINUOUS
370
    50
100
AcDbLine
 10
81.2025163392
 20
146.9725900869
 30
0.0
 11
81.2025163392
 21
190.9162822999
 31
0.0
  0
LINE
  5
A7
330
A
100
AcDbEntity
  8
1
  6
CONTINUOUS
370
    50
100
AcDbLine
 10
81.41382547
 20
147.0194361934
 30
0.0
 11
81.41382547
 21
190.8694361934
 31
0.0
  0
LINE
  5
A8
330
A
100
AcDbEntity
  8
1
  6
CONTINUOUS
370
    50
100
AcDbLine
 10
13.1621099563
 20
156.5648281557
 30
0.0
 11
13.1621099563
 21
181.3240442311
 31
0.0
  0
LWPOLYLINE
  5
A9
330
A
100
AcDbEntity
  8
1
  6
CONTINUOUS
370
    50
100
AcDbPolyline
 90
       20
 70
   128
 43
0.0
 10
98.7096260626
 20
161.9060943031
 10
98.465473515
 20
162.1879500778
 10
98.1614286543
 20
162.3383861831
 10
97.8187944209
 20
162.3468622951
 10
97.4615775243
 20
162.2127845338
 10
97.11480641
 20
161.9455470741
 10
96.8027776388
 20
161.5638739413
 10
96.5473535445
 20
161.0945071101
 10
96.3664304477
 20
160.5703328251
 10
96.2726847474
 20
160.0280774217
 10
96.2726847474
 20
159.5057340911
 10
96.3664304477
 20
159.0399008829
 10
96.5473535445
 20
158.6632164577
 10
96.8027776388
 20
158.4020732559
 10
97.11480641
 20
158.274768308
 10
97.4615775243
 20
158.2902212507
 10
97.8187944209
 20
158.4473493717
 10
98.1614286543
 20
158.7351434699
 10
98.465473515
 20
159.1334392166
 10
98.7096260626
 20
159.6143299716
  0
LWPOLYLINE
  5
BF
330
A
100
AcDbEntity
  8
1
  6
CONTINUOUS
370
    50
100
AcDbPolyline
 90
        9
 70
   128
 43
0.0
 10
98.7096260626
 20
161.9082765483
 10
98.8180728704
 20
161.6903310902
 10
98.8974575955
 20
161.4391603834
 10
98.945866903
 20
161.1608181577
 10
98.9621340292
 20
160.8620130321
 10
98.945866903
 20
160.5499468238
 10
98.8974575955
 20
160.232140969
 10
98.8180728704
 20
159.9162552414
 10
98.7096260626
 20
159.6099031355
  0
LWPOLYLINE
  5
CA
330
A
100
AcDbEntity
  8
1
  6
CONTINUOUS
370
    50
100
AcDbPolyline
 90
       18
 70
   128
 43
0.0
 10
91.4989541992
 20
160.5157718106
 10
91.4822846806
 20
160.4115904033
 10
91.4661828224
 20
160.3637569424
 10
91.4511969542
 20
160.373900339
 10
91.4378374016
 20
160.4416751719
 10
91.4265591083
 20
160.5647734505
 10
91.417746143
 20
160.7390032106
 10
91.4116986206
 20
160.9584312666
 10
91.4086224823
 20
161.2155852592
 10
91.4086224823
 20
161.5017081177
 10
91.4116986206
 20
161.8070562713
 10
91.417746143
 20
162.1212314549
 10
91.4265591083
 20
162.4335348093
 10
91.4378374016
 20
162.7333312184
 10
91.4511969542
 20
163.010411475
 10
91.4661828224
 20
163.2553399434
 10
91.4822846806
 20
163.4597758784
 10
91.4989541992
 20
163.6167574592
  0
LWPOLYLINE
  5
DE
330
A
100
AcDbEntity
  8
1
  6
CONTINUOUS
370
    50
100
AcDbPolyline
 90
       18
 70
   128
 43
0.0
 10
91.4989541992
 20
163.6167574592
 10
91.0013895977
 20
163.5977874658
 10
90.520768962
 20
163.5266632993
 10
90.0734592513
 20
163.4058070078
 10
89.6746930613
 20
163.2393342073
 10
89.3380498965
 20
163.0329139296
 10
89.0749937359
 20
162.7935755695
 10
88.8944826417
 20
162.5294695078
 10
88.8026637027
 20
162.2495895597
 10
88.8026637027
 20
161.9634667012
 10
88.8944826417
 20
161.680844503
 10
89.0749937359
 20
161.4113473252
 10
89.3380498965
 20
161.1641525708
 10
89.6746930613
 20
160.9476781609
 10
90.0734592513
 20
160.7692958717
 10
90.520768962
 20
160.6350802982
 10
91.0013895977
 20
160.5496019907
 10
91.4989541992
 20
160.5157718106
  0
ARC
  5
F2
330
A
100
AcDbEntity
  8
1
  6
CONTINUOUS
370
    50
100
AcDbCircle
 10
93.6099761737
 20
177.7956224367
 30
0.0
 40
6.3599411658
100
AcDbArc
 50
343.5512342854001
 51
16.4487657146
  0
LWPOLYLINE
  5
F3
330
A
100
AcDbEntity
  8
1
  6
CONTINUOUS
370
    50
100
AcDbPolyline
 90
        3
 70
   128
 43
0.0
 10
99.7096260626
 20
173.1423698953
 10
99.8832032719
 20
173.5518890517
 10
100.3521738896
 20
174.1495595854
  0
LWPOLYLINE
  5
F8
330
A
100
AcDbEntity
  8
1
  6
CONTINUOUS
370
    50
100
AcDbPolyline
 90
       11
 70
   128
 43
0.0
 10
100.3521738896
 20
174.1495595854
 10
101.3760350508
 20
170.3629215451
 10
101.8968632782
 20
168.4748922929
 10
102.2970454786
 20
166.5533584498
 10
102.4186110563
 20
165.3306967772
 10
102.4032653536
 20
164.0883179542
 10
102.2460802585
 20
162.814065089
 10
101.9805981442
 20
161.5471102788
 10
101.2728155719
 20
158.9635698233
 10
100.5582746397
 20
156.3816003833
 10
100.3521738896
 20
155.5345260002
  0
LWPOLYLINE
  5
105
330
A
100
AcDbEntity
  8
1
  6
CONTINUOUS
370
    50
100
AcDbPolyline
 90
        4
 70
   128
 43
0.0
 10
100.3521738896
 20
155.5345260002
 10
99.9979746713
 20
155.6009199753
 10
99.7702719873
 20
155.5740511087
 10
99.7096260626
 20
155.4591796763
  0
LWPOLYLINE
  5
10B
330
A
100
AcDbEntity
  8
1
  6
CONTINUOUS
370
    50
100
AcDbPolyline
 90
       20
 70
   128
 43
0.0
 10
98.7096260626
 20
159.6373210899
 10
98.4679398413
 20
159.1540196387
 10
98.165460675
 20
158.7525867638
 10
97.8235498041
 20
158.4613718694
 10
97.4663531568
 20
158.3009407069
 10
97.1190961511
 20
158.2826230107
 10
96.8063022624
 20
158.4077123861
 10
96.550061162
 20
158.6673749548
 10
96.3684687333
 20
159.0432732074
 10
96.2743491306
 20
159.5088610086
 10
96.2743491306
 20
160.0312582992
 10
96.3684687333
 20
160.5735731034
 10
96.550061162
 20
161.0975068602
 10
96.8063022624
 20
161.5660590878
 10
97.1190961512
 20
161.9461403777
 10
97.4663531568
 20
162.2109091861
 10
97.8235498041
 20
162.3416673984
 10
98.165460675
 20
162.3291807998
 10
98.4679398413
 20
162.1743312005
 10
98.7096260626
 20
161.888054162
  0
LINE
  5
121
330
A
100
AcDbEntity
  8
1
  6
CONTINUOUS
370
    50
100
AcDbLine
 10
98.7096260626
 20
159.6373210899
 30
0.0
 11
98.7096260626
 21
159.6099031355
 31
0.0
  0
LINE
  5
122
330
A
100
AcDbEntity
  8
1
  6
CONTINUOUS
370
    50
100
AcDbLine
 10
98.7096260626
 20
161.9082765483
 30
0.0
 11
98.7096260626
 21
161.888054162
 31
0.0
  0
LWPOLYLINE
  5
123
330
A
100
AcDbEntity
  8
1
  6
CONTINUOUS
370
    50
100
AcDbPolyline
 90
       22
 70
   128
 43
0.0
 10
98.3446579255
 20
160.3948203397
 10
98.2153090002
 20
159.9203729912
 10
98.0066767814
 20
159.4880823716
 10
97.737299157
 20
159.1363593997
 10
97.4311115114
 20
158.896456205
 10
97.1153199603
 20
158.7896892391
 10
96.817983969
 20
158.8255452155
 10
96.5655231451
 20
159.0008381733
 10
96.3803697408
 20
159.299992564
 10
96.2789754485
 20
159.6964272072
 10
96.2703495961
 20
160.154917145
 10
96.3552586284
 20
160.6347235345
 10
96.5261580053
 20
161.0932134723
 10
96.7678625672
 20
161.4896481155
 10
97.0588958029
 20
161.7888025062
 10
97.3733981325
 20
161.964095464
 10
97.6834246436
 20
161.9999514404
 10
97.9614281204
 20
161.8931844745
 10
98.1827067337
 20
161.6532812797
 10
98.3275989079
 20
161.3015583078
 10
98.3832303374
 20
160.8692676883
 10
98.3446579255
 20
160.3948203397
  0
ARC
  5
13B
330
A
100
AcDbEntity
  8
1
  6
CONTINUOUS
370
    50
100
AcDbCircle
 10
93.0709729548
 20
163.4217369044
 30
0.0
 40
1.584069438
100
AcDbArc
 50
169.5837820603
 51
172.9281661006
  0
ARC
  5
13C
330
A
100
AcDbEntity
  8
1
  6
CONTINUOUS
370
    50
100
AcDbCircle
 10
87.2729368436
 20
153.6617195269
 30
0.0
 40
10.9045232021
100
AcDbArc
 50
65.78271100279999
 51
67.1179062879
  0
ARC
  5
13D
330
A
100
AcDbEntity
  8
1
  6
CONTINUOUS
370
    50
100
AcDbCircle
 10
91.4285647909
 20
158.8944621435
 30
0.0
 40
4.7228198905
100
AcDbArc
 50
86.14663913299998
 51
89.1460260104
  0
ARC
  5
13E
330
A
100
AcDbEntity
  8
1
  6
CONTINUOUS
370
    50
100
AcDbCircle
 10
91.5694817563
 20
165.2314210997
 30
0.0
 40
4.716176667
100
AcDbArc
 50
269.1431444843
 51
272.1444122423
  0
ARC
  5
13F
330
A
100
AcDbEntity
  8
1
  6
CONTINUOUS
370
    50
100
AcDbCircle
 10
97.5193493473
 20
171.4672260773
 30
0.0
 40
12.3776278975
100
AcDbArc
 50
240.9706336713
 51
242.1966722694
  0
ARC
  5
140
330
A
100
AcDbEntity
  8
1
  6
CONTINUOUS
370
    50
100
AcDbCircle
 10
87.2436589196
 20
161.0452193893
 30
0.0
 40
4.288105952
100
AcDbArc
 50
352.9076566906
 51
354.6390928972
  0
LWPOLYLINE
  5
141
330
A
100
AcDbEntity
  8
1
  6
CONTINUOUS
370
    50
100
AcDbPolyline
 90
       22
 70
   128
 43
0.0
 10
88.1625431132
 20
162.7305806284
 10
88.1239707012
 20
162.2561332799
 10
88.1796021307
 20
161.8238426603
 10
88.3244943049
 20
161.4721196884
 10
88.5457729183
 20
161.2322164936
 10
88.823776395
 20
161.1254495277
 10
89.1338029061
 20
161.1613055041
 10
89.4483052357
 20
161.336598462
 10
89.7393384715
 20
161.6357528527
 10
89.9810430333
 20
162.0321874958
 10
90.1519424102
 20
162.4906774337
 10
90.2368514425
 20
162.9704838231
 10
90.2282255901
 20
163.428973761
 10
90.1268312978
 20
163.8254084041
 10
89.9416778935
 20
164.1245627948
 10
89.6892170696
 20
164.2998557527
 10
89.3918810783
 20
164.3357117291
 10
89.0760895273
 20
164.2289447632
 10
88.7699018816
 20
163.9890415684
 10
88.5005242573
 20
163.6373185965
 10
88.2918920384
 20
163.2050279769
 10
88.1625431132
 20
162.7305806284
  0
LINE
  5
159
330
A
100
AcDbEntity
  8
1
  6
CONTINUOUS
370
    50
100
AcDbLine
 10
81.9127799561
 20
146.3444361934
 30
0.0
 11
81.9127799561
 21
191.9192327621
 31
0.0
  0
LINE
  5
15A
330
A
100
AcDbEntity
  8
1
  6
CONTINUOUS
370
    50
100
AcDbLine
 10
81.9596260626
 20
146.3444361934
 30
0.0
 11
81.9596260626
 21
191.7257860939
 31
0.0
  0
LWPOLYLINE
  5
15B
330
A
100
AcDbEntity
  8
1
  6
CONTINUOUS
370
    50
100
AcDbPolyline
 90
        9
 70
   128
 43
0.0
 10
91.7459531494
 20
163.6066052173
 10
91.7168311995
 20
163.6244587936
 10
91.6876547704
 20
163.6408650723
 10
91.6584516482
 20
163.6558084289
 10
91.6292496445
 20
163.669274632
 10
91.6000765698
 20
163.6812508572
 10
91.5709602068
 20
163.691725699
 10
91.5419282846
 20
163.7006891816
 10
91.5130084515
 20
163.7081327687
  0
LWPOLYLINE
  5
166
330
A
100
AcDbEntity
  8
1
  6
CONTINUOUS
370
    50
100
AcDbPolyline
 90
       24
 70
   128
 43
0.0
 10
87.9381727867
 20
162.7327790915
 10
87.8909407875
 20
162.2063869642
 10
87.9390539442
 20
161.7190349329
 10
88.0789439242
 20
161.3068676682
 10
88.3002357276
 20
161.0004537307
 10
88.5865171536
 20
160.8225184404
 10
88.9165560186
 20
160.7862584437
 10
89.2658748498
 20
160.8943629787
 10
89.6085662675
 20
161.1388144266
 10
89.9192144169
 20
161.5014829418
 10
90.1747799459
 20
161.9554710596
 10
90.3563087284
 20
162.4671085582
 10
90.450337605
 20
162.9984496249
 10
90.4498928841
 20
163.5100871234
 10
90.3550075486
 20
163.9640752413
 10
90.1727188098
 20
164.3267437565
 10
89.9165461895
 20
164.5711952043
 10
89.605488839
 20
164.6792997393
 10
89.2626164591
 20
164.6430397426
 10
88.9133583255
 20
164.4651044523
 10
88.5836173165
 20
164.1586905148
 10
88.297848814
 20
163.7465232502
 10
88.0772469606
 20
163.2591712188
 10
87.9381727867
 20
162.7327790915
  0
LWPOLYLINE
  5
180
330
A
100
AcDbEntity
  8
1
  6
CONTINUOUS
370
    50
100
AcDbPolyline
 90
       24
 70
   128
 43
0.0
 10
87.9458332311
 20
162.7305806284
 10
87.8986012319
 20
162.2041885011
 10
87.9467143886
 20
161.7168364698
 10
88.0866043686
 20
161.3046692051
 10
88.307896172
 20
160.9982552676
 10
88.594177598
 20
160.8203199773
 10
88.9242164631
 20
160.7840599806
 10
89.2735352942
 20
160.8921645156
 10
89.6162267119
 20
161.1366159635
 10
89.9268748613
 20
161.4992844787
 10
90.1824403903
 20
161.9532725965
 10
90.3639691728
 20
162.4649100951
 10
90.4579980495
 20
162.9962511618
 10
90.4575533286
 20
163.5078886603
 10
90.3626679931
 20
163.9618767782
 10
90.1803792542
 20
164.3245452933
 10
89.9242066339
 20
164.5689967412
 10
89.6131492834
 20
164.6771012762
 10
89.2702769035
 20
164.6408412795
 10
88.92101877
 20
164.4629059892
 10
88.5912777609
 20
164.1564920517
 10
88.3055092584
 20
163.7443247871
 10
88.0849074051
 20
163.2569727557
 10
87.9458332311
 20
162.7305806284
  0
LWPOLYLINE
  5
19A
330
A
100
AcDbEntity
  8
1
  6
CONTINUOUS
370
    50
100
AcDbPolyline
 90
       22
 70
   128
 43
0.0
 10
88.1548826687
 20
162.7327790915
 10
88.1163102568
 20
162.258331743
 10
88.1719416863
 20
161.8260411234
 10
88.3168338604
 20
161.4743181515
 10
88.5381124738
 20
161.2344149568
 10
88.8161159505
 20
161.1276479908
 10
89.1261424617
 20
161.1635039672
 10
89.4406447912
 20
161.3387969251
 10
89.731678027
 20
161.6379513158
 10
89.9733825889
 20
162.0343859589
 10
90.1442819658
 20
162.4928758968
 10
90.2291909981
 20
162.9726822863
 10
90.2205651457
 20
163.4311722241
 10
90.1191708534
 20
163.8276068672
 10
89.934017449
 20
164.1267612579
 10
89.6815566252
 20
164.3020542158
 10
89.3842206339
 20
164.3379101922
 10
89.0684290828
 20
164.2311432263
 10
88.7622414371
 20
163.9912400315
 10
88.4928638128
 20
163.6395170596
 10
88.284231594
 20
163.2072264401
 10
88.1548826687
 20
162.7327790915
  0
LWPOLYLINE
  5
1B2
330
A
100
AcDbEntity
  8
1
  6
CONTINUOUS
370
    50
100
AcDbPolyline
 90
       21
 70
   128
 43
0.0
 10
73.4150413901
 20
166.9629510482
 10
73.337497534
 20
166.5563871991
 10
73.4049775253
 20
166.1568608818
 10
73.6030438151
 20
165.8078540324
 10
73.9328873867
 20
165.5055970667
 10
74.5690721502
 20
165.2087036207
 10
75.5841452382
 20
165.0592648285
 10
76.9443955582
 20
165.2296368289
 10
77.7770769182
 20
165.5740215193
 10
78.1846943375
 20
165.8932770117
 10
78.3963895414
 20
166.2020010087
 10
78.4694763198
 20
166.4881386548
 10
78.4339934826
 20
166.7860566744
 10
78.3074935417
 20
167.0526995912
 10
77.9662672901
 20
167.4243813527
 10
77.2222608853
 20
167.8559070188
 10
75.9098647471
 20
168.15220611
 10
74.787624508
 20
168.0495827863
 10
74.0984983663
 20
167.7567874493
 10
73.6598192898
 20
167.3790281868
 10
73.4150413901
 20
166.9629510482
  0
LWPOLYLINE
  5
1C9
330
A
100
AcDbEntity
  8
1
  6
CONTINUOUS
370
    50
100
AcDbPolyline
 90
        9
 70
   128
 43
0.0
 10
91.5130084515
 20
160.6445858536
 10
91.5419282846
 20
160.6237773443
 10
91.5709602068
 20
160.6043792294
 10
91.6000765698
 20
160.5864099825
 10
91.6292496445
 20
160.5698867167
 10
91.6584516482
 20
160.5548251679
 10
91.6876547704
 20
160.5412396798
 10
91.7168311995
 20
160.5291431907
 10
91.7459531494
 20
160.5185472205
  0
LINE
  5
1D4
330
A
100
AcDbEntity
  8
1
  6
CONTINUOUS
370
    50
100
AcDbLine
 10
199.5964040382
 20
158.9444361934
 30
0.0
 11
199.5964040382
 21
178.9444361934
 31
0.0
  0
LINE
  5
1D5
330
A
100
AcDbEntity
  8
1
  6
CONTINUOUS
370
    50
100
AcDbLine
 10
81.6596260626
 20
145.5944361934
 30
0.0
 11
84.3596260626
 21
145.5944361934
 31
0.0
  0
LINE
  5
1D6
330
A
100
AcDbEntity
  8
1
  6
CONTINUOUS
370
    50
100
AcDbLine
 10
84.3596260626
 20
194.4944361934
 30
0.0
 11
81.6596260626
 21
194.4944361934
 31
0.0
  0
LINE
  5
1D7
330
A
100
AcDbEntity
  8
1
  6
CONTINUOUS
370
    50
100
AcDbLine
 10
158.6596260664
 20
178.9444361934
 30
0.0
 11
158.6596260664
 21
158.9444361934
 31
0.0
  0
LINE
  5
1D8
330
A
100
AcDbEntity
  8
1
  6
CONTINUOUS
370
    50
100
AcDbLine
 10
158.5441560126
 20
158.7444361934
 30
0.0
 11
158.5441560126
 21
179.1444361934
 31
0.0
  0
LINE
  5
1D9
330
A
100
AcDbEntity
  8
1
  6
CONTINUOUS
370
    50
100
AcDbLine
 10
149.1596260626
 20
179.1444361934
 30
0.0
 11
149.1596260626
 21
158.7623501294
 31
0.0
  0
LINE
  5
1DA
330
A
100
AcDbEntity
  8
1
  6
CONTINUOUS
370
    50
100
AcDbLine
 10
148.6596260626
 20
159.2445243363
 30
0.0
 11
148.6596260626
 21
178.6444361934
 31
0.0
  0
LINE
  5
1DB
330
A
100
AcDbEntity
  8
1
  6
CONTINUOUS
370
    50
100
AcDbLine
 10
84.0489658908
 20
146.3444361934
 30
0.0
 11
81.6596260626
 21
146.3444361934
 31
0.0
  0
LINE
  5
1DC
330
A
100
AcDbEntity
  8
1
  6
CONTINUOUS
370
    50
100
AcDbLine
 10
81.6596260626
 20
193.7444361934
 30
0.0
 11
84.0489658908
 21
193.7444361934
 31
0.0
  0
LINE
  5
1DD
330
A
100
AcDbEntity
  8
1
  6
CONTINUOUS
370
    50
100
AcDbLine
 10
12.6809125087
 20
160.1292548237
 30
0.0
 11
12.6809125087
 21
177.7596175631
 31
0.0
  0
LINE
  5
1DE
330
A
100
AcDbEntity
  8
1
  6
CONTINUOUS
370
    50
100
AcDbLine
 10
83.5096260601
 20
138.4673546409
 30
0.0
 11
84.3596260626
 21
139.3173546434
 31
0.0
  0
LINE
  5
1DF
330
A
100
AcDbEntity
  8
1
  6
CONTINUOUS
370
    50
100
AcDbLine
 10
83.5096260601
 20
199.4215177459
 30
0.0
 11
84.3596260626
 21
198.5715177434
 31
0.0
  0
LINE
  5
1E0
330
A
100
AcDbEntity
  8
1
  6
CONTINUOUS
370
    50
100
AcDbLine
 10
13.1809125087
 20
160.4179299583
 30
0.0
 11
13.1809125087
 21
177.4709424285
 31
0.0
  0
LINE
  5
1E1
330
A
100
AcDbEntity
  8
1
  6
CONTINUOUS
370
    50
100
AcDbLine
 10
20.9096260626
 20
177.5944361934
 30
0.0
 11
20.9096260626
 21
160.2944361934
 31
0.0
  0
LINE
  5
1E2
330
A
100
AcDbEntity
  8
1
  6
CONTINUOUS
370
    50
100
AcDbLine
 10
18.5993374943
 20
177.5944361934
 30
0.0
 11
18.5993374943
 21
160.2944361934
 31
0.0
  0
LINE
  5
1E3
330
A
100
AcDbEntity
  8
1
  6
CONTINUOUS
370
    50
100
AcDbLine
 10
18.3395298731
 20
177.4444361934
 30
0.0
 11
18.3395298731
 21
160.4444361934
 31
0.0
  0
LINE
  5
1E4
330
A
100
AcDbEntity
  8
1
  6
CONTINUOUS
370
    50
100
AcDbLine
 10
21.8189527365
 20
176.0194361934
 30
0.0
 11
21.8189527365
 21
161.8694361934
 31
0.0
  0
LINE
  5
1E5
330
A
100
AcDbEntity
  8
1
  6
CONTINUOUS
370
    50
100
AcDbLine
 10
13.4096260626
 20
177.4444361934
 30
0.0
 11
13.4096260626
 21
160.4444361934
 31
0.0
  0
LINE
  5
1E6
330
A
100
AcDbEntity
  8
1
  6
CONTINUOUS
370
    50
100
AcDbLine
 10
94.6759638793
 20
139.3173546434
 30
0.0
 11
99.7096260626
 21
139.3173546434
 31
0.0
  0
LINE
  5
1E7
330
A
100
AcDbEntity
  8
1
  6
CONTINUOUS
370
    50
100
AcDbLine
 10
84.3596260626
 20
139.3173546434
 30
0.0
 11
88.8432882458
 21
139.3173546434
 31
0.0
  0
LINE
  5
1E8
330
A
100
AcDbEntity
  8
1
  6
CONTINUOUS
370
    50
100
AcDbLine
 10
84.3596260626
 20
139.3173546434
 30
0.0
 11
84.3596260626
 21
145.5944361934
 31
0.0
  0
LINE
  5
1E9
330
A
100
AcDbEntity
  8
1
  6
CONTINUOUS
370
    50
100
AcDbLine
 10
84.3596260626
 20
145.5944361934
 30
0.0
 11
99.868736815
 21
145.5944361934
 31
0.0
  0
LINE
  5
1EA
330
A
100
AcDbEntity
  8
1
  6
CONTINUOUS
370
    50
100
AcDbLine
 10
100.2197661505
 20
146.3444361934
 30
0.0
 11
84.0489658908
 21
146.3444361934
 31
0.0
  0
LINE
  5
1EB
330
A
100
AcDbEntity
  8
1
  6
CONTINUOUS
370
    50
100
AcDbLine
 10
84.3596260626
 20
145.5944361934
 30
0.0
 11
84.0489658908
 21
146.3444361934
 31
0.0
  0
LINE
  5
1EC
330
A
100
AcDbEntity
  8
1
  6
CONTINUOUS
370
    50
100
AcDbLine
 10
84.0489658908
 20
193.7444361934
 30
0.0
 11
99.7105850024
 21
193.7444361934
 31
0.0
  0
LINE
  5
1ED
330
A
100
AcDbEntity
  8
1
  6
CONTINUOUS
370
    50
100
AcDbLine
 10
84.3596260626
 20
194.4944361934
 30
0.0
 11
84.0489658908
 21
193.7444361934
 31
0.0
  0
LINE
  5
1EE
330
A
100
AcDbEntity
  8
1
  6
CONTINUOUS
370
    50
100
AcDbLine
 10
99.7096260626
 20
194.4944361934
 30
0.0
 11
84.3596260626
 21
194.4944361934
 31
0.0
  0
LINE
  5
1EF
330
A
100
AcDbEntity
  8
1
  6
CONTINUOUS
370
    50
100
AcDbLine
 10
94.6759638793
 20
198.5715177434
 30
0.0
 11
99.7096260626
 21
198.5715177434
 31
0.0
  0
LINE
  5
1F0
330
A
100
AcDbEntity
  8
1
  6
CONTINUOUS
370
    50
100
AcDbLine
 10
84.3596260626
 20
198.5715177434
 30
0.0
 11
88.8432882458
 21
198.5715177434
 31
0.0
  0
LINE
  5
1F1
330
A
100
AcDbEntity
  8
1
  6
CONTINUOUS
370
    50
100
AcDbLine
 10
84.3596260626
 20
198.5715177434
 30
0.0
 11
84.3596260626
 21
194.4944361934
 31
0.0
  0
LINE
  5
1F2
330
A
100
AcDbEntity
  8
1
  6
CONTINUOUS
370
    50
100
AcDbLine
 10
118.6596260626
 20
160.9444361934
 30
0.0
 11
118.6596260626
 21
176.9444361934
 31
0.0
  0
LINE
  5
1F3
330
A
100
AcDbEntity
  8
1
  6
CONTINUOUS
370
    50
100
AcDbLine
 10
118.6496260626
 20
160.9444361934
 30
0.0
 11
118.6496260626
 21
176.9444361934
 31
0.0
  0
LINE
  5
1F4
330
A
100
AcDbEntity
  8
1
  6
CONTINUOUS
370
    50
100
AcDbLine
 10
46.3996260626
 20
176.9444361934
 30
0.0
 11
46.3996260626
 21
160.9444361934
 31
0.0
  0
LINE
  5
1F5
330
A
100
AcDbEntity
  8
1
  6
CONTINUOUS
370
    50
100
AcDbLine
 10
46.4096260626
 20
176.9444361934
 30
0.0
 11
46.4096260626
 21
160.9444361934
 31
0.0
  0
LINE
  5
1F6
330
A
100
AcDbEntity
  8
1
  6
CONTINUOUS
370
    50
100
AcDbLine
 10
110.6596260626
 20
161.4444361934
 30
0.0
 11
110.6596260626
 21
176.4444361934
 31
0.0
  0
LINE
  5
1F7
330
A
100
AcDbEntity
  8
1
  6
CONTINUOUS
370
    50
100
AcDbLine
 10
110.3853846847
 20
175.9694361934
 30
0.0
 11
110.3853846847
 21
161.9194361934
 31
0.0
  0
LINE
  5
1F8
330
A
100
AcDbEntity
  8
1
  6
CONTINUOUS
370
    50
100
AcDbLine
 10
57.4096260626
 20
176.0194361934
 30
0.0
 11
57.4096260626
 21
161.8694361934
 31
0.0
  0
LINE
  5
1F9
330
A
100
AcDbEntity
  8
1
  6
CONTINUOUS
370
    50
100
AcDbLine
 10
57.4278245743
 20
175.9694361934
 30
0.0
 11
57.4278245743
 21
161.9194361934
 31
0.0
  0
LWPOLYLINE
  5
1FA
330
A
100
AcDbEntity
  8
1
  6
CONTINUOUS
370
    50
100
AcDbPolyline
 90
       21
 70
   128
 43
0.0
 10
73.4150413901
 20
170.9259213386
 10
73.337497534
 20
171.3324851877
 10
73.4049775253
 20
171.732011505
 10
73.6030438151
 20
172.0810183544
 10
73.9328873867
 20
172.3832753201
 10
74.5690721502
 20
172.6801687661
 10
75.5841452382
 20
172.8296075583
 10
76.9443955582
 20
172.6592355579
 10
77.7770769182
 20
172.3148508675
 10
78.1846943375
 20
171.9955953751
 10
78.3963895414
 20
171.6868713781
 10
78.4694763198
 20
171.400733732
 10
78.4339934826
 20
171.1028157124
 10
78.3074935417
 20
170.8361727956
 10
77.9662672901
 20
170.4644910341
 10
77.2222608853
 20
170.032965368
 10
75.9098647471
 20
169.7366662768
 10
74.787624508
 20
169.8392896005
 10
74.0984983663
 20
170.1320849375
 10
73.6598192898
 20
170.5098442
 10
73.4150413901
 20
170.9259213386
  0
LINE
  5
211
330
A
100
AcDbEntity
  8
1
  6
CONTINUOUS
370
    50
100
AcDbLine
 10
86.7596260626
 20
193.5444361934
 30
0.0
 11
96.7596260626
 21
193.5444361934
 31
0.0
  0
LINE
  5
212
330
A
100
AcDbEntity
  8
1
  6
CONTINUOUS
370
    50
100
AcDbLine
 10
96.4596260626
 20
189.0444361934
 30
0.0
 11
87.0596260626
 21
189.0444361934
 31
0.0
  0
LINE
  5
213
330
A
100
AcDbEntity
  8
1
  6
CONTINUOUS
370
    50
100
AcDbLine
 10
96.7596260626
 20
189.3444361934
 30
0.0
 11
86.7776386198
 21
189.3444361934
 31
0.0
  0
LINE
  5
214
330
A
100
AcDbEntity
  8
1
  6
CONTINUOUS
370
    50
100
AcDbLine
 10
90.6596260626
 20
188.6444361934
 30
0.0
 11
92.8596260626
 21
188.6444361934
 31
0.0
  0
LINE
  5
215
330
A
100
AcDbEntity
  8
1
  6
CONTINUOUS
370
    50
100
AcDbLine
 10
90.5096260626
 20
185.2344361934
 30
0.0
 11
93.0096260626
 21
185.2344361934
 31
0.0
  0
LINE
  5
216
330
A
100
AcDbEntity
  8
1
  6
CONTINUOUS
370
    50
100
AcDbLine
 10
90.5096260626
 20
185.2444361934
 30
0.0
 11
93.0096260626
 21
185.2444361934
 31
0.0
  0
LINE
  5
217
330
A
100
AcDbEntity
  8
1
  6
CONTINUOUS
370
    50
100
AcDbLine
 10
90.6596260626
 20
182.6444361934
 30
0.0
 11
92.8596260626
 21
182.6444361934
 31
0.0
  0
LWPOLYLINE
  5
218
330
A
100
AcDbEntity
  8
1
  6
CONTINUOUS
370
    50
100
AcDbPolyline
 90
       22
 70
   128
 43
0.0
 10
88.1548826687
 20
175.1560932953
 10
88.1163102568
 20
175.6305406438
 10
88.1719416863
 20
176.0628312634
 10
88.3168338604
 20
176.4145542353
 10
88.5381124738
 20
176.65445743
 10
88.8161159505
 20
176.761224396
 10
89.1261424617
 20
176.7253684196
 10
89.4406447912
 20
176.5500754617
 10
89.731678027
 20
176.250921071
 10
89.9733825889
 20
175.8544864279
 10
90.1442819658
 20
175.39599649
 10
90.2291909981
 20
174.9161901005
 10
90.2205651457
 20
174.4577001627
 10
90.1191708534
 20
174.0612655196
 10
89.934017449
 20
173.7621111288
 10
89.6815566252
 20
173.586818171
 10
89.3842206339
 20
173.5509621946
 10
89.0684290828
 20
173.6577291605
 10
88.7622414371
 20
173.8976323553
 10
88.4928638128
 20
174.2493553272
 10
88.284231594
 20
174.6816459467
 10
88.1548826687
 20
175.1560932953
  0
LINE
  5
230
330
A
100
AcDbEntity
  8
1
  6
CONTINUOUS
370
    50
100
AcDbLine
 10
90.3346260626
 20
142.1265783371
 30
0.0
 11
90.3346260626
 21
195.7622940497
 31
0.0
  0
LINE
  5
231
330
A
100
AcDbEntity
  8
1
  6
CONTINUOUS
370
    50
100
AcDbLine
 10
89.8346260626
 20
187.2944361934
 30
0.0
 11
89.8346260626
 21
190.7510292331
 31
0.0
  0
LINE
  5
232
330
A
100
AcDbEntity
  8
1
  6
CONTINUOUS
370
    50
100
AcDbLine
 10
93.1846260626
 20
142.1265783371
 30
0.0
 11
93.1846260626
 21
195.7622940497
 31
0.0
  0
LINE
  5
233
330
A
100
AcDbEntity
  8
1
  6
CONTINUOUS
370
    50
100
AcDbLine
 10
93.6846260626
 20
187.2944361934
 30
0.0
 11
93.6846260626
 21
190.7510292331
 31
0.0
  0
LINE
  5
234
330
A
100
AcDbEntity
  8
1
  6
CONTINUOUS
370
    50
100
AcDbLine
 10
88.2377894205
 20
194.8546658334
 30
0.0
 11
88.2377894205
 21
187.2944361934
 31
0.0
  0
LINE
  5
235
330
A
100
AcDbEntity
  8
1
  6
CONTINUOUS
370
    50
100
AcDbLine
 10
99.2096260626
 20
194.8546658334
 30
0.0
 11
99.2096260626
 21
187.2944361934
 31
0.0
  0
LINE
  5
236
330
A
100
AcDbEntity
  8
1
  6
CONTINUOUS
370
    50
100
AcDbLine
 10
95.2814627046
 20
194.8546658334
 30
0.0
 11
95.2814627046
 21
187.2944361934
 31
0.0
  0
LINE
  5
237
330
A
100
AcDbEntity
  8
1
  6
CONTINUOUS
370
    50
100
AcDbLine
 10
82.1596260626
 20
187.2944361934
 30
0.0
 11
82.1596260626
 21
194.8546658334
 31
0.0
  0
LWPOLYLINE
  5
238
330
A
100
AcDbEntity
  8
1
  6
CONTINUOUS
370
    50
100
AcDbPolyline
 90
       24
 70
   128
 43
0.0
 10
87.9458332311
 20
175.1582917584
 10
87.8986012319
 20
175.6846838857
 10
87.9467143886
 20
176.172035917
 10
88.0866043686
 20
176.5842031817
 10
88.307896172
 20
176.8906171192
 10
88.594177598
 20
177.0685524095
 10
88.9242164631
 20
177.1048124062
 10
89.2735352942
 20
176.9967078712
 10
89.6162267119
 20
176.7522564233
 10
89.9268748613
 20
176.3895879081
 10
90.1824403903
 20
175.9355997903
 10
90.3639691728
 20
175.4239622917
 10
90.4579980495
 20
174.892621225
 10
90.4575533286
 20
174.3809837265
 10
90.3626679931
 20
173.9269956086
 10
90.1803792542
 20
173.5643270934
 10
89.9242066339
 20
173.3198756456
 10
89.6131492834
 20
173.2117711106
 10
89.2702769035
 20
173.2480311073
 10
88.92101877
 20
173.4259663976
 10
88.5912777609
 20
173.7323803351
 10
88.3055092584
 20
174.1445475997
 10
88.0849074051
 20
174.6318996311
 10
87.9458332311
 20
175.1582917584
  0
LWPOLYLINE
  5
252
330
A
100
AcDbEntity
  8
1
  6
CONTINUOUS
370
    50
100
AcDbPolyline
 90
       24
 70
   128
 43
0.0
 10
87.9381727867
 20
175.1560932953
 10
87.8909407875
 20
175.6824854226
 10
87.9390539442
 20
176.1698374539
 10
88.0789439242
 20
176.5820047186
 10
88.3002357276
 20
176.8884186561
 10
88.5865171536
 20
177.0663539464
 10
88.9165560186
 20
177.1026139431
 10
89.2658748498
 20
176.9945094081
 10
89.6085662675
 20
176.7500579602
 10
89.9192144169
 20
176.387389445
 10
90.1747799459
 20
175.9334013272
 10
90.3563087284
 20
175.4217638286
 10
90.450337605
 20
174.8904227619
 10
90.4498928841
 20
174.3787852633
 10
90.3550075486
 20
173.9247971455
 10
90.1727188098
 20
173.5621286303
 10
89.9165461895
 20
173.3176771824
 10
89.605488839
 20
173.2095726474
 10
89.2626164591
 20
173.2458326442
 10
88.9133583255
 20
173.4237679345
 10
88.5836173165
 20
173.730181872
 10
88.297848814
 20
174.1423491366
 10
88.0772469606
 20
174.629701168
 10
87.9381727867
 20
175.1560932953
  0
LWPOLYLINE
  5
26C
330
A
100
AcDbEntity
  8
1
  6
CONTINUOUS
370
    50
100
AcDbPolyline
 90
       22
 70
   128
 43
0.0
 10
88.1625431132
 20
175.1582917584
 10
88.1239707012
 20
175.6327391069
 10
88.1796021307
 20
176.0650297265
 10
88.3244943049
 20
176.4167526984
 10
88.5457729183
 20
176.6566558931
 10
88.823776395
 20
176.7634228591
 10
89.1338029061
 20
176.7275668827
 10
89.4483052357
 20
176.5522739248
 10
89.7393384715
 20
176.2531195341
 10
89.9810430333
 20
175.856684891
 10
90.1519424102
 20
175.3981949531
 10
90.2368514425
 20
174.9183885637
 10
90.2282255901
 20
174.4598986258
 10
90.1268312978
 20
174.0634639827
 10
89.9416778935
 20
173.764309592
 10
89.6892170696
 20
173.5890166341
 10
89.3918810783
 20
173.5531606577
 10
89.0760895273
 20
173.6599276236
 10
88.7699018816
 20
173.8998308184
 10
88.5005242573
 20
174.2515537903
 10
88.2918920384
 20
174.6838444099
 10
88.1625431132
 20
175.1582917584
  0
LWPOLYLINE
  5
284
330
A
100
AcDbEntity
  8
1
  6
CONTINUOUS
370
    50
100
AcDbPolyline
 90
       22
 70
   128
 43
0.0
 10
98.3446579255
 20
177.4940520471
 10
98.2153090002
 20
177.9684993956
 10
98.0066767814
 20
178.4007900152
 10
97.737299157
 20
178.7525129871
 10
97.4311115114
 20
178.9924161818
 10
97.1153199603
 20
179.0991831477
 10
96.817983969
 20
179.0633271713
 10
96.5655231451
 20
178.8880342135
 10
96.3803697408
 20
178.5888798228
 10
96.2789754485
 20
178.1924451796
 10
96.2703495961
 20
177.7339552418
 10
96.3552586284
 20
177.2541488523
 10
96.5261580053
 20
176.7956589145
 10
96.7678625672
 20
176.3992242713
 10
97.0588958029
 20
176.1000698806
 10
97.3733981325
 20
175.9247769228
 10
97.6834246436
 20
175.8889209464
 10
97.9614281204
 20
175.9956879123
 10
98.1827067337
 20
176.2355911071
 10
98.3275989079
 20
176.587314079
 10
98.3832303374
 20
177.0196046985
 10
98.3446579255
 20
177.4940520471
  0
ARC
  5
29C
330
A
100
AcDbEntity
  8
1
  6
CONTINUOUS
370
    50
100
AcDbCircle
 10
93.0709729569
 20
174.4671354827
 30
0.0
 40
1.5840694402
100
AcDbArc
 50
187.0718339016
 51
190.4162179374
  0
ARC
  5
29D
330
A
100
AcDbEntity
  8
1
  6
CONTINUOUS
370
    50
100
AcDbCircle
 10
87.2729368437
 20
184.2271528597
 30
0.0
 40
10.9045232019
100
AcDbArc
 50
292.8820937121
 51
294.2172889972
  0
ARC
  5
29E
330
A
100
AcDbEntity
  8
1
  6
CONTINUOUS
370
    50
100
AcDbCircle
 10
91.4285647909
 20
178.9944102442
 30
0.0
 40
4.7228198914
100
AcDbArc
 50
270.8539739898
 51
273.8533608667
  0
LWPOLYLINE
  5
29F
330
A
100
AcDbEntity
  8
1
  6
CONTINUOUS
370
    50
100
AcDbPolyline
 90
       18
 70
   128
 43
0.0
 10
91.4989541992
 20
177.3731005762
 10
91.4822846806
 20
177.4772819835
 10
91.4661828224
 20
177.5251154444
 10
91.4511969542
 20
177.5149720478
 10
91.4378374016
 20
177.4471972149
 10
91.4265591083
 20
177.3240989363
 10
91.417746143
 20
177.1498691762
 10
91.4116986206
 20
176.9304411202
 10
91.4086224823
 20
176.6732871276
 10
91.4086224823
 20
176.3871642691
 10
91.4116986206
 20
176.0818161155
 10
91.417746143
 20
175.7676409319
 10
91.4265591083
 20
175.4553375775
 10
91.4378374016
 20
175.1555411684
 10
91.4511969542
 20
174.8784609118
 10
91.4661828224
 20
174.6335324433
 10
91.4822846806
 20
174.4290965084
 10
91.4989541992
 20
174.2721149276
  0
ARC
  5
2B3
330
A
100
AcDbEntity
  8
1
  6
CONTINUOUS
370
    50
100
AcDbCircle
 10
91.5694817564
 20
172.6574512887
 30
0.0
 40
4.7161766654
100
AcDbArc
 50
87.8555877572
 51
90.85685551630002
  0
ARC
  5
2B4
330
A
100
AcDbEntity
  8
1
  6
CONTINUOUS
370
    50
100
AcDbCircle
 10
97.5193493482
 20
166.4216463077
 30
0.0
 40
12.3776278994
100
AcDbArc
 50
117.8033277307
 51
119.0293663286
  0
ARC
  5
2B5
330
A
100
AcDbEntity
  8
1
  6
CONTINUOUS
370
    50
100
AcDbCircle
 10
87.2436589257
 20
176.8436529981
 30
0.0
 40
4.2881059458
100
AcDbArc
 50
5.360907101499999
 51
7.0923433107
  0
LWPOLYLINE
  5
2B6
330
A
100
AcDbEntity
  8
1
  6
CONTINUOUS
370
    50
100
AcDbPolyline
 90
       18
 70
   128
 43
0.0
 10
91.4989541992
 20
174.2721149276
 10
91.0013895977
 20
174.291084921
 10
90.520768962
 20
174.3622090875
 10
90.0734592513
 20
174.483065379
 10
89.6746930613
 20
174.6495381795
 10
89.3380498965
 20
174.8559584572
 10
89.0749937359
 20
175.0952968173
 10
88.8944826417
 20
175.359402879
 10
88.8026637027
 20
175.6392828271
 10
88.8026637027
 20
175.9254056856
 10
88.8944826417
 20
176.2080278838
 10
89.0749937359
 20
176.4775250616
 10
89.3380498965
 20
176.724719816
 10
89.6746930613
 20
176.9411942259
 10
90.0734592513
 20
177.1195765151
 10
90.520768962
 20
177.2537920886
 10
91.0013895977
 20
177.3392703961
 10
91.4989541992
 20
177.3731005762
  0
LWPOLYLINE
  5
2CA
330
A
100
AcDbEntity
  8
1
  6
CONTINUOUS
370
    50
100
AcDbPolyline
 90
        9
 70
   128
 43
0.0
 10
91.5130084515
 20
177.2442865332
 10
91.5419282846
 20
177.2650950425
 10
91.5709602068
 20
177.2844931574
 10
91.6000765698
 20
177.3024624043
 10
91.6292496445
 20
177.3189856701
 10
91.6584516482
 20
177.3340472189
 10
91.6876547704
 20
177.347632707
 10
91.7168311995
 20
177.3597291961
 10
91.7459531494
 20
177.3703251663
  0
LWPOLYLINE
  5
2D5
330
A
100
AcDbEntity
  8
1
  6
CONTINUOUS
370
    50
100
AcDbPolyline
 90
        9
 70
   128
 43
0.0
 10
91.7459531494
 20
174.2822671695
 10
91.7168311995
 20
174.2644135932
 10
91.6876547704
 20
174.2480073145
 10
91.6584516482
 20
174.2330639579
 10
91.6292496445
 20
174.2195977548
 10
91.6000765698
 20
174.2076215296
 10
91.5709602068
 20
174.1971466878
 10
91.5419282846
 20
174.1881832052
 10
91.5130084515
 20
174.1807396181
  0
LWPOLYLINE
  5
2E0
330
A
100
AcDbEntity
  8
1
  6
CONTINUOUS
370
    50
100
AcDbPolyline
 90
       17
 70
   128
 43
0.0
 10
99.7096260626
 20
154.855593711
 10
98.7438319059
 20
155.699253094
 10
97.8806074251
 20
156.6439926251
 10
97.1308622927
 20
157.677872422
 10
96.5040719972
 20
158.7878260227
 10
96.0081580897
 20
159.9598255232
 10
95.6493880689
 20
161.1790588662
 10
95.4322961704
 20
162.4301170396
 10
95.3596260626
 20
163.6971888205
 10
95.4322961704
 20
164.9642606015
 10
95.6493880689
 20
166.2153187749
 10
96.0081580897
 20
167.4345521179
 10
96.5040719972
 20
168.6065516184
 10
97.1308622927
 20
169.7165052191
 10
97.8806074251
 20
170.750385016
 10
98.7438319059
 20
171.6951245471
 10
99.7096260626
 20
172.5387839301
  0
LWPOLYLINE
  5
2F3
330
A
100
AcDbEntity
  8
1
  6
CONTINUOUS
370
    50
100
AcDbPolyline
 90
       18
 70
   128
 43
0.0
 10
100.3521738896
 20
155.5345260002
 10
99.315516417
 20
156.3218575733
 10
98.3768594387
 20
157.219869187
 10
97.5483964211
 20
158.2168953718
 10
96.8408893744
 20
159.2999844258
 10
96.2635290505
 20
160.4550666619
 10
95.8238155522
 20
161.6671371774
 10
95.527460904
 20
162.9204507732
 10
95.3783148515
 20
164.1987264887
 10
95.3783148515
 20
165.4853590969
 10
95.527460904
 20
166.7636348124
 10
95.8238155522
 20
168.0169484082
 10
96.2635290505
 20
169.2290189237
 10
96.8408893744
 20
170.3841011598
 10
97.5483964211
 20
171.4671902138
 10
98.3768594387
 20
172.4642163986
 10
99.315516417
 20
173.3622280123
 10
100.3521738896
 20
174.1495595854
  0
LINE
  5
307
330
A
100
AcDbEntity
  8
1
  6
CONTINUOUS
370
    50
100
AcDbLine
 10
98.7096260626
 20
175.9827780837
 30
0.0
 11
98.7096260626
 21
175.9805958385
 31
0.0
  0
LWPOLYLINE
  5
308
330
A
100
AcDbEntity
  8
1
  6
CONTINUOUS
370
    50
100
AcDbPolyline
 90
       20
 70
   128
 43
0.0
 10
98.7096260626
 20
175.9827780837
 10
98.465473515
 20
175.700922309
 10
98.1614286543
 20
175.5504862037
 10
97.8187944209
 20
175.5420100917
 10
97.4615775243
 20
175.676087853
 10
97.11480641
 20
175.9433253127
 10
96.8027776388
 20
176.3249984455
 10
96.5473535445
 20
176.7943652767
 10
96.3664304477
 20
177.3185395617
 10
96.2726847474
 20
177.8607949651
 10
96.2726847474
 20
178.3831382957
 10
96.3664304477
 20
178.8489715039
 10
96.5473535445
 20
179.2256559291
 10
96.8027776388
 20
179.4867991309
 10
97.11480641
 20
179.6141040788
 10
97.4615775243
 20
179.5986511361
 10
97.8187944209
 20
179.4415230151
 10
98.1614286543
 20
179.1537289169
 10
98.465473515
 20
178.7554331702
 10
98.7096260626
 20
178.2745424152
  0
LINE
  5
31E
330
A
100
AcDbEntity
  8
1
  6
CONTINUOUS
370
    50
100
AcDbLine
 10
98.7096260626
 20
178.2789692513
 30
0.0
 11
98.7096260626
 21
178.2745424152
 31
0.0
  0
LWPOLYLINE
  5
31F
330
A
100
AcDbEntity
  8
1
  6
CONTINUOUS
370
    50
100
AcDbPolyline
 90
        9
 70
   128
 43
0.0
 10
98.7096260626
 20
175.9805958385
 10
98.8180728704
 20
176.1985412966
 10
98.8974575955
 20
176.4497120034
 10
98.945866903
 20
176.7280542291
 10
98.9621340292
 20
177.0268593547
 10
98.945866903
 20
177.338925563
 10
98.8974575955
 20
177.6567314178
 10
98.8180728704
 20
177.9726171454
 10
98.7096260626
 20
178.2789692513
  0
LWPOLYLINE
  5
32A
330
A
100
AcDbEntity
  8
1
  6
CONTINUOUS
370
    50
100
AcDbPolyline
 90
       20
 70
   128
 43
0.0
 10
98.7096260626
 20
178.2515512969
 10
98.4679398413
 20
178.7348527481
 10
98.165460675
 20
179.136285623
 10
97.8235498041
 20
179.4275005174
 10
97.4663531568
 20
179.5879316799
 10
97.1190961511
 20
179.6062493761
 10
96.8063022624
 20
179.4811600007
 10
96.550061162
 20
179.221497432
 10
96.3684687333
 20
178.8455991794
 10
96.2743491306
 20
178.3800113782
 10
96.2743491306
 20
177.8576140876
 10
96.3684687333
 20
177.3152992834
 10
96.550061162
 20
176.7913655266
 10
96.8063022624
 20
176.3228132989
 10
97.1190961512
 20
175.9427320091
 10
97.4663531568
 20
175.6779632007
 10
97.8235498041
 20
175.5472049884
 10
98.165460675
 20
175.559691587
 10
98.4679398413
 20
175.7145411863
 10
98.7096260626
 20
176.0008182248
  0
LINE
  5
340
330
A
100
AcDbEntity
  8
1
  6
CONTINUOUS
370
    50
100
AcDbLine
 10
98.7096260626
 20
178.2745424152
 30
0.0
 11
98.7096260626
 21
178.2515512969
 31
0.0
  0
LINE
  5
341
330
A
100
AcDbEntity
  8
1
  6
CONTINUOUS
370
    50
100
AcDbLine
 10
98.7096260626
 20
176.0008182248
 30
0.0
 11
98.7096260626
 21
175.9827780837
 31
0.0
  0
LINE
  5
342
330
A
100
AcDbEntity
  8
1
  6
CONTINUOUS
370
    50
100
AcDbLine
 10
82.8596260626
 20
188.9444361934
 30
0.0
 11
82.8596260626
 21
148.9444361934
 31
0.0
  0
LINE
  5
343
330
A
100
AcDbEntity
  8
1
  6
CONTINUOUS
370
    50
100
AcDbLine
 10
82.8596260626
 20
148.9444361934
 30
0.0
 11
87.4596260626
 21
148.9444361934
 31
0.0
  0
LINE
  5
344
330
A
100
AcDbEntity
  8
1
  6
CONTINUOUS
370
    50
100
AcDbLine
 10
87.4596260626
 20
148.9444361934
 30
0.0
 11
87.4596260626
 21
188.9444361934
 31
0.0
  0
LINE
  5
345
330
A
100
AcDbEntity
  8
1
  6
CONTINUOUS
370
    50
100
AcDbLine
 10
96.2596260626
 20
188.9444361934
 30
0.0
 11
96.2596260626
 21
148.9444361934
 31
0.0
  0
LINE
  5
346
330
A
100
AcDbEntity
  8
1
  6
CONTINUOUS
370
    50
100
AcDbLine
 10
98.2596260626
 20
148.9444361934
 30
0.0
 11
98.2596260626
 21
188.9444361934
 31
0.0
  0
LINE
  5
347
330
A
100
AcDbEntity
  8
1
  6
CONTINUOUS
370
    50
100
AcDbLine
 10
96.2596260626
 20
148.9444361934
 30
0.0
 11
98.2596260626
 21
148.9444361934
 31
0.0
  0
LINE
  5
348
330
A
100
AcDbEntity
  8
1
  6
CONTINUOUS
370
    50
100
AcDbLine
 10
87.4596260626
 20
188.9444361934
 30
0.0
 11
82.8596260626
 21
188.9444361934
 31
0.0
  0
LINE
  5
349
330
A
100
AcDbEntity
  8
1
  6
CONTINUOUS
370
    50
100
AcDbLine
 10
98.2596260626
 20
188.9444361934
 30
0.0
 11
96.2596260626
 21
188.9444361934
 31
0.0
  0
LINE
  5
34A
330
A
100
AcDbEntity
  8
1
  6
CONTINUOUS
370
    50
100
AcDbLine
 10
99.7128732965
 20
161.8937302734
 30
0.0
 11
98.189957056
 21
162.3307904459
 31
0.0
  0
LINE
  5
34B
330
A
100
AcDbEntity
  8
1
  6
CONTINUOUS
370
    50
100
AcDbLine
 10
97.0313715208
 20
158.2937519822
 30
0.0
 11
99.7096260626
 21
157.5251224535
 31
0.0
  0
LINE
  5
34C
330
A
100
AcDbEntity
  8
1
  6
CONTINUOUS
370
    50
100
AcDbLine
 10
81.6596260626
 20
158.0132356619
 30
0.0
 11
91.4621180695
 21
160.3607862696
 31
0.0
  0
LINE
  5
34D
330
A
100
AcDbEntity
  8
1
  6
CONTINUOUS
370
    50
100
AcDbLine
 10
90.3994410938
 20
163.4996043098
 30
0.0
 11
81.6596260626
 21
161.4065489853
 31
0.0
  0
LINE
  5
34E
330
A
100
AcDbEntity
  8
1
  6
CONTINUOUS
370
    50
100
AcDbLine
 10
96.7577276592
 20
161.4910555751
 30
0.0
 11
96.6530906749
 21
161.3237690055
 31
0.0
  0
LINE
  5
34F
330
A
100
AcDbEntity
  8
1
  6
CONTINUOUS
370
    50
100
AcDbLine
 10
96.2624260685
 20
159.9625159999
 30
0.0
 11
96.2624260685
 21
159.7651997692
 31
0.0
  0
LINE
  5
350
330
A
100
AcDbEntity
  8
1
  6
CONTINUOUS
370
    50
100
AcDbLine
 10
97.7781842276
 20
161.9807997362
 30
0.0
 11
89.6393340172
 21
164.3165600249
 31
0.0
  0
LINE
  5
351
330
A
100
AcDbEntity
  8
1
  6
CONTINUOUS
370
    50
100
AcDbLine
 10
91.4600220691
 20
160.3608328291
 30
0.0
 11
96.8678670214
 21
158.8088409433
 31
0.0
  0
LINE
  5
352
330
A
100
AcDbEntity
  8
1
  6
CONTINUOUS
370
    50
100
AcDbLine
 10
88.729016811
 20
161.1446012319
 30
0.0
 11
90.3368780642
 21
160.6831627771
 31
0.0
  0
LINE
  5
353
330
A
100
AcDbEntity
  8
1
  6
CONTINUOUS
370
    50
100
AcDbLine
 10
81.9127799561
 20
191.9370952247
 30
0.0
 11
81.6596260626
 21
192.4799855013
 31
0.0
  0
ARC
  5
354
330
A
100
AcDbEntity
  8
1
  6
CONTINUOUS
370
    50
100
AcDbCircle
 10
81.4596260626
 20
191.7257860939
 30
0.0
 40
0.5
100
AcDbArc
 50
0.0
 51
25.0
  0
ARC
  5
355
330
A
100
AcDbEntity
  8
1
  6
CONTINUOUS
370
    50
100
AcDbCircle
 10
81.4596260626
 20
146.5194361934
 30
0.0
 40
0.5
100
AcDbArc
 50
0.0
 51
66.4218215218
  0
ARC
  5
356
330
A
100
AcDbEntity
  8
1
  6
CONTINUOUS
370
    50
100
AcDbCircle
 10
81.4596260626
 20
191.3694361934
 30
0.0
 40
0.5
100
AcDbArc
 50
293.5781784782001
 51
0.0
  0
LINE
  5
357
330
A
100
AcDbEntity
  8
1
  6
CONTINUOUS
370
    50
100
AcDbLine
 10
89.6316735728
 20
164.318758488
 30
0.0
 11
76.8100229129
 21
167.998430883
 31
0.0
  0
LINE
  5
358
330
A
100
AcDbEntity
  8
1
  6
CONTINUOUS
370
    50
100
AcDbLine
 10
74.6152900789
 20
165.195085216
 30
0.0
 11
88.7213563665
 21
161.1467996951
 31
0.0
  0
ARC
  5
359
330
A
100
AcDbEntity
  8
1
  6
CONTINUOUS
370
    50
100
AcDbCircle
 10
199.1596260626
 20
157.5094361934
 30
0.0
 40
1.5
100
AcDbArc
 50
0.0
 51
73.0710674448
  0
ARC
  5
35A
330
A
100
AcDbEntity
  8
1
  6
CONTINUOUS
370
    50
100
AcDbCircle
 10
199.1596260626
 20
180.3794361934
 30
0.0
 40
1.5
100
AcDbArc
 50
286.9289325552
 51
0.0
  0
LINE
  5
35B
330
A
100
AcDbEntity
  8
1
  6
CONTINUOUS
370
    50
100
AcDbLine
 10
158.5441560126
 20
158.7444361934
 30
0.0
 11
158.6596260664
 21
158.9444361934
 31
0.0
  0
LINE
  5
35C
330
A
100
AcDbEntity
  8
1
  6
CONTINUOUS
370
    50
100
AcDbLine
 10
158.6596260664
 20
178.9444361934
 30
0.0
 11
158.5441560126
 21
179.1444361934
 31
0.0
  0
LINE
  5
35D
330
A
100
AcDbEntity
  8
1
  6
CONTINUOUS
370
    50
100
AcDbLine
 10
149.1596260626
 20
158.7444361934
 30
0.0
 11
158.5441560126
 21
158.7444361934
 31
0.0
  0
LINE
  5
35E
330
A
100
AcDbEntity
  8
1
  6
CONTINUOUS
370
    50
100
AcDbLine
 10
158.5441560126
 20
179.1444361934
 30
0.0
 11
149.1596260626
 21
179.1444361934
 31
0.0
  0
ARC
  5
35F
330
A
100
AcDbEntity
  8
1
  6
CONTINUOUS
370
    50
100
AcDbCircle
 10
149.1596260626
 20
159.2444361934
 30
0.0
 40
0.5
100
AcDbArc
 50
180.0
 51
270.0
  0
ARC
  5
360
330
A
100
AcDbEntity
  8
1
  6
CONTINUOUS
370
    50
100
AcDbCircle
 10
149.1596260626
 20
178.6444361934
 30
0.0
 40
0.5
100
AcDbArc
 50
90.0
 51
180.0
  0
LINE
  5
361
330
A
100
AcDbEntity
  8
1
  6
CONTINUOUS
370
    50
100
AcDbLine
 10
158.6596260664
 20
158.9444361934
 30
0.0
 11
199.5964040382
 21
158.9444361934
 31
0.0
  0
LINE
  5
362
330
A
100
AcDbEntity
  8
1
  6
CONTINUOUS
370
    50
100
AcDbLine
 10
199.5964040382
 20
178.9444361934
 30
0.0
 11
158.6596260664
 21
178.9444361934
 31
0.0
  0
ARC
  5
363
330
A
100
AcDbEntity
  8
1
  6
CONTINUOUS
370
    50
100
AcDbCircle
 10
13.4096260626
 20
159.4444361934
 30
0.0
 40
1.0
100
AcDbArc
 50
136.778654881
 51
180.0
  0
ARC
  5
364
330
A
100
AcDbEntity
  8
1
  6
CONTINUOUS
370
    50
100
AcDbCircle
 10
13.4096260626
 20
178.4444361934
 30
0.0
 40
1.0
100
AcDbArc
 50
180.0
 51
223.221345119
  0
LINE
  5
365
330
A
100
AcDbEntity
  8
1
  6
CONTINUOUS
370
    50
100
AcDbLine
 10
12.6809125087
 20
160.1292548237
 30
0.0
 11
13.1809125087
 21
160.4179299583
 31
0.0
  0
LINE
  5
366
330
A
100
AcDbEntity
  8
1
  6
CONTINUOUS
370
    50
100
AcDbLine
 10
13.1809125087
 20
177.4709424285
 30
0.0
 11
12.6809125087
 21
177.7596175631
 31
0.0
  0
LINE
  5
367
330
A
100
AcDbEntity
  8
1
  6
CONTINUOUS
370
    50
100
AcDbLine
 10
20.9096260626
 20
177.5944361934
 30
0.0
 11
18.5993374943
 21
177.5944361934
 31
0.0
  0
LINE
  5
368
330
A
100
AcDbEntity
  8
1
  6
CONTINUOUS
370
    50
100
AcDbLine
 10
18.5993374943
 20
160.2944361934
 30
0.0
 11
20.9096260626
 21
160.2944361934
 31
0.0
  0
LINE
  5
369
330
A
100
AcDbEntity
  8
1
  6
CONTINUOUS
370
    50
100
AcDbLine
 10
18.5993374943
 20
177.5944361934
 30
0.0
 11
18.3395298731
 21
177.4444361934
 31
0.0
  0
LINE
  5
36A
330
A
100
AcDbEntity
  8
1
  6
CONTINUOUS
370
    50
100
AcDbLine
 10
18.3395298731
 20
160.4444361934
 30
0.0
 11
18.5993374943
 21
160.2944361934
 31
0.0
  0
LINE
  5
36B
330
A
100
AcDbEntity
  8
1
  6
CONTINUOUS
370
    50
100
AcDbLine
 10
20.9096260626
 20
160.2944361934
 30
0.0
 11
21.8189527365
 21
161.8694361934
 31
0.0
  0
LINE
  5
36C
330
A
100
AcDbEntity
  8
1
  6
CONTINUOUS
370
    50
100
AcDbLine
 10
21.8189527365
 20
176.0194361934
 30
0.0
 11
20.9096260626
 21
177.5944361934
 31
0.0
  0
ARC
  5
36D
330
A
100
AcDbEntity
  8
1
  6
CONTINUOUS
370
    50
100
AcDbCircle
 10
13.4096260626
 20
159.4444361934
 30
0.0
 40
1.0
100
AcDbArc
 50
90.0
 51
103.221345119
  0
ARC
  5
36E
330
A
100
AcDbEntity
  8
1
  6
CONTINUOUS
370
    50
100
AcDbCircle
 10
13.4096260626
 20
178.4444361934
 30
0.0
 40
1.0
100
AcDbArc
 50
256.778654881
 51
270.0
  0
LINE
  5
36F
330
A
100
AcDbEntity
  8
1
  6
CONTINUOUS
370
    50
100
AcDbLine
 10
13.4096260626
 20
160.4444361934
 30
0.0
 11
18.3395298731
 21
160.4444361934
 31
0.0
  0
LINE
  5
370
330
A
100
AcDbEntity
  8
1
  6
CONTINUOUS
370
    50
100
AcDbLine
 10
18.3395298731
 20
177.4444361934
 30
0.0
 11
13.4096260626
 21
177.4444361934
 31
0.0
  0
LINE
  5
371
330
A
100
AcDbEntity
  8
1
  6
CONTINUOUS
370
    50
100
AcDbLine
 10
118.6596260626
 20
161.4444361934
 30
0.0
 11
148.6596260626
 21
161.4444361934
 31
0.0
  0
LINE
  5
372
330
A
100
AcDbEntity
  8
1
  6
CONTINUOUS
370
    50
100
AcDbLine
 10
148.6596260626
 20
176.4444361934
 30
0.0
 11
118.6596260626
 21
176.4444361934
 31
0.0
  0
LINE
  5
373
330
A
100
AcDbEntity
  8
1
  6
CONTINUOUS
370
    50
100
AcDbLine
 10
110.6596260626
 20
161.4444361934
 30
0.0
 11
118.6496260626
 21
161.4444361934
 31
0.0
  0
LINE
  5
374
330
A
100
AcDbEntity
  8
1
  6
CONTINUOUS
370
    50
100
AcDbLine
 10
118.6496260626
 20
176.4444361934
 30
0.0
 11
110.6596260626
 21
176.4444361934
 31
0.0
  0
LINE
  5
375
330
A
100
AcDbEntity
  8
1
  6
CONTINUOUS
370
    50
100
AcDbLine
 10
110.6596260626
 20
176.4444361934
 30
0.0
 11
110.3853846847
 21
175.9694361934
 31
0.0
  0
LINE
  5
376
330
A
100
AcDbEntity
  8
1
  6
CONTINUOUS
370
    50
100
AcDbLine
 10
110.3853846847
 20
161.9194361934
 30
0.0
 11
110.6596260626
 21
161.4444361934
 31
0.0
  0
LINE
  5
377
330
A
100
AcDbEntity
  8
1
  6
CONTINUOUS
370
    50
100
AcDbLine
 10
57.4096260626
 20
176.0194361934
 30
0.0
 11
46.4096260626
 21
176.0194361934
 31
0.0
  0
LINE
  5
378
330
A
100
AcDbEntity
  8
1
  6
CONTINUOUS
370
    50
100
AcDbLine
 10
46.4096260626
 20
161.8694361934
 30
0.0
 11
57.4096260626
 21
161.8694361934
 31
0.0
  0
LINE
  5
379
330
A
100
AcDbEntity
  8
1
  6
CONTINUOUS
370
    50
100
AcDbLine
 10
46.3996260626
 20
176.0194361934
 30
0.0
 11
21.8189527365
 21
176.0194361934
 31
0.0
  0
LINE
  5
37A
330
A
100
AcDbEntity
  8
1
  6
CONTINUOUS
370
    50
100
AcDbLine
 10
21.8189527365
 20
161.8694361934
 30
0.0
 11
46.3996260626
 21
161.8694361934
 31
0.0
  0
LINE
  5
37B
330
A
100
AcDbEntity
  8
1
  6
CONTINUOUS
370
    50
100
AcDbLine
 10
110.3853846847
 20
175.9694361934
 30
0.0
 11
57.4278245743
 21
175.9694361934
 31
0.0
  0
LINE
  5
37C
330
A
100
AcDbEntity
  8
1
  6
CONTINUOUS
370
    50
100
AcDbLine
 10
57.4278245743
 20
161.9194361934
 30
0.0
 11
110.3853846847
 21
161.9194361934
 31
0.0
  0
LINE
  5
37D
330
A
100
AcDbEntity
  8
1
  6
CONTINUOUS
370
    50
100
AcDbLine
 10
86.5596260626
 20
193.7444361934
 30
0.0
 11
86.7596260626
 21
193.5444361934
 31
0.0
  0
LINE
  5
37E
330
A
100
AcDbEntity
  8
1
  6
CONTINUOUS
370
    50
100
AcDbLine
 10
96.7596260626
 20
193.5444361934
 30
0.0
 11
96.9596260626
 21
193.7444361934
 31
0.0
  0
ARC
  5
37F
330
A
100
AcDbEntity
  8
1
  6
CONTINUOUS
370
    50
100
AcDbCircle
 10
87.0596260626
 20
189.3444361934
 30
0.0
 40
0.3
100
AcDbArc
 50
180.0
 51
270.0
  0
ARC
  5
380
330
A
100
AcDbEntity
  8
1
  6
CONTINUOUS
370
    50
100
AcDbCircle
 10
96.4596260626
 20
189.3444361934
 30
0.0
 40
0.3
100
AcDbArc
 50
270.0
 51
0.0
  0
LINE
  5
381
330
A
100
AcDbEntity
  8
1
  6
CONTINUOUS
370
    50
100
AcDbLine
 10
86.7596260626
 20
193.5444361934
 30
0.0
 11
86.7596260626
 21
189.3444361934
 31
0.0
  0
LINE
  5
382
330
A
100
AcDbEntity
  8
1
  6
CONTINUOUS
370
    50
100
AcDbLine
 10
96.7596260626
 20
189.3444361934
 30
0.0
 11
96.7596260626
 21
193.5444361934
 31
0.0
  0
LINE
  5
383
330
A
100
AcDbEntity
  8
1
  6
CONTINUOUS
370
    50
100
AcDbLine
 10
90.2596260626
 20
189.0444361934
 30
0.0
 11
90.6596260626
 21
188.6444361934
 31
0.0
  0
LINE
  5
384
330
A
100
AcDbEntity
  8
1
  6
CONTINUOUS
370
    50
100
AcDbLine
 10
92.8596260626
 20
188.6444361934
 30
0.0
 11
93.2596260626
 21
189.0444361934
 31
0.0
  0
LINE
  5
385
330
A
100
AcDbEntity
  8
1
  6
CONTINUOUS
370
    50
100
AcDbLine
 10
90.6596260626
 20
182.6444361934
 30
0.0
 11
91.7596260626
 21
182.2440689357
 31
0.0
  0
LINE
  5
386
330
A
100
AcDbEntity
  8
1
  6
CONTINUOUS
370
    50
100
AcDbLine
 10
91.7596260626
 20
182.2440689357
 30
0.0
 11
92.8596260626
 21
182.6444361934
 31
0.0
  0
LINE
  5
387
330
A
100
AcDbEntity
  8
1
  6
CONTINUOUS
370
    50
100
AcDbLine
 10
90.6596260626
 20
185.2344361934
 30
0.0
 11
90.6596260626
 21
182.6444361934
 31
0.0
  0
LINE
  5
388
330
A
100
AcDbEntity
  8
1
  6
CONTINUOUS
370
    50
100
AcDbLine
 10
92.8596260626
 20
182.6444361934
 30
0.0
 11
92.8596260626
 21
185.2344361934
 31
0.0
  0
LINE
  5
389
330
A
100
AcDbEntity
  8
1
  6
CONTINUOUS
370
    50
100
AcDbLine
 10
90.6596260626
 20
188.6444361934
 30
0.0
 11
90.6596260626
 21
185.2444361934
 31
0.0
  0
LINE
  5
38A
330
A
100
AcDbEntity
  8
1
  6
CONTINUOUS
370
    50
100
AcDbLine
 10
92.8596260626
 20
185.2444361934
 30
0.0
 11
92.8596260626
 21
188.6444361934
 31
0.0
  0
LINE
  5
38B
330
A
100
AcDbEntity
  8
1
  6
CONTINUOUS
370
    50
100
AcDbLine
 10
88.7213563665
 20
176.7420726917
 30
0.0
 11
74.6152900789
 21
172.6937871708
 31
0.0
  0
LINE
  5
38C
330
A
100
AcDbEntity
  8
1
  6
CONTINUOUS
370
    50
100
AcDbLine
 10
76.8100229129
 20
169.8904415038
 30
0.0
 11
89.6316735728
 21
173.5701138988
 31
0.0
  0
LINE
  5
38D
330
A
100
AcDbEntity
  8
1
  6
CONTINUOUS
370
    50
100
AcDbLine
 10
90.3368780642
 20
177.2057096097
 30
0.0
 11
88.729016811
 21
176.7442711549
 31
0.0
  0
LINE
  5
38E
330
A
100
AcDbEntity
  8
1
  6
CONTINUOUS
370
    50
100
AcDbLine
 10
96.8678670214
 20
179.0800314435
 30
0.0
 11
91.4600220691
 21
177.5280395577
 31
0.0
  0
LINE
  5
38F
330
A
100
AcDbEntity
  8
1
  6
CONTINUOUS
370
    50
100
AcDbLine
 10
89.6393340172
 20
173.5723123619
 30
0.0
 11
97.7781842276
 21
175.9080726506
 31
0.0
  0
LINE
  5
390
330
A
100
AcDbEntity
  8
1
  6
CONTINUOUS
370
    50
100
AcDbLine
 10
81.6596260626
 20
176.4823234015
 30
0.0
 11
90.3994410938
 21
174.389268077
 31
0.0
  0
LINE
  5
391
330
A
100
AcDbEntity
  8
1
  6
CONTINUOUS
370
    50
100
AcDbLine
 10
91.4621180695
 20
177.5280861172
 30
0.0
 11
81.6596260626
 21
179.8756367249
 31
0.0
  0
LINE
  5
392
330
A
100
AcDbEntity
  8
1
  6
CONTINUOUS
370
    50
100
AcDbLine
 10
95.3596260626
 20
164.8420427928
 30
0.0
 11
95.3596260626
 21
163.6971888205
 31
0.0
  0
LINE
  5
393
330
A
100
AcDbEntity
  8
1
  6
CONTINUOUS
370
    50
100
AcDbLine
 10
99.7096260626
 20
180.3637499333
 30
0.0
 11
97.0313715208
 21
179.5951204046
 31
0.0
  0
LINE
  5
394
330
A
100
AcDbEntity
  8
1
  6
CONTINUOUS
370
    50
100
AcDbLine
 10
98.189957056
 20
175.5580819409
 30
0.0
 11
99.7128732965
 21
175.9951421134
 31
0.0
  0
LINE
  5
395
330
A
100
AcDbEntity
  8
1
  6
CONTINUOUS
370
    50
100
AcDbLine
 10
96.2624260685
 20
178.1236726176
 30
0.0
 11
96.2624260685
 21
177.9263563869
 31
0.0
  0
LINE
  5
396
330
A
100
AcDbEntity
  8
1
  6
CONTINUOUS
370
    50
100
AcDbLine
 10
96.6530906749
 20
176.5651033813
 30
0.0
 11
96.7577276592
 21
176.3978168117
 31
0.0
  0
LINE
  5
397
330
A
100
AcDbEntity
  8
1
  6
CONTINUOUS
370
    50
100
AcDbLine
 10
81.4596260626
 20
190.8694361934
 30
0.0
 11
81.4596260626
 21
147.0194361934
 31
0.0
  0
LINE
  5
398
330
A
100
AcDbEntity
  8
1
  6
CONTINUOUS
370
    50
100
AcDbLine
 10
81.2025163392
 20
190.9162822999
 30
0.0
 11
81.2025163392
 21
146.9725900869
 31
0.0
  0
LINE
  5
399
330
A
100
AcDbEntity
  8
1
  6
CONTINUOUS
370
    50
100
AcDbLine
 10
81.41382547
 20
190.8694361934
 30
0.0
 11
81.41382547
 21
147.0194361934
 31
0.0
  0
LINE
  5
39A
330
A
100
AcDbEntity
  8
1
  6
CONTINUOUS
370
    50
100
AcDbLine
 10
13.1621099563
 20
181.3240442311
 30
0.0
 11
13.1621099563
 21
156.5648281557
 31
0.0
  0
LINE
  5
39B
330
A
100
AcDbEntity
  8
1
  6
CONTINUOUS
370
    50
100
AcDbLine
 10
87.9381727867
 20
175.1560932953
 30
0.0
 11
87.8931601684
 21
175.789604377
 31
0.0
  0
LINE
  5
39C
330
A
100
AcDbEntity
  8
1
  6
CONTINUOUS
370
    50
100
AcDbLine
 10
87.8931601684
 20
175.789604377
 30
0.0
 11
87.9872189562
 21
176.3544647031
 31
0.0
  0
LINE
  5
39D
330
A
100
AcDbEntity
  8
1
  6
CONTINUOUS
370
    50
100
AcDbLine
 10
87.9872189562
 20
176.3544647031
 30
0.0
 11
88.2101564208
 21
176.7894628924
 31
0.0
  0
LINE
  5
39E
330
A
100
AcDbEntity
  8
1
  6
CONTINUOUS
370
    50
100
AcDbLine
 10
88.2101564208
 20
176.7894628924
 30
0.0
 11
88.5378138288
 21
177.0474601416
 31
0.0
  0
LINE
  5
39F
330
A
100
AcDbEntity
  8
1
  6
CONTINUOUS
370
    50
100
AcDbLine
 10
88.5378138288
 20
177.0474601416
 30
0.0
 11
88.9346844159
 21
177.1004984454
 31
0.0
  0
LINE
  5
3A0
330
A
100
AcDbEntity
  8
1
  6
CONTINUOUS
370
    50
100
AcDbLine
 10
88.9346844159
 20
177.1004984454
 30
0.0
 11
89.3577610959
 21
176.9428302807
 31
0.0
  0
LINE
  5
3A1
330
A
100
AcDbEntity
  8
1
  6
CONTINUOUS
370
    50
100
AcDbLine
 10
89.3577610959
 20
176.9428302807
 30
0.0
 11
89.7611969457
 21
176.5915414395
 31
0.0
  0
LINE
  5
3A2
330
A
100
AcDbEntity
  8
1
  6
CONTINUOUS
370
    50
100
AcDbLine
 10
89.7611969457
 20
176.5915414395
 30
0.0
 11
90.1012734312
 21
176.0846995186
 31
0.0
  0
LINE
  5
3A3
330
A
100
AcDbEntity
  8
1
  6
CONTINUOUS
370
    50
100
AcDbLine
 10
90.1012734312
 20
176.0846995186
 30
0.0
 11
90.3411379883
 21
175.4772287046
 31
0.0
  0
LINE
  5
3A4
330
A
100
AcDbEntity
  8
1
  6
CONTINUOUS
370
    50
100
AcDbLine
 10
90.3411379883
 20
175.4772287046
 30
0.0
 11
90.4547975703
 21
174.834957886
 31
0.0
  0
LINE
  5
3A5
330
A
100
AcDbEntity
  8
1
  6
CONTINUOUS
370
    50
100
AcDbLine
 10
90.4547975703
 20
174.834957886
 30
0.0
 11
90.429935398
 21
174.227487072
 31
0.0
  0
LINE
  5
3A6
330
A
100
AcDbEntity
  8
1
  6
CONTINUOUS
370
    50
100
AcDbLine
 10
90.429935398
 20
174.227487072
 30
0.0
 11
90.2692456734
 21
173.7206451511
 31
0.0
  0
LINE
  5
3A7
330
A
100
AcDbEntity
  8
1
  6
CONTINUOUS
370
    50
100
AcDbLine
 10
90.2692456734
 20
173.7206451511
 30
0.0
 11
89.9901416216
 21
173.3693563099
 31
0.0
  0
LINE
  5
3A8
330
A
100
AcDbEntity
  8
1
  6
CONTINUOUS
370
    50
100
AcDbLine
 10
89.9901416216
 20
173.3693563099
 30
0.0
 11
89.6228684973
 21
173.2116881451
 31
0.0
  0
LINE
  5
3A9
330
A
100
AcDbEntity
  8
1
  6
CONTINUOUS
370
    50
100
AcDbLine
 10
89.6228684973
 20
173.2116881451
 30
0.0
 11
89.2072260425
 21
173.264726449
 31
0.0
  0
LINE
  5
3AA
330
A
100
AcDbEntity
  8
1
  6
CONTINUOUS
370
    50
100
AcDbLine
 10
89.2072260425
 20
173.264726449
 30
0.0
 11
88.7882555664
 21
173.5227236981
 31
0.0
  0
LINE
  5
3AB
330
A
100
AcDbEntity
  8
1
  6
CONTINUOUS
370
    50
100
AcDbLine
 10
88.7882555664
 20
173.5227236981
 30
0.0
 11
88.411359021
 21
173.9577218875
 31
0.0
  0
LINE
  5
3AC
330
A
100
AcDbEntity
  8
1
  6
CONTINUOUS
370
    50
100
AcDbLine
 10
88.411359021
 20
173.9577218875
 30
0.0
 11
88.1173789954
 21
174.5225822136
 31
0.0
  0
LINE
  5
3AD
330
A
100
AcDbEntity
  8
1
  6
CONTINUOUS
370
    50
100
AcDbLine
 10
88.1173789954
 20
174.5225822136
 30
0.0
 11
87.9381727867
 21
175.1560932953
 31
0.0
  0
LINE
  5
3AE
330
A
100
AcDbEntity
  8
1
  6
CONTINUOUS
370
    50
100
AcDbLine
 10
96.1123722257
 20
178.6197336957
 30
0.0
 11
96.0375491057
 21
178.0413051517
 31
0.0
  0
LINE
  5
3AF
330
A
100
AcDbEntity
  8
1
  6
CONTINUOUS
370
    50
100
AcDbLine
 10
96.0375491057
 20
178.0413051517
 30
0.0
 11
96.1020273127
 21
177.4035732423
 31
0.0
  0
LINE
  5
3B0
330
A
100
AcDbEntity
  8
1
  6
CONTINUOUS
370
    50
100
AcDbLine
 10
96.1020273127
 20
177.4035732423
 30
0.0
 11
96.2988196326
 21
176.7756461153
 31
0.0
  0
LINE
  5
3B1
330
A
100
AcDbEntity
  8
1
  6
CONTINUOUS
370
    50
100
AcDbLine
 10
96.2988196326
 20
176.7756461153
 30
0.0
 11
96.6066005638
 21
176.2255694183
 31
0.0
  0
LINE
  5
3B2
330
A
100
AcDbEntity
  8
1
  6
CONTINUOUS
370
    50
100
AcDbLine
 10
96.6066005638
 20
176.2255694183
 30
0.0
 11
96.9920172669
 21
175.8129524966
 31
0.0
  0
LINE
  5
3B3
330
A
100
AcDbEntity
  8
1
  6
CONTINUOUS
370
    50
100
AcDbLine
 10
96.9920172669
 20
175.8129524966
 30
0.0
 11
97.4133038616
 21
175.5825087961
 31
0.0
  0
LINE
  5
3B4
330
A
100
AcDbEntity
  8
1
  6
CONTINUOUS
370
    50
100
AcDbLine
 10
97.4133038616
 20
175.5825087961
 30
0.0
 11
97.8248074085
 21
175.5592104676
 31
0.0
  0
LINE
  5
3B5
330
A
100
AcDbEntity
  8
1
  6
CONTINUOUS
370
    50
100
AcDbLine
 10
97.8248074085
 20
175.5592104676
 30
0.0
 11
98.1819351132
 21
175.7455822463
 31
0.0
  0
LINE
  5
3B6
330
A
100
AcDbEntity
  8
1
  6
CONTINUOUS
370
    50
100
AcDbLine
 10
98.1819351132
 20
175.7455822463
 30
0.0
 11
98.4459866474
 21
176.1214278583
 31
0.0
  0
LINE
  5
3B7
330
A
100
AcDbEntity
  8
1
  6
CONTINUOUS
370
    50
100
AcDbLine
 10
98.4459866474
 20
176.1214278583
 30
0.0
 11
98.5883479303
 21
176.6460185996
 31
0.0
  0
LINE
  5
3B8
330
A
100
AcDbEntity
  8
1
  6
CONTINUOUS
370
    50
100
AcDbLine
 10
98.5883479303
 20
176.6460185996
 30
0.0
 11
98.5935919078
 21
177.2625069235
 31
0.0
  0
LINE
  5
3B9
330
A
100
AcDbEntity
  8
1
  6
CONTINUOUS
370
    50
100
AcDbLine
 10
98.5935919078
 20
177.2625069235
 30
0.0
 11
98.4611503137
 21
177.9040867543
 31
0.0
  0
LINE
  5
3BA
330
A
100
AcDbEntity
  8
1
  6
CONTINUOUS
370
    50
100
AcDbLine
 10
98.4611503137
 20
177.9040867543
 30
0.0
 11
98.2053752497
 21
178.5012329623
 31
0.0
  0
LINE
  5
3BB
330
A
100
AcDbEntity
  8
1
  6
CONTINUOUS
370
    50
100
AcDbLine
 10
98.2053752497
 20
178.5012329623
 30
0.0
 11
97.8539839127
 21
178.98923549
 31
0.0
  0
LINE
  5
3BC
330
A
100
AcDbEntity
  8
1
  6
CONTINUOUS
370
    50
100
AcDbLine
 10
97.8539839127
 20
178.98923549
 30
0.0
 11
97.4450550065
 21
179.3152116916
 31
0.0
  0
LINE
  5
3BD
330
A
100
AcDbEntity
  8
1
  6
CONTINUOUS
370
    50
100
AcDbLine
 10
97.4450550065
 20
179.3152116916
 30
0.0
 11
97.0229023233
 21
179.4438369875
 31
0.0
  0
LINE
  5
3BE
330
A
100
AcDbEntity
  8
1
  6
CONTINUOUS
370
    50
100
AcDbLine
 10
97.0229023233
 20
179.4438369875
 30
0.0
 11
96.6332726567
 21
179.3611728311
 31
0.0
  0
LINE
  5
3BF
330
A
100
AcDbEntity
  8
1
  6
CONTINUOUS
370
    50
100
AcDbLine
 10
96.6332726567
 20
179.3611728311
 30
0.0
 11
96.3183884268
 21
179.0761771663
 31
0.0
  0
LINE
  5
3C0
330
A
100
AcDbEntity
  8
1
  6
CONTINUOUS
370
    50
100
AcDbLine
 10
96.3183884268
 20
179.0761771663
 30
0.0
 11
96.1123722257
 21
178.6197336957
 31
0.0
  0
LINE
  5
3C1
330
A
100
AcDbEntity
  8
1
  6
CONTINUOUS
370
    50
100
AcDbLine
 10
90.4225175971
 20
175.1582917584
 30
0.0
 11
90.4675302153
 21
174.5247806767
 31
0.0
  0
LINE
  5
3C2
330
A
100
AcDbEntity
  8
1
  6
CONTINUOUS
370
    50
100
AcDbLine
 10
90.4675302153
 20
174.5247806767
 30
0.0
 11
90.3734714276
 21
173.9599203506
 31
0.0
  0
LINE
  5
3C3
330
A
100
AcDbEntity
  8
1
  6
CONTINUOUS
370
    50
100
AcDbLine
 10
90.3734714276
 20
173.9599203506
 30
0.0
 11
90.150533963
 21
173.5249221612
 31
0.0
  0
LINE
  5
3C4
330
A
100
AcDbEntity
  8
1
  6
CONTINUOUS
370
    50
100
AcDbLine
 10
90.150533963
 20
173.5249221612
 30
0.0
 11
89.822876555
 21
173.2669249121
 31
0.0
  0
LINE
  5
3C5
330
A
100
AcDbEntity
  8
1
  6
CONTINUOUS
370
    50
100
AcDbLine
 10
89.822876555
 20
173.2669249121
 30
0.0
 11
89.4260059679
 21
173.2138866082
 31
0.0
  0
LINE
  5
3C6
330
A
100
AcDbEntity
  8
1
  6
CONTINUOUS
370
    50
100
AcDbLine
 10
89.4260059679
 20
173.2138866082
 30
0.0
 11
89.0029292879
 21
173.371554773
 31
0.0
  0
LINE
  5
3C7
330
A
100
AcDbEntity
  8
1
  6
CONTINUOUS
370
    50
100
AcDbLine
 10
89.0029292879
 20
173.371554773
 30
0.0
 11
88.599493438
 21
173.7228436142
 31
0.0
  0
LINE
  5
3C8
330
A
100
AcDbEntity
  8
1
  6
CONTINUOUS
370
    50
100
AcDbLine
 10
88.599493438
 20
173.7228436142
 30
0.0
 11
88.2594169526
 21
174.2296855351
 31
0.0
  0
LINE
  5
3C9
330
A
100
AcDbEntity
  8
1
  6
CONTINUOUS
370
    50
100
AcDbLine
 10
88.2594169526
 20
174.2296855351
 30
0.0
 11
88.0195523955
 21
174.8371563491
 31
0.0
  0
LINE
  5
3CA
330
A
100
AcDbEntity
  8
1
  6
CONTINUOUS
370
    50
100
AcDbLine
 10
88.0195523955
 20
174.8371563491
 30
0.0
 11
87.9058928135
 21
175.4794271677
 31
0.0
  0
LINE
  5
3CB
330
A
100
AcDbEntity
  8
1
  6
CONTINUOUS
370
    50
100
AcDbLine
 10
87.9058928135
 20
175.4794271677
 30
0.0
 11
87.9307549858
 21
176.0868979817
 31
0.0
  0
LINE
  5
3CC
330
A
100
AcDbEntity
  8
1
  6
CONTINUOUS
370
    50
100
AcDbLine
 10
87.9307549858
 20
176.0868979817
 30
0.0
 11
88.0914447104
 21
176.5937399026
 31
0.0
  0
LINE
  5
3CD
330
A
100
AcDbEntity
  8
1
  6
CONTINUOUS
370
    50
100
AcDbLine
 10
88.0914447104
 20
176.5937399026
 30
0.0
 11
88.3705487622
 21
176.9450287438
 31
0.0
  0
LINE
  5
3CE
330
A
100
AcDbEntity
  8
1
  6
CONTINUOUS
370
    50
100
AcDbLine
 10
88.3705487622
 20
176.9450287438
 30
0.0
 11
88.7378218864
 21
177.1026969085
 31
0.0
  0
LINE
  5
3CF
330
A
100
AcDbEntity
  8
1
  6
CONTINUOUS
370
    50
100
AcDbLine
 10
88.7378218864
 20
177.1026969085
 30
0.0
 11
89.1534643413
 21
177.0496586047
 31
0.0
  0
LINE
  5
3D0
330
A
100
AcDbEntity
  8
1
  6
CONTINUOUS
370
    50
100
AcDbLine
 10
89.1534643413
 20
177.0496586047
 30
0.0
 11
89.5724348174
 21
176.7916613555
 31
0.0
  0
LINE
  5
3D1
330
A
100
AcDbEntity
  8
1
  6
CONTINUOUS
370
    50
100
AcDbLine
 10
89.5724348174
 20
176.7916613555
 30
0.0
 11
89.9493313627
 21
176.3566631662
 31
0.0
  0
LINE
  5
3D2
330
A
100
AcDbEntity
  8
1
  6
CONTINUOUS
370
    50
100
AcDbLine
 10
89.9493313627
 20
176.3566631662
 30
0.0
 11
90.2433113884
 21
175.7918028401
 31
0.0
  0
LINE
  5
3D3
330
A
100
AcDbEntity
  8
1
  6
CONTINUOUS
370
    50
100
AcDbLine
 10
90.2433113884
 20
175.7918028401
 30
0.0
 11
90.4225175971
 21
175.1582917584
 31
0.0
  0
LINE
  5
3D4
330
A
100
AcDbEntity
  8
1
  6
CONTINUOUS
370
    50
100
AcDbLine
 10
87.9381727867
 20
162.7327790915
 30
0.0
 11
87.8931601684
 21
162.0992680098
 31
0.0
  0
LINE
  5
3D5
330
A
100
AcDbEntity
  8
1
  6
CONTINUOUS
370
    50
100
AcDbLine
 10
87.8931601684
 20
162.0992680098
 30
0.0
 11
87.9872189562
 21
161.5344076837
 31
0.0
  0
LINE
  5
3D6
330
A
100
AcDbEntity
  8
1
  6
CONTINUOUS
370
    50
100
AcDbLine
 10
87.9872189562
 20
161.5344076837
 30
0.0
 11
88.2101564208
 21
161.0994094944
 31
0.0
  0
LINE
  5
3D7
330
A
100
AcDbEntity
  8
1
  6
CONTINUOUS
370
    50
100
AcDbLine
 10
88.2101564208
 20
161.0994094944
 30
0.0
 11
88.5378138288
 21
160.8414122452
 31
0.0
  0
LINE
  5
3D8
330
A
100
AcDbEntity
  8
1
  6
CONTINUOUS
370
    50
100
AcDbLine
 10
88.5378138288
 20
160.8414122452
 30
0.0
 11
88.9346844159
 21
160.7883739414
 31
0.0
  0
LINE
  5
3D9
330
A
100
AcDbEntity
  8
1
  6
CONTINUOUS
370
    50
100
AcDbLine
 10
88.9346844159
 20
160.7883739414
 30
0.0
 11
89.3577610959
 21
160.9460421061
 31
0.0
  0
LINE
  5
3DA
330
A
100
AcDbEntity
  8
1
  6
CONTINUOUS
370
    50
100
AcDbLine
 10
89.3577610959
 20
160.9460421061
 30
0.0
 11
89.7611969457
 21
161.2973309473
 31
0.0
  0
LINE
  5
3DB
330
A
100
AcDbEntity
  8
1
  6
CONTINUOUS
370
    50
100
AcDbLine
 10
89.7611969457
 20
161.2973309473
 30
0.0
 11
90.1012734312
 21
161.8041728682
 31
0.0
  0
LINE
  5
3DC
330
A
100
AcDbEntity
  8
1
  6
CONTINUOUS
370
    50
100
AcDbLine
 10
90.1012734312
 20
161.8041728682
 30
0.0
 11
90.3411379883
 21
162.4116436822
 31
0.0
  0
LINE
  5
3DD
330
A
100
AcDbEntity
  8
1
  6
CONTINUOUS
370
    50
100
AcDbLine
 10
90.3411379883
 20
162.4116436822
 30
0.0
 11
90.4547975703
 21
163.0539145008
 31
0.0
  0
LINE
  5
3DE
330
A
100
AcDbEntity
  8
1
  6
CONTINUOUS
370
    50
100
AcDbLine
 10
90.4547975703
 20
163.0539145008
 30
0.0
 11
90.429935398
 21
163.6613853148
 31
0.0
  0
LINE
  5
3DF
330
A
100
AcDbEntity
  8
1
  6
CONTINUOUS
370
    50
100
AcDbLine
 10
90.429935398
 20
163.6613853148
 30
0.0
 11
90.2692456734
 21
164.1682272357
 31
0.0
  0
LINE
  5
3E0
330
A
100
AcDbEntity
  8
1
  6
CONTINUOUS
370
    50
100
AcDbLine
 10
90.2692456734
 20
164.1682272357
 30
0.0
 11
89.9901416216
 21
164.5195160769
 31
0.0
  0
LINE
  5
3E1
330
A
100
AcDbEntity
  8
1
  6
CONTINUOUS
370
    50
100
AcDbLine
 10
89.9901416216
 20
164.5195160769
 30
0.0
 11
89.6228684973
 21
164.6771842417
 31
0.0
  0
LINE
  5
3E2
330
A
100
AcDbEntity
  8
1
  6
CONTINUOUS
370
    50
100
AcDbLine
 10
89.6228684973
 20
164.6771842417
 30
0.0
 11
89.2072260425
 21
164.6241459378
 31
0.0
  0
LINE
  5
3E3
330
A
100
AcDbEntity
  8
1
  6
CONTINUOUS
370
    50
100
AcDbLine
 10
89.2072260425
 20
164.6241459378
 30
0.0
 11
88.7882555664
 21
164.3661486887
 31
0.0
  0
LINE
  5
3E4
330
A
100
AcDbEntity
  8
1
  6
CONTINUOUS
370
    50
100
AcDbLine
 10
88.7882555664
 20
164.3661486887
 30
0.0
 11
88.411359021
 21
163.9311504993
 31
0.0
  0
LINE
  5
3E5
330
A
100
AcDbEntity
  8
1
  6
CONTINUOUS
370
    50
100
AcDbLine
 10
88.411359021
 20
163.9311504993
 30
0.0
 11
88.1173789954
 21
163.3662901732
 31
0.0
  0
LINE
  5
3E6
330
A
100
AcDbEntity
  8
1
  6
CONTINUOUS
370
    50
100
AcDbLine
 10
88.1173789954
 20
163.3662901732
 30
0.0
 11
87.9381727867
 21
162.7327790915
 31
0.0
  0
LINE
  5
3E7
330
A
100
AcDbEntity
  8
1
  6
CONTINUOUS
370
    50
100
AcDbLine
 10
96.1123722257
 20
159.2691386911
 30
0.0
 11
96.0375491057
 21
159.8475672351
 31
0.0
  0
LINE
  5
3E8
330
A
100
AcDbEntity
  8
1
  6
CONTINUOUS
370
    50
100
AcDbLine
 10
96.0375491057
 20
159.8475672351
 30
0.0
 11
96.1020273127
 21
160.4852991445
 31
0.0
  0
LINE
  5
3E9
330
A
100
AcDbEntity
  8
1
  6
CONTINUOUS
370
    50
100
AcDbLine
 10
96.1020273127
 20
160.4852991445
 30
0.0
 11
96.2988196326
 21
161.1132262715
 31
0.0
  0
LINE
  5
3EA
330
A
100
AcDbEntity
  8
1
  6
CONTINUOUS
370
    50
100
AcDbLine
 10
96.2988196326
 20
161.1132262715
 30
0.0
 11
96.6066005638
 21
161.6633029685
 31
0.0
  0
LINE
  5
3EB
330
A
100
AcDbEntity
  8
1
  6
CONTINUOUS
370
    50
100
AcDbLine
 10
96.6066005638
 20
161.6633029685
 30
0.0
 11
96.9920172669
 21
162.0759198902
 31
0.0
  0
LINE
  5
3EC
330
A
100
AcDbEntity
  8
1
  6
CONTINUOUS
370
    50
100
AcDbLine
 10
96.9920172669
 20
162.0759198902
 30
0.0
 11
97.4133038616
 21
162.3063635907
 31
0.0
  0
LINE
  5
3ED
330
A
100
AcDbEntity
  8
1
  6
CONTINUOUS
370
    50
100
AcDbLine
 10
97.4133038616
 20
162.3063635907
 30
0.0
 11
97.8248074085
 21
162.3296619192
 31
0.0
  0
LINE
  5
3EE
330
A
100
AcDbEntity
  8
1
  6
CONTINUOUS
370
    50
100
AcDbLine
 10
97.8248074085
 20
162.3296619192
 30
0.0
 11
98.1819351132
 21
162.1432901405
 31
0.0
  0
LINE
  5
3EF
330
A
100
AcDbEntity
  8
1
  6
CONTINUOUS
370
    50
100
AcDbLine
 10
98.1819351132
 20
162.1432901405
 30
0.0
 11
98.4459866474
 21
161.7674445285
 31
0.0
  0
LINE
  5
3F0
330
A
100
AcDbEntity
  8
1
  6
CONTINUOUS
370
    50
100
AcDbLine
 10
98.4459866474
 20
161.7674445285
 30
0.0
 11
98.5883479303
 21
161.2428537872
 31
0.0
  0
LINE
  5
3F1
330
A
100
AcDbEntity
  8
1
  6
CONTINUOUS
370
    50
100
AcDbLine
 10
98.5883479303
 20
161.2428537872
 30
0.0
 11
98.5935919078
 21
160.6263654633
 31
0.0
  0
LINE
  5
3F2
330
A
100
AcDbEntity
  8
1
  6
CONTINUOUS
370
    50
100
AcDbLine
 10
98.5935919078
 20
160.6263654633
 30
0.0
 11
98.4611503137
 21
159.9847856325
 31
0.0
  0
LINE
  5
3F3
330
A
100
AcDbEntity
  8
1
  6
CONTINUOUS
370
    50
100
AcDbLine
 10
98.4611503137
 20
159.9847856325
 30
0.0
 11
98.2053752497
 21
159.3876394245
 31
0.0
  0
LINE
  5
3F4
330
A
100
AcDbEntity
  8
1
  6
CONTINUOUS
370
    50
100
AcDbLine
 10
98.2053752497
 20
159.3876394245
 30
0.0
 11
97.8539839127
 21
158.8996368968
 31
0.0
  0
LINE
  5
3F5
330
A
100
AcDbEntity
  8
1
  6
CONTINUOUS
370
    50
100
AcDbLine
 10
97.8539839127
 20
158.8996368968
 30
0.0
 11
97.4450550065
 21
158.5736606952
 31
0.0
  0
LINE
  5
3F6
330
A
100
AcDbEntity
  8
1
  6
CONTINUOUS
370
    50
100
AcDbLine
 10
97.4450550065
 20
158.5736606952
 30
0.0
 11
97.0229023233
 21
158.4450353993
 31
0.0
  0
LINE
  5
3F7
330
A
100
AcDbEntity
  8
1
  6
CONTINUOUS
370
    50
100
AcDbLine
 10
97.0229023233
 20
158.4450353993
 30
0.0
 11
96.6332726567
 21
158.5276995557
 31
0.0
  0
LINE
  5
3F8
330
A
100
AcDbEntity
  8
1
  6
CONTINUOUS
370
    50
100
AcDbLine
 10
96.6332726567
 20
158.5276995557
 30
0.0
 11
96.3183884268
 21
158.8126952205
 31
0.0
  0
LINE
  5
3F9
330
A
100
AcDbEntity
  8
1
  6
CONTINUOUS
370
    50
100
AcDbLine
 10
96.3183884268
 20
158.8126952205
 30
0.0
 11
96.1123722257
 21
159.2691386911
 31
0.0
  0
LINE
  5
3FA
330
A
100
AcDbEntity
  8
1
  6
CONTINUOUS
370
    50
100
AcDbLine
 10
87.9458332311
 20
162.7305806284
 30
0.0
 11
87.9008206129
 21
162.0970695467
 31
0.0
  0
LINE
  5
3FB
330
A
100
AcDbEntity
  8
1
  6
CONTINUOUS
370
    50
100
AcDbLine
 10
87.9008206129
 20
162.0970695467
 30
0.0
 11
87.9948794006
 21
161.5322092206
 31
0.0
  0
LINE
  5
3FC
330
A
100
AcDbEntity
  8
1
  6
CONTINUOUS
370
    50
100
AcDbLine
 10
87.9948794006
 20
161.5322092206
 30
0.0
 11
88.2178168652
 21
161.0972110313
 31
0.0
  0
LINE
  5
3FD
330
A
100
AcDbEntity
  8
1
  6
CONTINUOUS
370
    50
100
AcDbLine
 10
88.2178168652
 20
161.0972110313
 30
0.0
 11
88.5454742732
 21
160.8392137821
 31
0.0
  0
LINE
  5
3FE
330
A
100
AcDbEntity
  8
1
  6
CONTINUOUS
370
    50
100
AcDbLine
 10
88.5454742732
 20
160.8392137821
 30
0.0
 11
88.9423448603
 21
160.7861754783
 31
0.0
  0
LINE
  5
3FF
330
A
100
AcDbEntity
  8
1
  6
CONTINUOUS
370
    50
100
AcDbLine
 10
88.9423448603
 20
160.7861754783
 30
0.0
 11
89.3654215403
 21
160.943843643
 31
0.0
  0
LINE
  5
400
330
A
100
AcDbEntity
  8
1
  6
CONTINUOUS
370
    50
100
AcDbLine
 10
89.3654215403
 20
160.943843643
 30
0.0
 11
89.7688573902
 21
161.2951324842
 31
0.0
  0
LINE
  5
401
330
A
100
AcDbEntity
  8
1
  6
CONTINUOUS
370
    50
100
AcDbLine
 10
89.7688573902
 20
161.2951324842
 30
0.0
 11
90.1089338757
 21
161.8019744051
 31
0.0
  0
LINE
  5
402
330
A
100
AcDbEntity
  8
1
  6
CONTINUOUS
370
    50
100
AcDbLine
 10
90.1089338757
 20
161.8019744051
 30
0.0
 11
90.3487984327
 21
162.4094452191
 31
0.0
  0
LINE
  5
403
330
A
100
AcDbEntity
  8
1
  6
CONTINUOUS
370
    50
100
AcDbLine
 10
90.3487984327
 20
162.4094452191
 30
0.0
 11
90.4624580148
 21
163.0517160377
 31
0.0
  0
LINE
  5
404
330
A
100
AcDbEntity
  8
1
  6
CONTINUOUS
370
    50
100
AcDbLine
 10
90.4624580148
 20
163.0517160377
 30
0.0
 11
90.4375958424
 21
163.6591868517
 31
0.0
  0
LINE
  5
405
330
A
100
AcDbEntity
  8
1
  6
CONTINUOUS
370
    50
100
AcDbLine
 10
90.4375958424
 20
163.6591868517
 30
0.0
 11
90.2769061178
 21
164.1660287726
 31
0.0
  0
LINE
  5
406
330
A
100
AcDbEntity
  8
1
  6
CONTINUOUS
370
    50
100
AcDbLine
 10
90.2769061178
 20
164.1660287726
 30
0.0
 11
89.997802066
 21
164.5173176138
 31
0.0
  0
LINE
  5
407
330
A
100
AcDbEntity
  8
1
  6
CONTINUOUS
370
    50
100
AcDbLine
 10
89.997802066
 20
164.5173176138
 30
0.0
 11
89.6305289418
 21
164.6749857786
 31
0.0
  0
LINE
  5
408
330
A
100
AcDbEntity
  8
1
  6
CONTINUOUS
370
    50
100
AcDbLine
 10
89.6305289418
 20
164.6749857786
 30
0.0
 11
89.2148864869
 21
164.6219474747
 31
0.0
  0
LINE
  5
409
330
A
100
AcDbEntity
  8
1
  6
CONTINUOUS
370
    50
100
AcDbLine
 10
89.2148864869
 20
164.6219474747
 30
0.0
 11
88.7959160108
 21
164.3639502256
 31
0.0
  0
LINE
  5
40A
330
A
100
AcDbEntity
  8
1
  6
CONTINUOUS
370
    50
100
AcDbLine
 10
88.7959160108
 20
164.3639502256
 30
0.0
 11
88.4190194655
 21
163.9289520362
 31
0.0
  0
LINE
  5
40B
330
A
100
AcDbEntity
  8
1
  6
CONTINUOUS
370
    50
100
AcDbLine
 10
88.4190194655
 20
163.9289520362
 30
0.0
 11
88.1250394398
 21
163.3640917101
 31
0.0
  0
LINE
  5
40C
330
A
100
AcDbEntity
  8
1
  6
CONTINUOUS
370
    50
100
AcDbLine
 10
88.1250394398
 20
163.3640917101
 30
0.0
 11
87.9458332311
 21
162.7305806284
 31
0.0
  0
LINE
  5
40D
330
A
100
AcDbEntity
  8
1
  6
CONTINUOUS
370
    50
100
AcDbLine
 10
46.3196260626
 20
176.9444361934
 30
0.0
 11
21.2849037375
 21
176.9444361934
 31
0.0
  0
LINE
  5
40E
330
A
100
AcDbEntity
  8
1
  6
CONTINUOUS
370
    50
100
AcDbLine
 10
21.2849037375
 20
160.9444361934
 30
0.0
 11
46.3196260626
 21
160.9444361934
 31
0.0
  0
LINE
  5
40F
330
A
100
AcDbEntity
  8
1
  6
CONTINUOUS
370
    50
100
AcDbLine
 10
46.3196260626
 20
176.9444361934
 30
0.0
 11
46.3196260626
 21
176.9171121375
 31
0.0
  0
LINE
  5
410
330
A
100
AcDbEntity
  8
1
  6
CONTINUOUS
370
    50
100
AcDbLine
 10
46.3196260626
 20
176.9171121375
 30
0.0
 11
46.3196260626
 21
160.9444361934
 31
0.0
  0
LINE
  5
411
330
A
100
AcDbEntity
  8
1
  6
CONTINUOUS
370
    50
100
AcDbLine
 10
118.6596260626
 20
160.9444361934
 30
0.0
 11
148.6596260626
 21
160.9444361934
 31
0.0
  0
LINE
  5
412
330
A
100
AcDbEntity
  8
1
  6
CONTINUOUS
370
    50
100
AcDbLine
 10
148.6596260626
 20
176.9444361934
 30
0.0
 11
118.6596260626
 21
176.9444361934
 31
0.0
  0
LINE
  5
413
330
A
100
AcDbEntity
  8
1
  6
CONTINUOUS
370
    50
100
AcDbLine
 10
118.6596260626
 20
160.9444361934
 30
0.0
 11
118.6596260626
 21
160.9717602493
 31
0.0
  0
LINE
  5
414
330
A
100
AcDbEntity
  8
1
  6
CONTINUOUS
370
    50
100
AcDbLine
 10
118.6596260626
 20
160.9717602493
 30
0.0
 11
118.6596260626
 21
176.9444361934
 31
0.0
  0
ENDSEC
  0
SECTION
  2
OBJECTS
  0
DICTIONARY
  5
19
330
0
100
AcDbDictionary
281
     1
  3
ACAD_GROUP
350
1A
  3
ACAD_LAYOUT
350
439
  3
ACAD_MATERIAL
350
44D
  3
ACAD_MLEADERSTYLE
350
455
  3
ACAD_MLINESTYLE
350
1B
  3
ACAD_SCALELIST
350
417
  3
ACAD_VISUALSTYLE
350
43C
  3
ACDB_RECOMPOSE_DATA
350
482
  3
AcDbVariableDictionary
350
453
  0
DICTIONARY
  5
459
330
7
100
AcDbDictionary
280
     1
281
     1
  3
ACAD_XREC_ROUNDTRIP
360
45A
  0
DICTIONARY
  5
1A
102
{ACAD_REACTORS
330
19
102
}
330
19
100
AcDbDictionary
281
     1
  0
DICTIONARY
  5
439
102
{ACAD_REACTORS
330
19
102
}
330
19
100
AcDbDictionary
281
     1
  3
Layout1
350
43B
  3
Model
350
43A
  0
DICTIONARY
  5
44D
102
{ACAD_REACTORS
330
19
102
}
330
19
100
AcDbDictionary
281
     1
  3
ByBlock
350
44F
  3
ByLayer
350
44E
  3
Global
350
450
  0
DICTIONARY
  5
455
102
{ACAD_REACTORS
330
19
102
}
330
19
100
AcDbDictionary
281
     1
  0
DICTIONARY
  5
1B
102
{ACAD_REACTORS
330
19
102
}
330
19
100
AcDbDictionary
281
     1
  3
STANDARD
350
1C
  0
DICTIONARY
  5
417
102
{ACAD_REACTORS
330
19
102
}
330
19
100
AcDbDictionary
281
     1
  3
A0
350
418
  3
A1
350
419
  3
A2
350
41A
  3
A3
350
41B
  3
A4
350
41C
  3
A5
350
41D
  3
A6
350
41E
  3
A7
350
41F
  3
A8
350
420
  3
A9
350
421
  3
B0
350
422
  3
B1
350
423
  3
B2
350
424
  3
B3
350
425
  3
B4
350
426
  3
B5
350
427
  3
B6
350
428
  3
B7
350
429
  3
B8
350
42A
  3
B9
350
42B
  3
C0
350
42C
  3
C1
350
42D
  3
C2
350
42E
  3
C3
350
42F
  3
C4
350
430
  3
C5
350
431
  3
C6
350
432
  3
C7
350
433
  3
C8
350
434
  3
C9
350
435
  3
D0
350
436
  3
D1
350
437
  3
D2
350
438
  0
DICTIONARY
  5
43C
102
{ACAD_REACTORS
330
19
102
}
330
19
100
AcDbDictionary
281
     1
  3
2dWireframe
350
441
  3
3D Hidden
350
443
  3
3dWireframe
350
442
  3
Basic
350
444
  3
Brighten
350
448
  3
ColorChange
350
44C
  3
Conceptual
350
446
  3
Dim
350
447
  3
Facepattern
350
44B
  3
Flat
350
43D
  3
FlatWithEdges
350
43E
  3
Gouraud
350
43F
  3
GouraudWithEdges
350
440
  3
Linepattern
350
44A
  3
Realistic
350
445
  3
Thicken
350
449
  0
XRECORD
  5
482
102
{ACAD_REACTORS
330
19
102
}
330
19
100
AcDbXrecord
280
     1
  0
DICTIONARY
  5
453
102
{ACAD_REACTORS
330
19
102
}
330
19
100
AcDbDictionary
281
     1
  3
CANNOSCALE
350
45B
  3
DIMASSOC
350
457
  3
HIDETEXT
350
458
  3
MSLTSCALE
350
456
  0
XRECORD
  5
45A
102
{ACAD_REACTORS
330
459
102
}
330
459
100
AcDbXrecord
280
     1
102
VTR_0.000_0.000_1.000_1.000_VISUALSTYLE
340
441
102
VTR_0.000_0.000_1.000_1.000_GRIDDISPLAY
 70
     3
102
VTR_0.000_0.000_1.000_1.000_GRIDMAJOR
 70
     5
102
VTR_0.000_0.000_1.000_1.000_DEFAULTLIGHTING
280
     1
102
VTR_0.000_0.000_1.000_1.000_DEFAULTLIGHTINGTYPE
 70
     1
102
VTR_0.000_0.000_1.000_1.000_BRIGHTNESS
141
0.0
102
VTR_0.000_0.000_1.000_1.000_CONTRAST
142
0.0
  0
LAYOUT
  5
43B
102
{ACAD_REACTORS
330
439
102
}
330
439
100
AcDbPlotSettings
  1

  2
none_device
  4

  6

 40
0.0
 41
0.0
 42
0.0
 43
0.0
 44
0.0
 45
0.0
 46
0.0
 47
0.0
 48
0.0
 49
0.0
140
0.0
141
0.0
142
1.0
143
1.0
 70
   688
 72
     0
 73
     0
 74
     5
  7

 75
    16
147
1.0
148
0.0
149
0.0
100
AcDbLayout
  1
Layout1
 70
     1
 71
     1
 10
0.0
 20
0.0
 11
12.0
 21
9.0
 12
0.0
 22
0.0
 32
0.0
 14
1.000000000000000E+20
 24
1.000000000000000E+20
 34
1.000000000000000E+20
 15
-1.000000000000000E+20
 25
-1.000000000000000E+20
 35
-1.000000000000000E+20
146
0.0
 13
0.0
 23
0.0
 33
0.0
 16
1.0
 26
0.0
 36
0.0
 17
0.0
 27
1.0
 37
0.0
 76
     0
330
B
  0
LAYOUT
  5
43A
102
{ACAD_REACTORS
330
439
102
}
330
439
100
AcDbPlotSettings
  1

  2
none_device
  4

  6

 40
0.0
 41
0.0
 42
0.0
 43
0.0
 44
0.0
 45
0.0
 46
0.0
 47
0.0
 48
0.0
 49
0.0
140
0.0
141
0.0
142
1.0
143
1.0
 70
  1712
 72
     0
 73
     0
 74
     0
  7

 75
     0
147
1.0
148
2667.54428576817
149
0.0
100
AcDbLayout
  1
Model
 70
     1
 71
     0
 10
0.0
 20
0.0
 11
0.0
 21
0.0
 12
0.0
 22
0.0
 32
0.0
 14
0.0
 24
0.0
 34
0.0
 15
210.0
 25
297.0
 35
0.0
146
0.0
 13
0.0
 23
0.0
 33
0.0
 16
1.0
 26
0.0
 36
0.0
 17
0.0
 27
1.0
 37
0.0
 76
     0
330
A
331
15
  0
MATERIAL
  5
44F
102
{ACAD_REACTORS
330
44D
102
}
102
{ACAD_XDICTIONARY
360
47E
102
}
330
44D
100
AcDbMaterial
  1
ByBlock
  0
MATERIAL
  5
44E
102
{ACAD_REACTORS
330
44D
102
}
102
{ACAD_XDICTIONARY
360
47C
102
}
330
44D
100
AcDbMaterial
  1
ByLayer
  0
MATERIAL
  5
450
102
{ACAD_REACTORS
330
44D
102
}
102
{ACAD_XDICTIONARY
360
480
102
}
330
44D
100
AcDbMaterial
  1
Global
  0
MLINESTYLE
  5
1C
102
{ACAD_REACTORS
330
1B
102
}
330
1B
100
AcDbMlineStyle
  2
STANDARD
 70
     0
  3

 62
     0
 51
90.0
 52
90.0
 71
     2
 49
0.5
 62
   256
  6
BYLAYER
 49
-0.5
 62
   256
  6
BYLAYER
  0
SCALE
  5
418
102
{ACAD_REACTORS
330
417
102
}
330
417
100
AcDbScale
 70
     0
300
1:1
140
1.0
141
1.0
290
     1
  0
SCALE
  5
419
102
{ACAD_REACTORS
330
417
102
}
330
417
100
AcDbScale
 70
     0
300
1:2
140
1.0
141
2.0
290
     0
  0
SCALE
  5
41A
102
{ACAD_REACTORS
330
417
102
}
330
417
100
AcDbScale
 70
     0
300
1:4
140
1.0
141
4.0
290
     0
  0
SCALE
  5
41B
102
{ACAD_REACTORS
330
417
102
}
330
417
100
AcDbScale
 70
     0
300
1:5
140
1.0
141
5.0
290
     0
  0
SCALE
  5
41C
102
{ACAD_REACTORS
330
417
102
}
330
417
100
AcDbScale
 70
     0
300
1:8
140
1.0
141
8.0
290
     0
  0
SCALE
  5
41D
102
{ACAD_REACTORS
330
417
102
}
330
417
100
AcDbScale
 70
     0
300
1:10
140
1.0
141
10.0
290
     0
  0
SCALE
  5
41E
102
{ACAD_REACTORS
330
417
102
}
330
417
100
AcDbScale
 70
     0
300
1:16
140
1.0
141
16.0
290
     0
  0
SCALE
  5
41F
102
{ACAD_REACTORS
330
417
102
}
330
417
100
AcDbScale
 70
     0
300
1:20
140
1.0
141
20.0
290
     0
  0
SCALE
  5
420
102
{ACAD_REACTORS
330
417
102
}
330
417
100
AcDbScale
 70
     0
300
1:30
140
1.0
141
30.0
290
     0
  0
SCALE
  5
421
102
{ACAD_REACTORS
330
417
102
}
330
417
100
AcDbScale
 70
     0
300
1:40
140
1.0
141
40.0
290
     0
  0
SCALE
  5
422
102
{ACAD_REACTORS
330
417
102
}
330
417
100
AcDbScale
 70
     0
300
1:50
140
1.0
141
50.0
290
     0
  0
SCALE
  5
423
102
{ACAD_REACTORS
330
417
102
}
330
417
100
AcDbScale
 70
     0
300
1:100
140
1.0
141
100.0
290
     0
  0
SCALE
  5
424
102
{ACAD_REACTORS
330
417
102
}
330
417
100
AcDbScale
 70
     0
300
2:1
140
2.0
141
1.0
290
     0
  0
SCALE
  5
425
102
{ACAD_REACTORS
330
417
102
}
330
417
100
AcDbScale
 70
     0
300
4:1
140
4.0
141
1.0
290
     0
  0
SCALE
  5
426
102
{ACAD_REACTORS
330
417
102
}
330
417
100
AcDbScale
 70
     0
300
8:1
140
8.0
141
1.0
290
     0
  0
SCALE
  5
427
102
{ACAD_REACTORS
330
417
102
}
330
417
100
AcDbScale
 70
     0
300
10:1
140
10.0
141
1.0
290
     0
  0
SCALE
  5
428
102
{ACAD_REACTORS
330
417
102
}
330
417
100
AcDbScale
 70
     0
300
100:1
140
100.0
141
1.0
290
     0
  0
SCALE
  5
429
102
{ACAD_REACTORS
330
417
102
}
330
417
100
AcDbScale
 70
     0
300
1/128" = 1'-0"
140
0.0078125
141
12.0
290
     0
  0
SCALE
  5
42A
102
{ACAD_REACTORS
330
417
102
}
330
417
100
AcDbScale
 70
     0
300
1/64" = 1'-0"
140
0.015625
141
12.0
290
     0
  0
SCALE
  5
42B
102
{ACAD_REACTORS
330
417
102
}
330
417
100
AcDbScale
 70
     0
300
1/32" = 1'-0"
140
0.03125
141
12.0
290
     0
  0
SCALE
  5
42C
102
{ACAD_REACTORS
330
417
102
}
330
417
100
AcDbScale
 70
     0
300
1/16" = 1'-0"
140
0.0625
141
12.0
290
     0
  0
SCALE
  5
42D
102
{ACAD_REACTORS
330
417
102
}
330
417
100
AcDbScale
 70
     0
300
3/32" = 1'-0"
140
0.09375
141
12.0
290
     0
  0
SCALE
  5
42E
102
{ACAD_REACTORS
330
417
102
}
330
417
100
AcDbScale
 70
     0
300
1/8" = 1'-0"
140
0.125
141
12.0
290
     0
  0
SCALE
  5
42F
102
{ACAD_REACTORS
330
417
102
}
330
417
100
AcDbScale
 70
     0
300
3/16" = 1'-0"
140
0.1875
141
12.0
290
     0
  0
SCALE
  5
430
102
{ACAD_REACTORS
330
417
102
}
330
417
100
AcDbScale
 70
     0
300
1/4" = 1'-0"
140
0.25
141
12.0
290
     0
  0
SCALE
  5
431
102
{ACAD_REACTORS
330
417
102
}
330
417
100
AcDbScale
 70
     0
300
3/8" = 1'-0"
140
0.375
141
12.0
290
     0
  0
SCALE
  5
432
102
{ACAD_REACTORS
330
417
102
}
330
417
100
AcDbScale
 70
     0
300
1/2" = 1'-0"
140
0.5
141
12.0
290
     0
  0
SCALE
  5
433
102
{ACAD_REACTORS
330
417
102
}
330
417
100
AcDbScale
 70
     0
300
3/4" = 1'-0"
140
0.75
141
12.0
290
     0
  0
SCALE
  5
434
102
{ACAD_REACTORS
330
417
102
}
330
417
100
AcDbScale
 70
     0
300
1" = 1'-0"
140
1.0
141
12.0
290
     0
  0
SCALE
  5
435
102
{ACAD_REACTORS
330
417
102
}
330
417
100
AcDbScale
 70
     0
300
1-1/2" = 1'-0"
140
1.5
141
12.0
290
     0
  0
SCALE
  5
436
102
{ACAD_REACTORS
330
417
102
}
330
417
100
AcDbScale
 70
     0
300
3" = 1'-0"
140
3.0
141
12.0
290
     0
  0
SCALE
  5
437
102
{ACAD_REACTORS
330
417
102
}
330
417
100
AcDbScale
 70
     0
300
6" = 1'-0"
140
6.0
141
12.0
290
     0
  0
SCALE
  5
438
102
{ACAD_REACTORS
330
417
102
}
330
417
100
AcDbScale
 70
     0
300
1'-0" = 1'-0"
140
12.0
141
12.0
290
     0
  0
VISUALSTYLE
  5
441
102
{ACAD_REACTORS
330
43C
102
}
102
{ACAD_XDICTIONARY
360
464
102
}
330
43C
100
AcDbVisualStyle
  2
2dWireframe
 70
     4
 71
     0
 72
     2
 73
     0
 90
        0
 40
-0.6
 41
-30.0
 62
     5
 63
     7
 74
     1
 91
        4
 64
     7
 65
   257
 75
     1
175
     1
 42
1.0
 92
        0
 66
   257
 43
1.0
 76
     1
 77
     6
 78
     2
 67
     7
 79
     5
170
     0
171
     0
290
     0
174
     0
 93
        1
 44
0.0
173
     0
291
     0
 45
0.0
1001
ACAD
1000
AcDbSavedByObjectVersion
1070
     0
  0
VISUALSTYLE
  5
443
102
{ACAD_REACTORS
330
43C
102
}
102
{ACAD_XDICTIONARY
360
468
102
}
330
43C
100
AcDbVisualStyle
  2
3D Hidden
 70
     6
 71
     1
 72
     2
 73
     2
 90
        0
 40
-0.6
 41
-30.0
 62
     5
 63
     7
 74
     2
 91
        2
 64
     7
 65
   257
 75
     2
175
     1
 42
40.0
 92
        0
 66
   257
 43
1.0
 76
     1
 77
     6
 78
     2
 67
     7
 79
     3
170
     0
171
     0
290
     0
174
     0
 93
        1
 44
0.0
173
     0
291
     0
 45
0.0
1001
ACAD
1000
AcDbSavedByObjectVersion
1070
     0
  0
VISUALSTYLE
  5
442
102
{ACAD_REACTORS
330
43C
102
}
102
{ACAD_XDICTIONARY
360
466
102
}
330
43C
100
AcDbVisualStyle
  2
3dWireframe
 70
     5
 71
     0
 72
     2
 73
     0
 90
        0
 40
-0.6
 41
-30.0
 62
     5
 63
     7
 74
     1
 91
        4
 64
     7
 65
   257
 75
     1
175
     1
 42
1.0
 92
        0
 66
   257
 43
1.0
 76
     1
 77
     6
 78
     2
 67
     7
 79
     5
170
     0
171
     0
290
     0
174
     0
 93
        1
 44
0.0
173
     0
291
     0
 45
0.0
1001
ACAD
1000
AcDbSavedByObjectVersion
1070
     0
  0
VISUALSTYLE
  5
444
102
{ACAD_REACTORS
330
43C
102
}
102
{ACAD_XDICTIONARY
360
46A
102
}
330
43C
100
AcDbVisualStyle
  2
Basic
 70
     7
 71
     1
 72
     0
 73
     1
 90
        0
 40
-0.6
 41
-30.0
 62
     5
 63
     7
 74
     0
 91
        4
 64
     7
 65
   257
 75
     1
175
     1
 42
1.0
 92
        8
 66
     7
 43
1.0
 76
     1
 77
     6
 78
     2
 67
     7
 79
     5
170
     0
171
     0
290
     0
174
     0
 93
        1
 44
0.0
173
     0
291
     1
 45
0.0
1001
ACAD
1000
AcDbSavedByObjectVersion
1070
     0
  0
VISUALSTYLE
  5
448
102
{ACAD_REACTORS
330
43C
102
}
102
{ACAD_XDICTIONARY
360
472
102
}
330
43C
100
AcDbVisualStyle
  2
Brighten
 70
    12
 71
     2
 72
     2
 73
     0
 90
        0
 40
-0.6
 41
-30.0
 62
     5
 63
     7
 74
     1
 91
        4
 64
     7
 65
   257
 75
     1
175
     1
 42
1.0
 92
        8
 66
     7
 43
1.0
 76
     1
 77
     6
 78
     2
 67
     7
 79
     5
170
     0
171
     0
290
     0
174
     0
 93
        1
 44
50.0
173
     0
291
     1
 45
0.0
1001
ACAD
1000
AcDbSavedByObjectVersion
1070
     0
  0
VISUALSTYLE
  5
44C
102
{ACAD_REACTORS
330
43C
102
}
102
{ACAD_XDICTIONARY
360
47A
102
}
330
43C
100
AcDbVisualStyle
  2
ColorChange
 70
    16
 71
     2
 72
     2
 73
     3
 90
        0
 40
-0.6
 41
-30.0
 62
     5
 63
     8
 74
     1
 91
        4
 64
     7
 65
   257
 75
     1
175
     1
 42
1.0
 92
        8
 66
     8
 43
1.0
 76
     1
 77
     6
 78
     2
 67
     7
 79
     5
170
     0
171
     0
290
     0
174
     0
 93
        1
 44
0.0
173
     0
291
     1
 45
0.0
1001
ACAD
1000
AcDbSavedByObjectVersion
1070
     0
  0
VISUALSTYLE
  5
446
102
{ACAD_REACTORS
330
43C
102
}
102
{ACAD_XDICTIONARY
360
46E
102
}
330
43C
100
AcDbVisualStyle
  2
Conceptual
 70
     9
 71
     3
 72
     2
 73
     0
 90
        0
 40
-0.6
 41
-30.0
 62
     5
 63
     7
 74
     2
 91
        2
 64
     7
 65
   257
 75
     1
175
     1
 42
40.0
 92
        8
 66
     7
 43
1.0
 76
     1
 77
     6
 78
     2
 67
     7
 79
     3
170
     0
171
     0
290
     0
174
     0
 93
        1
 44
0.0
173
     0
291
     0
 45
0.0
1001
ACAD
1000
AcDbSavedByObjectVersion
1070
     0
  0
VISUALSTYLE
  5
447
102
{ACAD_REACTORS
330
43C
102
}
102
{ACAD_XDICTIONARY
360
470
102
}
330
43C
100
AcDbVisualStyle
  2
Dim
 70
    11
 71
     2
 72
     2
 73
     0
 90
        0
 40
-0.6
 41
-30.0
 62
     5
 63
     7
 74
     1
 91
        4
 64
     7
 65
   257
 75
     1
175
     1
 42
1.0
 92
        8
 66
     7
 43
1.0
 76
     1
 77
     6
 78
     2
 67
     7
 79
     5
170
     0
171
     0
290
     0
174
     0
 93
        1
 44
-50.0
173
     0
291
     1
 45
0.0
1001
ACAD
1000
AcDbSavedByObjectVersion
1070
     0
  0
VISUALSTYLE
  5
44B
102
{ACAD_REACTORS
330
43C
102
}
102
{ACAD_XDICTIONARY
360
478
102
}
330
43C
100
AcDbVisualStyle
  2
Facepattern
 70
    15
 71
     2
 72
     2
 73
     0
 90
        0
 40
-0.6
 41
-30.0
 62
     5
 63
     7
 74
     1
 91
        4
 64
     7
 65
   257
 75
     1
175
     1
 42
1.0
 92
        8
 66
     7
 43
1.0
 76
     1
 77
     6
 78
     2
 67
     7
 79
     5
170
     0
171
     0
290
     0
174
     0
 93
        1
 44
0.0
173
     0
291
     1
 45
0.0
1001
ACAD
1000
AcDbSavedByObjectVersion
1070
     0
  0
VISUALSTYLE
  5
43D
102
{ACAD_REACTORS
330
43C
102
}
102
{ACAD_XDICTIONARY
360
45C
102
}
330
43C
100
AcDbVisualStyle
  2
Flat
 70
     0
 71
     2
 72
     1
 73
     1
 90
        2
 40
-0.6
 41
30.0
 62
     5
 63
     7
 74
     0
 91
        4
 64
     7
 65
   257
 75
     1
175
     1
 42
1.0
 92
        8
 66
     7
 43
1.0
 76
     1
 77
     6
 78
     2
 67
     7
 79
     5
170
     0
171
     0
290
     0
174
     0
 93
       13
 44
0.0
173
     0
291
     1
 45
0.0
1001
ACAD
1000
AcDbSavedByObjectVersion
1070
     0
  0
VISUALSTYLE
  5
43E
102
{ACAD_REACTORS
330
43C
102
}
102
{ACAD_XDICTIONARY
360
45E
102
}
330
43C
100
AcDbVisualStyle
  2
FlatWithEdges
 70
     1
 71
     2
 72
     1
 73
     1
 90
        2
 40
-0.6
 41
30.0
 62
     5
 63
     7
 74
     1
 91
        4
 64
     7
 65
   257
 75
     1
175
     1
 42
1.0
 92
        0
 66
   257
 43
1.0
 76
     1
 77
     6
 78
     2
 67
     7
 79
     5
170
     0
171
     0
290
     0
174
     0
 93
       13
 44
0.0
173
     0
291
     1
 45
0.0
1001
ACAD
1000
AcDbSavedByObjectVersion
1070
     0
  0
VISUALSTYLE
  5
43F
102
{ACAD_REACTORS
330
43C
102
}
102
{ACAD_XDICTIONARY
360
460
102
}
330
43C
100
AcDbVisualStyle
  2
Gouraud
 70
     2
 71
     2
 72
     2
 73
     1
 90
        2
 40
-0.6
 41
30.0
 62
     5
 63
     7
 74
     0
 91
        4
 64
     7
 65
   257
 75
     1
175
     1
 42
1.0
 92
        0
 66
     7
 43
1.0
 76
     1
 77
     6
 78
     2
 67
     7
 79
     5
170
     0
171
     0
290
     0
174
     0
 93
       13
 44
0.0
173
     0
291
     1
 45
0.0
1001
ACAD
1000
AcDbSavedByObjectVersion
1070
     0
  0
VISUALSTYLE
  5
440
102
{ACAD_REACTORS
330
43C
102
}
102
{ACAD_XDICTIONARY
360
462
102
}
330
43C
100
AcDbVisualStyle
  2
GouraudWithEdges
 70
     3
 71
     2
 72
     2
 73
     1
 90
        2
 40
-0.6
 41
30.0
 62
     5
 63
     7
 74
     1
 91
        4
 64
     7
 65
   257
 75
     1
175
     1
 42
1.0
 92
        0
 66
   257
 43
1.0
 76
     1
 77
     6
 78
     2
 67
     7
 79
     5
170
     0
171
     0
290
     0
174
     0
 93
       13
 44
0.0
173
     0
291
     1
 45
0.0
1001
ACAD
1000
AcDbSavedByObjectVersion
1070
     0
  0
VISUALSTYLE
  5
44A
102
{ACAD_REACTORS
330
43C
102
}
102
{ACAD_XDICTIONARY
360
476
102
}
330
43C
100
AcDbVisualStyle
  2
Linepattern
 70
    14
 71
     2
 72
     2
 73
     0
 90
        0
 40
-0.6
 41
-30.0
 62
     5
 63
     7
 74
     1
 91
        4
 64
     7
 65
   257
 75
     7
175
     7
 42
1.0
 92
        8
 66
     7
 43
1.0
 76
     1
 77
     6
 78
     2
 67
     7
 79
     5
170
     0
171
     0
290
     0
174
     0
 93
        1
 44
0.0
173
     0
291
     1
 45
0.0
1001
ACAD
1000
AcDbSavedByObjectVersion
1070
     0
  0
VISUALSTYLE
  5
445
102
{ACAD_REACTORS
330
43C
102
}
102
{ACAD_XDICTIONARY
360
46C
102
}
330
43C
100
AcDbVisualStyle
  2
Realistic
 70
     8
 71
     2
 72
     2
 73
     0
 90
        0
 40
-0.6
 41
-30.0
 62
     5
 63
     7
 74
     1
 91
        0
 64
     7
 65
   257
 75
     1
175
     1
 42
1.0
 92
        8
 66
     8
 43
1.0
 76
     1
 77
     6
 78
     2
 67
     7
 79
     5
170
     0
171
     0
290
     0
174
     0
 93
       13
 44
0.0
173
     0
291
     0
 45
0.0
1001
ACAD
1000
AcDbSavedByObjectVersion
1070
     0
  0
VISUALSTYLE
  5
449
102
{ACAD_REACTORS
330
43C
102
}
102
{ACAD_XDICTIONARY
360
474
102
}
330
43C
100
AcDbVisualStyle
  2
Thicken
 70
    13
 71
     2
 72
     2
 73
     0
 90
        0
 40
-0.6
 41
-30.0
 62
     5
 63
     7
 74
     1
 91
        4
 64
     7
 65
   257
 75
     1
175
     1
 42
1.0
 92
       12
 66
     7
 43
1.0
 76
     1
 77
     6
 78
     2
 67
     7
 79
     5
170
     0
171
     0
290
     0
174
     0
 93
        1
 44
0.0
173
     0
291
     1
 45
0.0
1001
ACAD
1000
AcDbSavedByObjectVersion
1070
     0
  0
DICTIONARYVAR
  5
45B
102
{ACAD_REACTORS
330
453
102
}
330
453
100
DictionaryVariables
280
     0
  1
1:1
  0
DICTIONARYVAR
  5
457
102
{ACAD_REACTORS
330
453
102
}
330
453
100
DictionaryVariables
280
     0
  1
2
  0
DICTIONARYVAR
  5
458
102
{ACAD_REACTORS
330
453
102
}
330
453
100
DictionaryVariables
280
     0
  1
1
  0
DICTIONARYVAR
  5
456
102
{ACAD_REACTORS
330
453
102
}
330
453
100
DictionaryVariables
280
     0
  1
0
  0
DICTIONARY
  5
47E
330
44F
100
AcDbDictionary
280
     1
281
     1
  3
ACAD_XREC_ROUNDTRIP
360
47F
  0
DICTIONARY
  5
47C
330
44E
100
AcDbDictionary
280
     1
281
     1
  3
ACAD_XREC_ROUNDTRIP
360
47D
  0
DICTIONARY
  5
480
330
450
100
AcDbDictionary
280
     1
281
     1
  3
ACAD_XREC_ROUNDTRIP
360
481
  0
DICTIONARY
  5
464
330
441
100
AcDbDictionary
280
     1
281
     1
  3
ACAD_XREC_ROUNDTRIP
360
465
  0
DICTIONARY
  5
468
330
443
100
AcDbDictionary
280
     1
281
     1
  3
ACAD_XREC_ROUNDTRIP
360
469
  0
DICTIONARY
  5
466
330
442
100
AcDbDictionary
280
     1
281
     1
  3
ACAD_XREC_ROUNDTRIP
360
467
  0
DICTIONARY
  5
46A
330
444
100
AcDbDictionary
280
     1
281
     1
  3
ACAD_XREC_ROUNDTRIP
360
46B
  0
DICTIONARY
  5
472
330
448
100
AcDbDictionary
280
     1
281
     1
  3
ACAD_XREC_ROUNDTRIP
360
473
  0
DICTIONARY
  5
47A
330
44C
100
AcDbDictionary
280
     1
281
     1
  3
ACAD_XREC_ROUNDTRIP
360
47B
  0
DICTIONARY
  5
46E
330
446
100
AcDbDictionary
280
     1
281
     1
  3
ACAD_XREC_ROUNDTRIP
360
46F
  0
DICTIONARY
  5
470
330
447
100
AcDbDictionary
280
     1
281
     1
  3
ACAD_XREC_ROUNDTRIP
360
471
  0
DICTIONARY
  5
478
330
44B
100
AcDbDictionary
280
     1
281
     1
  3
ACAD_XREC_ROUNDTRIP
360
479
  0
DICTIONARY
  5
45C
330
43D
100
AcDbDictionary
280
     1
281
     1
  3
ACAD_XREC_ROUNDTRIP
360
45D
  0
DICTIONARY
  5
45E
330
43E
100
AcDbDictionary
280
     1
281
     1
  3
ACAD_XREC_ROUNDTRIP
360
45F
  0
DICTIONARY
  5
460
330
43F
100
AcDbDictionary
280
     1
281
     1
  3
ACAD_XREC_ROUNDTRIP
360
461
  0
DICTIONARY
  5
462
330
440
100
AcDbDictionary
280
     1
281
     1
  3
ACAD_XREC_ROUNDTRIP
360
463
  0
DICTIONARY
  5
476
330
44A
100
AcDbDictionary
280
     1
281
     1
  3
ACAD_XREC_ROUNDTRIP
360
477
  0
DICTIONARY
  5
46C
330
445
100
AcDbDictionary
280
     1
281
     1
  3
ACAD_XREC_ROUNDTRIP
360
46D
  0
DICTIONARY
  5
474
330
449
100
AcDbDictionary
280
     1
281
     1
  3
ACAD_XREC_ROUNDTRIP
360
475
  0
XRECORD
  5
47F
102
{ACAD_REACTORS
330
47E
102
}
330
47E
100
AcDbXrecord
280
     1
102
MATERIAL
148
0.0
149
0.0
149
0.0
 93
        0
 94
      127
282
     0
 72
     1
 77
     1
171
     1
175
     1
179
     1
273
     0
  0
XRECORD
  5
47D
102
{ACAD_REACTORS
330
47C
102
}
330
47C
100
AcDbXrecord
280
     1
102
MATERIAL
148
0.0
149
0.0
149
0.0
 93
        0
 94
      127
282
     0
 72
     1
 77
     1
171
     1
175
     1
179
     1
273
     0
  0
XRECORD
  5
481
102
{ACAD_REACTORS
330
480
102
}
330
480
100
AcDbXrecord
280
     1
102
MATERIAL
148
0.0
149
0.0
149
0.0
 93
        0
 94
      127
282
     0
 72
     1
 77
     1
171
     1
175
     1
179
     1
273
     0
  0
XRECORD
  5
465
102
{ACAD_REACTORS
330
464
102
}
330
464
100
AcDbXrecord
280
     1
102
RTVSPropertyOp0
 70
     1
102
RTVSPropertyOp1
 70
     1
102
RTVSPropertyOp2
 70
     1
102
RTVSPropertyOp3
 70
     1
102
RTVSPropertyOp4
 70
     1
102
RTVSPropertyOp5
 70
     1
102
RTVSPropertyOp6
 70
     1
102
RTVSPropertyOp7
 70
     1
102
RTVSPropertyOp8
 70
     1
102
RTVSPropertyOp9
 70
     1
102
RTVSPropertyOp10
 70
     1
102
RTVSPropertyOp11
 70
     1
102
RTVSPropertyOp12
 70
     1
102
RTVSPropertyOp13
 70
     1
102
RTVSPropertyOp14
 70
     1
102
RTVSPropertyOp15
 70
     1
102
RTVSPropertyOp16
 70
     1
102
RTVSPropertyOp17
 70
     1
102
RTVSPropertyOp18
 70
     1
102
RTVSPropertyOp19
 70
     1
102
RTVSPropertyOp20
 70
     1
102
RTVSPropertyOp21
 70
     1
102
RTVSPropertyOp22
 70
     1
102
RTVSPropertyOp23
 70
     1
102
RTVSPropertyOp24
 70
     1
102
RTVSPropertyOp25
 70
     1
102
RTVSPropertyOp26
 70
     1
102
RTVSPropertyOp27
 70
     1
102
RTVSPropertyOp28
 70
     1
102
RTVSPropertyOp29
 70
     1
102
RTVSPropertyOp30
 70
     1
102
RTVSPropertyOp31
 70
     1
102
RTVSPropertyOp32
 70
     1
  0
XRECORD
  5
469
102
{ACAD_REACTORS
330
468
102
}
330
468
100
AcDbXrecord
280
     1
102
RTVSPropertyOp0
 70
     1
102
RTVSPropertyOp1
 70
     1
102
RTVSPropertyOp2
 70
     1
102
RTVSPropertyOp3
 70
     1
102
RTVSPropertyOp4
 70
     1
102
RTVSPropertyOp5
 70
     1
102
RTVSPropertyOp6
 70
     1
102
RTVSPropertyOp7
 70
     1
102
RTVSPropertyOp8
 70
     1
102
RTVSPropertyOp9
 70
     1
102
RTVSPropertyOp10
 70
     1
102
RTVSPropertyOp11
 70
     1
102
RTVSPropertyOp12
 70
     1
102
RTVSPropertyOp13
 70
     1
102
RTVSPropertyOp14
 70
     1
102
RTVSPropertyOp15
 70
     1
102
RTVSPropertyOp16
 70
     1
102
RTVSPropertyOp17
 70
     1
102
RTVSPropertyOp18
 70
     1
102
RTVSPropertyOp19
 70
     1
102
RTVSPropertyOp20
 70
     1
102
RTVSPropertyOp21
 70
     1
102
RTVSPropertyOp22
 70
     1
102
RTVSPropertyOp23
 70
     1
102
RTVSPropertyOp24
 70
     1
102
RTVSPropertyOp25
 70
     1
102
RTVSPropertyOp26
 70
     1
102
RTVSPropertyOp27
 70
     1
102
RTVSPropertyOp28
 70
     1
102
RTVSPropertyOp29
 70
     1
102
RTVSPropertyOp30
 70
     1
102
RTVSPropertyOp31
 70
     1
102
RTVSPropertyOp32
 70
     1
  0
XRECORD
  5
467
102
{ACAD_REACTORS
330
466
102
}
330
466
100
AcDbXrecord
280
     1
102
RTVSPropertyOp0
 70
     1
102
RTVSPropertyOp1
 70
     1
102
RTVSPropertyOp2
 70
     1
102
RTVSPropertyOp3
 70
     1
102
RTVSPropertyOp4
 70
     1
102
RTVSPropertyOp5
 70
     1
102
RTVSPropertyOp6
 70
     1
102
RTVSPropertyOp7
 70
     1
102
RTVSPropertyOp8
 70
     1
102
RTVSPropertyOp9
 70
     1
102
RTVSPropertyOp10
 70
     1
102
RTVSPropertyOp11
 70
     1
102
RTVSPropertyOp12
 70
     1
102
RTVSPropertyOp13
 70
     1
102
RTVSPropertyOp14
 70
     1
102
RTVSPropertyOp15
 70
     1
102
RTVSPropertyOp16
 70
     1
102
RTVSPropertyOp17
 70
     1
102
RTVSPropertyOp18
 70
     1
102
RTVSPropertyOp19
 70
     1
102
RTVSPropertyOp20
 70
     1
102
RTVSPropertyOp21
 70
     1
102
RTVSPropertyOp22
 70
     1
102
RTVSPropertyOp23
 70
     1
102
RTVSPropertyOp24
 70
     1
102
RTVSPropertyOp25
 70
     1
102
RTVSPropertyOp26
 70
     1
102
RTVSPropertyOp27
 70
     1
102
RTVSPropertyOp28
 70
     1
102
RTVSPropertyOp29
 70
     1
102
RTVSPropertyOp30
 70
     1
102
RTVSPropertyOp31
 70
     1
102
RTVSPropertyOp32
 70
     1
  0
XRECORD
  5
46B
102
{ACAD_REACTORS
330
46A
102
}
330
46A
100
AcDbXrecord
280
     1
102
RTVSPropertyOp0
 70
     1
102
RTVSPropertyOp1
 70
     1
102
RTVSPropertyOp2
 70
     1
102
RTVSPropertyOp3
 70
     1
102
RTVSPropertyOp4
 70
     1
102
RTVSPropertyOp5
 70
     1
102
RTVSPropertyOp6
 70
     1
102
RTVSPropertyOp7
 70
     1
102
RTVSPropertyOp8
 70
     1
102
RTVSPropertyOp9
 70
     1
102
RTVSPropertyOp10
 70
     1
102
RTVSPropertyOp11
 70
     1
102
RTVSPropertyOp12
 70
     1
102
RTVSPropertyOp13
 70
     1
102
RTVSPropertyOp14
 70
     1
102
RTVSPropertyOp15
 70
     1
102
RTVSPropertyOp16
 70
     1
102
RTVSPropertyOp17
 70
     1
102
RTVSPropertyOp18
 70
     1
102
RTVSPropertyOp19
 70
     1
102
RTVSPropertyOp20
 70
     1
102
RTVSPropertyOp21
 70
     1
102
RTVSPropertyOp22
 70
     1
102
RTVSPropertyOp23
 70
     1
102
RTVSPropertyOp24
 70
     1
102
RTVSPropertyOp25
 70
     1
102
RTVSPropertyOp26
 70
     1
102
RTVSPropertyOp27
 70
     1
102
RTVSPropertyOp28
 70
     1
102
RTVSPropertyOp29
 70
     1
102
RTVSPropertyOp30
 70
     1
102
RTVSPropertyOp31
 70
     1
102
RTVSPropertyOp32
 70
     1
  0
XRECORD
  5
473
102
{ACAD_REACTORS
330
472
102
}
330
472
100
AcDbXrecord
280
     1
102
RTVSPropertyOp0
 70
     1
102
RTVSPropertyOp1
 70
     1
102
RTVSPropertyOp2
 70
     1
102
RTVSPropertyOp3
 70
     1
102
RTVSPropertyOp4
 70
     1
102
RTVSPropertyOp5
 70
     1
102
RTVSPropertyOp6
 70
     1
102
RTVSPropertyOp7
 70
     1
102
RTVSPropertyOp8
 70
     1
102
RTVSPropertyOp9
 70
     1
102
RTVSPropertyOp10
 70
     1
102
RTVSPropertyOp11
 70
     1
102
RTVSPropertyOp12
 70
     1
102
RTVSPropertyOp13
 70
     1
102
RTVSPropertyOp14
 70
     1
102
RTVSPropertyOp15
 70
     1
102
RTVSPropertyOp16
 70
     1
102
RTVSPropertyOp17
 70
     1
102
RTVSPropertyOp18
 70
     1
102
RTVSPropertyOp19
 70
     1
102
RTVSPropertyOp20
 70
     1
102
RTVSPropertyOp21
 70
     1
102
RTVSPropertyOp22
 70
     1
102
RTVSPropertyOp23
 70
     1
102
RTVSPropertyOp24
 70
     1
102
RTVSPropertyOp25
 70
     1
102
RTVSPropertyOp26
 70
     1
102
RTVSPropertyOp27
 70
     1
102
RTVSPropertyOp28
 70
     1
102
RTVSPropertyOp29
 70
     1
102
RTVSPropertyOp30
 70
     1
102
RTVSPropertyOp31
 70
     1
102
RTVSPropertyOp32
 70
     1
  0
XRECORD
  5
47B
102
{ACAD_REACTORS
330
47A
102
}
330
47A
100
AcDbXrecord
280
     1
102
RTVSPropertyOp0
 70
     1
102
RTVSPropertyOp1
 70
     1
102
RTVSPropertyOp2
 70
     1
102
RTVSPropertyOp3
 70
     1
102
RTVSPropertyOp4
 70
     1
102
RTVSPropertyOp5
 70
     1
102
RTVSPropertyOp6
 70
     1
102
RTVSPropertyOp7
 70
     1
102
RTVSPropertyOp8
 70
     1
102
RTVSPropertyOp9
 70
     1
102
RTVSPropertyOp10
 70
     1
102
RTVSPropertyOp11
 70
     1
102
RTVSPropertyOp12
 70
     1
102
RTVSPropertyOp13
 70
     1
102
RTVSPropertyOp14
 70
     1
102
RTVSPropertyOp15
 70
     1
102
RTVSPropertyOp16
 70
     1
102
RTVSPropertyOp17
 70
     1
102
RTVSPropertyOp18
 70
     1
102
RTVSPropertyOp19
 70
     1
102
RTVSPropertyOp20
 70
     1
102
RTVSPropertyOp21
 70
     1
102
RTVSPropertyOp22
 70
     1
102
RTVSPropertyOp23
 70
     1
102
RTVSPropertyOp24
 70
     1
102
RTVSPropertyOp25
 70
     1
102
RTVSPropertyOp26
 70
     1
102
RTVSPropertyOp27
 70
     1
102
RTVSPropertyOp28
 70
     1
102
RTVSPropertyOp29
 70
     1
102
RTVSPropertyOp30
 70
     1
102
RTVSPropertyOp31
 70
     1
102
RTVSPropertyOp32
 70
     1
  0
XRECORD
  5
46F
102
{ACAD_REACTORS
330
46E
102
}
330
46E
100
AcDbXrecord
280
     1
102
RTVSPropertyOp0
 70
     1
102
RTVSPropertyOp1
 70
     1
102
RTVSPropertyOp2
 70
     1
102
RTVSPropertyOp3
 70
     1
102
RTVSPropertyOp4
 70
     1
102
RTVSPropertyOp5
 70
     1
102
RTVSPropertyOp6
 70
     1
102
RTVSPropertyOp7
 70
     1
102
RTVSPropertyOp8
 70
     1
102
RTVSPropertyOp9
 70
     1
102
RTVSPropertyOp10
 70
     1
102
RTVSPropertyOp11
 70
     1
102
RTVSPropertyOp12
 70
     1
102
RTVSPropertyOp13
 70
     1
102
RTVSPropertyOp14
 70
     1
102
RTVSPropertyOp15
 70
     1
102
RTVSPropertyOp16
 70
     1
102
RTVSPropertyOp17
 70
     1
102
RTVSPropertyOp18
 70
     1
102
RTVSPropertyOp19
 70
     1
102
RTVSPropertyOp20
 70
     1
102
RTVSPropertyOp21
 70
     1
102
RTVSPropertyOp22
 70
     1
102
RTVSPropertyOp23
 70
     1
102
RTVSPropertyOp24
 70
     1
102
RTVSPropertyOp25
 70
     1
102
RTVSPropertyOp26
 70
     1
102
RTVSPropertyOp27
 70
     1
102
RTVSPropertyOp28
 70
     1
102
RTVSPropertyOp29
 70
     1
102
RTVSPropertyOp30
 70
     1
102
RTVSPropertyOp31
 70
     1
102
RTVSPropertyOp32
 70
     1
  0
XRECORD
  5
471
102
{ACAD_REACTORS
330
470
102
}
330
470
100
AcDbXrecord
280
     1
102
RTVSPropertyOp0
 70
     1
102
RTVSPropertyOp1
 70
     1
102
RTVSPropertyOp2
 70
     1
102
RTVSPropertyOp3
 70
     1
102
RTVSPropertyOp4
 70
     1
102
RTVSPropertyOp5
 70
     1
102
RTVSPropertyOp6
 70
     1
102
RTVSPropertyOp7
 70
     1
102
RTVSPropertyOp8
 70
     1
102
RTVSPropertyOp9
 70
     1
102
RTVSPropertyOp10
 70
     1
102
RTVSPropertyOp11
 70
     1
102
RTVSPropertyOp12
 70
     1
102
RTVSPropertyOp13
 70
     1
102
RTVSPropertyOp14
 70
     1
102
RTVSPropertyOp15
 70
     1
102
RTVSPropertyOp16
 70
     1
102
RTVSPropertyOp17
 70
     1
102
RTVSPropertyOp18
 70
     1
102
RTVSPropertyOp19
 70
     1
102
RTVSPropertyOp20
 70
     1
102
RTVSPropertyOp21
 70
     1
102
RTVSPropertyOp22
 70
     1
102
RTVSPropertyOp23
 70
     1
102
RTVSPropertyOp24
 70
     1
102
RTVSPropertyOp25
 70
     1
102
RTVSPropertyOp26
 70
     1
102
RTVSPropertyOp27
 70
     1
102
RTVSPropertyOp28
 70
     1
102
RTVSPropertyOp29
 70
     1
102
RTVSPropertyOp30
 70
     1
102
RTVSPropertyOp31
 70
     1
102
RTVSPropertyOp32
 70
     1
  0
XRECORD
  5
479
102
{ACAD_REACTORS
330
478
102
}
330
478
100
AcDbXrecord
280
     1
102
RTVSPropertyOp0
 70
     1
102
RTVSPropertyOp1
 70
     1
102
RTVSPropertyOp2
 70
     1
102
RTVSPropertyOp3
 70
     1
102
RTVSPropertyOp4
 70
     1
102
RTVSPropertyOp5
 70
     1
102
RTVSPropertyOp6
 70
     1
102
RTVSPropertyOp7
 70
     1
102
RTVSPropertyOp8
 70
     1
102
RTVSPropertyOp9
 70
     1
102
RTVSPropertyOp10
 70
     1
102
RTVSPropertyOp11
 70
     1
102
RTVSPropertyOp12
 70
     1
102
RTVSPropertyOp13
 70
     1
102
RTVSPropertyOp14
 70
     1
102
RTVSPropertyOp15
 70
     1
102
RTVSPropertyOp16
 70
     1
102
RTVSPropertyOp17
 70
     1
102
RTVSPropertyOp18
 70
     1
102
RTVSPropertyOp19
 70
     1
102
RTVSPropertyOp20
 70
     1
102
RTVSPropertyOp21
 70
     1
102
RTVSPropertyOp22
 70
     1
102
RTVSPropertyOp23
 70
     1
102
RTVSPropertyOp24
 70
     1
102
RTVSPropertyOp25
 70
     1
102
RTVSPropertyOp26
 70
     1
102
RTVSPropertyOp27
 70
     1
102
RTVSPropertyOp28
 70
     1
102
RTVSPropertyOp29
 70
     1
102
RTVSPropertyOp30
 70
     1
102
RTVSPropertyOp31
 70
     1
102
RTVSPropertyOp32
 70
     1
  0
XRECORD
  5
45D
102
{ACAD_REACTORS
330
45C
102
}
330
45C
100
AcDbXrecord
280
     1
102
RTVSPropertyOp0
 70
     1
102
RTVSPropertyOp1
 70
     1
102
RTVSPropertyOp2
 70
     1
102
RTVSPropertyOp3
 70
     1
102
RTVSPropertyOp4
 70
     1
102
RTVSPropertyOp5
 70
     1
102
RTVSPropertyOp6
 70
     1
102
RTVSPropertyOp7
 70
     1
102
RTVSPropertyOp8
 70
     1
102
RTVSPropertyOp9
 70
     1
102
RTVSPropertyOp10
 70
     1
102
RTVSPropertyOp11
 70
     1
102
RTVSPropertyOp12
 70
     1
102
RTVSPropertyOp13
 70
     1
102
RTVSPropertyOp14
 70
     1
102
RTVSPropertyOp15
 70
     1
102
RTVSPropertyOp16
 70
     1
102
RTVSPropertyOp17
 70
     1
102
RTVSPropertyOp18
 70
     1
102
RTVSPropertyOp19
 70
     1
102
RTVSPropertyOp20
 70
     1
102
RTVSPropertyOp21
 70
     1
102
RTVSPropertyOp22
 70
     1
102
RTVSPropertyOp23
 70
     1
102
RTVSPropertyOp24
 70
     1
102
RTVSPropertyOp25
 70
     1
102
RTVSPropertyOp26
 70
     1
102
RTVSPropertyOp27
 70
     1
102
RTVSPropertyOp28
 70
     1
102
RTVSPropertyOp29
 70
     1
102
RTVSPropertyOp30
 70
     1
102
RTVSPropertyOp31
 70
     1
102
RTVSPropertyOp32
 70
     1
  0
XRECORD
  5
45F
102
{ACAD_REACTORS
330
45E
102
}
330
45E
100
AcDbXrecord
280
     1
102
RTVSPropertyOp0
 70
     1
102
RTVSPropertyOp1
 70
     1
102
RTVSPropertyOp2
 70
     1
102
RTVSPropertyOp3
 70
     1
102
RTVSPropertyOp4
 70
     1
102
RTVSPropertyOp5
 70
     1
102
RTVSPropertyOp6
 70
     1
102
RTVSPropertyOp7
 70
     1
102
RTVSPropertyOp8
 70
     1
102
RTVSPropertyOp9
 70
     1
102
RTVSPropertyOp10
 70
     1
102
RTVSPropertyOp11
 70
     1
102
RTVSPropertyOp12
 70
     1
102
RTVSPropertyOp13
 70
     1
102
RTVSPropertyOp14
 70
     1
102
RTVSPropertyOp15
 70
     1
102
RTVSPropertyOp16
 70
     1
102
RTVSPropertyOp17
 70
     1
102
RTVSPropertyOp18
 70
     1
102
RTVSPropertyOp19
 70
     1
102
RTVSPropertyOp20
 70
     1
102
RTVSPropertyOp21
 70
     1
102
RTVSPropertyOp22
 70
     1
102
RTVSPropertyOp23
 70
     1
102
RTVSPropertyOp24
 70
     1
102
RTVSPropertyOp25
 70
     1
102
RTVSPropertyOp26
 70
     1
102
RTVSPropertyOp27
 70
     1
102
RTVSPropertyOp28
 70
     1
102
RTVSPropertyOp29
 70
     1
102
RTVSPropertyOp30
 70
     1
102
RTVSPropertyOp31
 70
     1
102
RTVSPropertyOp32
 70
     1
  0
XRECORD
  5
461
102
{ACAD_REACTORS
330
460
102
}
330
460
100
AcDbXrecord
280
     1
102
RTVSPropertyOp0
 70
     1
102
RTVSPropertyOp1
 70
     1
102
RTVSPropertyOp2
 70
     1
102
RTVSPropertyOp3
 70
     1
102
RTVSPropertyOp4
 70
     1
102
RTVSPropertyOp5
 70
     1
102
RTVSPropertyOp6
 70
     1
102
RTVSPropertyOp7
 70
     1
102
RTVSPropertyOp8
 70
     1
102
RTVSPropertyOp9
 70
     1
102
RTVSPropertyOp10
 70
     1
102
RTVSPropertyOp11
 70
     1
102
RTVSPropertyOp12
 70
     1
102
RTVSPropertyOp13
 70
     1
102
RTVSPropertyOp14
 70
     1
102
RTVSPropertyOp15
 70
     1
102
RTVSPropertyOp16
 70
     1
102
RTVSPropertyOp17
 70
     1
102
RTVSPropertyOp18
 70
     1
102
RTVSPropertyOp19
 70
     1
102
RTVSPropertyOp20
 70
     1
102
RTVSPropertyOp21
 70
     1
102
RTVSPropertyOp22
 70
     1
102
RTVSPropertyOp23
 70
     1
102
RTVSPropertyOp24
 70
     1
102
RTVSPropertyOp25
 70
     1
102
RTVSPropertyOp26
 70
     1
102
RTVSPropertyOp27
 70
     1
102
RTVSPropertyOp28
 70
     1
102
RTVSPropertyOp29
 70
     1
102
RTVSPropertyOp30
 70
     1
102
RTVSPropertyOp31
 70
     1
102
RTVSPropertyOp32
 70
     1
  0
XRECORD
  5
463
102
{ACAD_REACTORS
330
462
102
}
330
462
100
AcDbXrecord
280
     1
102
RTVSPropertyOp0
 70
     1
102
RTVSPropertyOp1
 70
     1
102
RTVSPropertyOp2
 70
     1
102
RTVSPropertyOp3
 70
     1
102
RTVSPropertyOp4
 70
     1
102
RTVSPropertyOp5
 70
     1
102
RTVSPropertyOp6
 70
     1
102
RTVSPropertyOp7
 70
     1
102
RTVSPropertyOp8
 70
     1
102
RTVSPropertyOp9
 70
     1
102
RTVSPropertyOp10
 70
     1
102
RTVSPropertyOp11
 70
     1
102
RTVSPropertyOp12
 70
     1
102
RTVSPropertyOp13
 70
     1
102
RTVSPropertyOp14
 70
     1
102
RTVSPropertyOp15
 70
     1
102
RTVSPropertyOp16
 70
     1
102
RTVSPropertyOp17
 70
     1
102
RTVSPropertyOp18
 70
     1
102
RTVSPropertyOp19
 70
     1
102
RTVSPropertyOp20
 70
     1
102
RTVSPropertyOp21
 70
     1
102
RTVSPropertyOp22
 70
     1
102
RTVSPropertyOp23
 70
     1
102
RTVSPropertyOp24
 70
     1
102
RTVSPropertyOp25
 70
     1
102
RTVSPropertyOp26
 70
     1
102
RTVSPropertyOp27
 70
     1
102
RTVSPropertyOp28
 70
     1
102
RTVSPropertyOp29
 70
     1
102
RTVSPropertyOp30
 70
     1
102
RTVSPropertyOp31
 70
     1
102
RTVSPropertyOp32
 70
     1
  0
XRECORD
  5
477
102
{ACAD_REACTORS
330
476
102
}
330
476
100
AcDbXrecord
280
     1
102
RTVSPropertyOp0
 70
     1
102
RTVSPropertyOp1
 70
     1
102
RTVSPropertyOp2
 70
     1
102
RTVSPropertyOp3
 70
     1
102
RTVSPropertyOp4
 70
     1
102
RTVSPropertyOp5
 70
     1
102
RTVSPropertyOp6
 70
     1
102
RTVSPropertyOp7
 70
     1
102
RTVSPropertyOp8
 70
     1
102
RTVSPropertyOp9
 70
     1
102
RTVSPropertyOp10
 70
     1
102
RTVSPropertyOp11
 70
     1
102
RTVSPropertyOp12
 70
     1
102
RTVSPropertyOp13
 70
     1
102
RTVSPropertyOp14
 70
     1
102
RTVSPropertyOp15
 70
     1
102
RTVSPropertyOp16
 70
     1
102
RTVSPropertyOp17
 70
     1
102
RTVSPropertyOp18
 70
     1
102
RTVSPropertyOp19
 70
     1
102
RTVSPropertyOp20
 70
     1
102
RTVSPropertyOp21
 70
     1
102
RTVSPropertyOp22
 70
     1
102
RTVSPropertyOp23
 70
     1
102
RTVSPropertyOp24
 70
     1
102
RTVSPropertyOp25
 70
     1
102
RTVSPropertyOp26
 70
     1
102
RTVSPropertyOp27
 70
     1
102
RTVSPropertyOp28
 70
     1
102
RTVSPropertyOp29
 70
     1
102
RTVSPropertyOp30
 70
     1
102
RTVSPropertyOp31
 70
     1
102
RTVSPropertyOp32
 70
     1
  0
XRECORD
  5
46D
102
{ACAD_REACTORS
330
46C
102
}
330
46C
100
AcDbXrecord
280
     1
102
RTVSPropertyOp0
 70
     1
102
RTVSPropertyOp1
 70
     1
102
RTVSPropertyOp2
 70
     1
102
RTVSPropertyOp3
 70
     1
102
RTVSPropertyOp4
 70
     1
102
RTVSPropertyOp5
 70
     1
102
RTVSPropertyOp6
 70
     1
102
RTVSPropertyOp7
 70
     1
102
RTVSPropertyOp8
 70
     1
102
RTVSPropertyOp9
 70
     1
102
RTVSPropertyOp10
 70
     1
102
RTVSPropertyOp11
 70
     1
102
RTVSPropertyOp12
 70
     1
102
RTVSPropertyOp13
 70
     1
102
RTVSPropertyOp14
 70
     1
102
RTVSPropertyOp15
 70
     1
102
RTVSPropertyOp16
 70
     1
102
RTVSPropertyOp17
 70
     1
102
RTVSPropertyOp18
 70
     1
102
RTVSPropertyOp19
 70
     1
102
RTVSPropertyOp20
 70
     1
102
RTVSPropertyOp21
 70
     1
102
RTVSPropertyOp22
 70
     1
102
RTVSPropertyOp23
 70
     1
102
RTVSPropertyOp24
 70
     1
102
RTVSPropertyOp25
 70
     1
102
RTVSPropertyOp26
 70
     1
102
RTVSPropertyOp27
 70
     1
102
RTVSPropertyOp28
 70
     1
102
RTVSPropertyOp29
 70
     1
102
RTVSPropertyOp30
 70
     1
102
RTVSPropertyOp31
 70
     1
102
RTVSPropertyOp32
 70
     1
  0
XRECORD
  5
475
102
{ACAD_REACTORS
330
474
102
}
330
474
100
AcDbXrecord
280
     1
102
RTVSPropertyOp0
 70
     1
102
RTVSPropertyOp1
 70
     1
102
RTVSPropertyOp2
 70
     1
102
RTVSPropertyOp3
 70
     1
102
RTVSPropertyOp4
 70
     1
102
RTVSPropertyOp5
 70
     1
102
RTVSPropertyOp6
 70
     1
102
RTVSPropertyOp7
 70
     1
102
RTVSPropertyOp8
 70
     1
102
RTVSPropertyOp9
 70
     1
102
RTVSPropertyOp10
 70
     1
102
RTVSPropertyOp11
 70
     1
102
RTVSPropertyOp12
 70
     1
102
RTVSPropertyOp13
 70
     1
102
RTVSPropertyOp14
 70
     1
102
RTVSPropertyOp15
 70
     1
102
RTVSPropertyOp16
 70
     1
102
RTVSPropertyOp17
 70
     1
102
RTVSPropertyOp18
 70
     1
102
RTVSPropertyOp19
 70
     1
102
RTVSPropertyOp20
 70
     1
102
RTVSPropertyOp21
 70
     1
102
RTVSPropertyOp22
 70
     1
102
RTVSPropertyOp23
 70
     1
102
RTVSPropertyOp24
 70
     1
102
RTVSPropertyOp25
 70
     1
102
RTVSPropertyOp26
 70
     1
102
RTVSPropertyOp27
 70
     1
102
RTVSPropertyOp28
 70
     1
102
RTVSPropertyOp29
 70
     1
102
RTVSPropertyOp30
 70
     1
102
RTVSPropertyOp31
 70
     1
102
RTVSPropertyOp32
 70
     1
  0
ENDSEC
  0
EOF
