  0
SECTION
  2
HEADER
  9
$ACADVER
  1
AC1015
  9
$ACADMAINTVER
 70
     6
  9
$DWGCODEPAGE
  3
ANSI_1252
  9
$INSBASE
 10
0.0
 20
0.0
 30
0.0
  9
$EXTMIN
 10
0.0
 20
0.0
 30
0.0
  9
$EXTMAX
 10
210.0
 20
297.0
 30
0.0
  9
$LIMMIN
 10
0.0
 20
0.0
  9
$LIMMAX
 10
0.0
 20
0.0
  9
$ORTHOMODE
 70
     0
  9
$REGENMODE
 70
     1
  9
$FILLMODE
 70
     1
  9
$QTEXTMODE
 70
     0
  9
$MIRRTEXT
 70
     1
  9
$LTSCALE
 40
1.0
  9
$ATTMODE
 70
     1
  9
$TEXTSIZE
 40
0.0
  9
$TRACEWID
 40
0.05
  9
$TEXTSTYLE
  7
STANDARD
  9
$CLAYER
  8
0
  9
$CELTYPE
  6
CONTINUOUS
  9
$CECOLOR
 62
   256
  9
$CELTSCALE
 40
1.0
  9
$DISPSILH
 70
     0
  9
$DIMSCALE
 40
1.0
  9
$DIMASZ
 40
0.0
  9
$DIMEXO
 40
0.0
  9
$DIMDLI
 40
0.38
  9
$DIMRND
 40
0.0
  9
$DIMDLE
 40
1000.0
  9
$DIMEXE
 40
0.18
  9
$DIMTP
 40
0.0
  9
$DIMTM
 40
0.0
  9
$DIMTXT
 40
3.5
  9
$DIMCEN
 40
0.09
  9
$DIMTSZ
 40
0.0
  9
$DIMTOL
 70
     0
  9
$DIMLIM
 70
     0
  9
$DIMTIH
 70
     1
  9
$DIMTOH
 70
     1
  9
$DIMSE1
 70
     0
  9
$DIMSE2
 70
     0
  9
$DIMTAD
 70
     1
  9
$DIMZIN
 70
     0
  9
$DIMBLK
  1

  9
$DIMASO
 70
     1
  9
$DIMSHO
 70
     1
  9
$DIMPOST
  1

  9
$DIMAPOST
  1

  9
$DIMALT
 70
     0
  9
$DIMALTD
 70
     2
  9
$DIMALTF
 40
0.0394
  9
$DIMLFAC
 40
1.0
  9
$DIMTOFL
 70
     0
  9
$DIMTVP
 40
0.0
  9
$DIMTIX
 70
     0
  9
$DIMSOXD
 70
     0
  9
$DIMSAH
 70
     0
  9
$DIMBLK1
  1

  9
$DIMBLK2
  1

  9
$DIMSTYLE
  2
STANDARD
  9
$DIMCLRD
 70
     0
  9
$DIMCLRE
 70
     0
  9
$DIMCLRT
 70
     0
  9
$DIMTFAC
 40
1.0
  9
$DIMGAP
 40
0.0
  9
$DIMJUST
 70
     0
  9
$DIMSD1
 70
     0
  9
$DIMSD2
 70
     0
  9
$DIMTOLJ
 70
     1
  9
$DIMTZIN
 70
     0
  9
$DIMALTZ
 70
     0
  9
$DIMALTTZ
 70
     0
  9
$DIMUPT
 70
     0
  9
$DIMDEC
 70
     4
  9
$DIMTDEC
 70
     4
  9
$DIMALTU
 70
     2
  9
$DIMALTTD
 70
     2
  9
$DIMTXSTY
  7
STANDARD
  9
$DIMAUNIT
 70
     0
  9
$DIMADEC
 70
     0
  9
$DIMALTRND
 40
0.0
  9
$DIMAZIN
 70
     0
  9
$DIMDSEP
 70
    46
  9
$DIMATFIT
 70
     3
  9
$DIMFRAC
 70
     0
  9
$DIMLDRBLK
  1

  9
$DIMLUNIT
 70
     2
  9
$DIMLWD
 70
    -2
  9
$DIMLWE
 70
    -2
  9
$DIMTMOVE
 70
     2
  9
$LUNITS
 70
     2
  9
$LUPREC
 70
     2
  9
$SKETCHINC
 40
0.1
  9
$FILLETRAD
 40
0.0
  9
$AUNITS
 70
     0
  9
$AUPREC
 70
     2
  9
$MENU
  1
acad
  9
$ELEVATION
 40
0.0
  9
$PELEVATION
 40
0.0
  9
$THICKNESS
 40
0.0
  9
$LIMCHECK
 70
     0
  9
$CHAMFERA
 40
0.0
  9
$CHAMFERB
 40
0.0
  9
$CHAMFERC
 40
0.0
  9
$CHAMFERD
 40
0.0
  9
$SKPOLY
 70
     0
  9
$TDCREATE
 40
2447893.0
  9
$TDUCREATE
 40
2447892.916666667
  9
$TDUPDATE
 40
2458327.548789711
  9
$TDUUPDATE
 40
2458327.465456377
  9
$TDINDWG
 40
0.0
  9
$TDUSRTIMER
 40
0.0
  9
$USRTIMER
 70
     1
  9
$ANGBASE
 50
0.0
  9
$ANGDIR
 70
     0
  9
$PDMODE
 70
     0
  9
$PDSIZE
 40
-1.0
  9
$PLINEWID
 40
0.0
  9
$SPLFRAME
 70
     0
  9
$SPLINETYPE
 70
     6
  9
$SPLINESEGS
 70
     8
  9
$HANDSEED
  5
3E1
  9
$SURFTAB1
 70
     6
  9
$SURFTAB2
 70
     6
  9
$SURFTYPE
 70
     6
  9
$SURFU
 70
     6
  9
$SURFV
 70
     6
  9
$UCSBASE
  2

  9
$UCSNAME
  2

  9
$UCSORG
 10
0.0
 20
0.0
 30
0.0
  9
$UCSXDIR
 10
1.0
 20
0.0
 30
0.0
  9
$UCSYDIR
 10
0.0
 20
1.0
 30
0.0
  9
$UCSORTHOREF
  2

  9
$UCSORTHOVIEW
 70
     0
  9
$UCSORGTOP
 10
0.0
 20
0.0
 30
0.0
  9
$UCSORGBOTTOM
 10
0.0
 20
0.0
 30
0.0
  9
$UCSORGLEFT
 10
0.0
 20
0.0
 30
0.0
  9
$UCSORGRIGHT
 10
0.0
 20
0.0
 30
0.0
  9
$UCSORGFRONT
 10
0.0
 20
0.0
 30
0.0
  9
$UCSORGBACK
 10
0.0
 20
0.0
 30
0.0
  9
$PUCSBASE
  2

  9
$PUCSNAME
  2

  9
$PUCSORG
 10
0.0
 20
0.0
 30
0.0
  9
$PUCSXDIR
 10
1.0
 20
0.0
 30
0.0
  9
$PUCSYDIR
 10
0.0
 20
1.0
 30
0.0
  9
$PUCSORTHOREF
  2

  9
$PUCSORTHOVIEW
 70
     0
  9
$PUCSORGTOP
 10
0.0
 20
0.0
 30
0.0
  9
$PUCSORGBOTTOM
 10
0.0
 20
0.0
 30
0.0
  9
$PUCSORGLEFT
 10
0.0
 20
0.0
 30
0.0
  9
$PUCSORGRIGHT
 10
0.0
 20
0.0
 30
0.0
  9
$PUCSORGFRONT
 10
0.0
 20
0.0
 30
0.0
  9
$PUCSORGBACK
 10
0.0
 20
0.0
 30
0.0
  9
$USERI1
 70
     0
  9
$USERI2
 70
     0
  9
$USERI3
 70
     0
  9
$USERI4
 70
     0
  9
$USERI5
 70
     0
  9
$USERR1
 40
0.0
  9
$USERR2
 40
0.0
  9
$USERR3
 40
0.0
  9
$USERR4
 40
0.0
  9
$USERR5
 40
0.0
  9
$WORLDVIEW
 70
     1
  9
$SHADEDGE
 70
     3
  9
$SHADEDIF
 70
    70
  9
$TILEMODE
 70
     1
  9
$MAXACTVP
 70
    16
  9
$PINSBASE
 10
0.0
 20
0.0
 30
0.0
  9
$PLIMCHECK
 70
     0
  9
$PEXTMIN
 10
1.000000000000000E+20
 20
1.000000000000000E+20
 30
1.000000000000000E+20
  9
$PEXTMAX
 10
-1.000000000000000E+20
 20
-1.000000000000000E+20
 30
-1.000000000000000E+20
  9
$PLIMMIN
 10
0.0
 20
0.0
  9
$PLIMMAX
 10
12.0
 20
9.0
  9
$UNITMODE
 70
     0
  9
$VISRETAIN
 70
     0
  9
$PLINEGEN
 70
     1
  9
$PSLTSCALE
 70
     1
  9
$TREEDEPTH
 70
  3020
  9
$CMLSTYLE
  2
STANDARD
  9
$CMLJUST
 70
     0
  9
$CMLSCALE
 40
1.0
  9
$PROXYGRAPHICS
 70
     1
  9
$MEASUREMENT
 70
     0
  9
$CELWEIGHT
370
    -1
  9
$ENDCAPS
280
     0
  9
$JOINSTYLE
280
     0
  9
$LWDISPLAY
290
     0
  9
$INSUNITS
 70
     0
  9
$HYPERLINKBASE
  1

  9
$STYLESHEET
  1

  9
$XEDIT
290
     1
  9
$CEPSNTYPE
380
     0
  9
$PSTYLEMODE
290
     1
  9
$FINGERPRINTGUID
  2
{8CE8BFF4-68FB-4241-A773-AECA1B725E91}
  9
$VERSIONGUID
  2
{FAEB1C32-E019-11D5-929B-00C0DF256EC4}
  9
$EXTNAMES
290
     1
  9
$PSVPSCALE
 40
0.0
  9
$OLESTARTUP
290
     0
  0
ENDSEC
  0
SECTION
  2
CLASSES
  0
CLASS
  1
LWPOLYLINE
  2
AcDbPolyline
  3
ObjectDBX Classes
 90
        0
280
     0
281
     1
  0
CLASS
  1
IMAGE
  2
AcDbRasterImage
  3
ISM
 90
      127
280
     0
281
     1
  0
CLASS
  1
OLE2FRAME
  2
AcDbOle2Frame
  3
ObjectDBX Classes
 90
        0
280
     0
281
     1
  0
CLASS
  1
HATCH
  2
AcDbHatch
  3
ObjectDBX Classes
 90
        0
280
     0
281
     1
  0
CLASS
  1
DICTIONARYVAR
  2
AcDbDictionaryVar
  3
ObjectDBX Classes
 90
        0
280
     0
281
     0
  0
CLASS
  1
RASTERVARIABLES
  2
AcDbRasterVariables
  3
ISM
 90
        0
280
     0
281
     0
  0
CLASS
  1
IMAGEDEF
  2
AcDbRasterImageDef
  3
ISM
 90
        0
280
     0
281
     0
  0
CLASS
  1
IMAGEDEF_REACTOR
  2
AcDbRasterImageDefReactor
  3
ISM
 90
        1
280
     0
281
     0
  0
CLASS
  1
IDBUFFER
  2
AcDbIdBuffer
  3
ObjectDBX Classes
 90
        0
280
     0
281
     0
  0
CLASS
  1
SPATIAL_FILTER
  2
AcDbSpatialFilter
  3
ObjectDBX Classes
 90
        0
280
     0
281
     0
  0
CLASS
  1
XRECORD
  2
AcDbXrecord
  3
ObjectDBX Classes
 90
        0
280
     0
281
     0
  0
CLASS
  1
SORTENTSTABLE
  2
AcDbSortentsTable
  3
ObjectDBX Classes
 90
        0
280
     0
281
     0
  0
CLASS
  1
LAYER_INDEX
  2
AcDbLayerIndex
  3
ObjectDBX Classes
 90
        0
280
     0
281
     0
  0
CLASS
  1
SPATIAL_INDEX
  2
AcDbSpatialIndex
  3
AutoCAD 2000
 90
        0
280
     0
281
     0
  0
CLASS
  1
OBJECT_PTR
  2
CAseDLPNTableRecord
  3
ASE-LPNTableRecord
 90
        1
280
     0
281
     0
  0
CLASS
  1
LAYOUT
  2
AcDbLayout
  3
ObjectDBX Classes
 90
        0
280
     0
281
     0
  0
CLASS
  1
PLOTSETTINGS
  2
AcDbPlotSettings
  3
ObjectDBX Classes
 90
        0
280
     0
281
     0
  0
CLASS
  1
ACDBDICTIONARYWDFLT
  2
AcDbDictionaryWithDefault
  3
ObjectDBX Classes
 90
        0
280
     0
281
     0
  0
CLASS
  1
ACDBPLACEHOLDER
  2
AcDbPlaceHolder
  3
ObjectDBX Classes
 90
        0
280
     0
281
     0
  0
CLASS
  1
VBA_PROJECT
  2
AcDbVbaProject
  3
ObjectDBX Classes
 90
        0
280
     0
281
     0
  0
CLASS
  1
WIPEOUT
  2
AcDbWipeout
  3
WipeOut|AutoCAD Express Tool|expresstools@autodesk.com
 90
      127
280
     0
281
     1
  0
CLASS
  1
WIPEOUTVARIABLES
  2
AcDbWipeoutVariables
  3
WipeOut|AutoCAD Express Tool|expresstools@autodesk.com
 90
        0
280
     0
281
     0
  0
CLASS
  1
RTEXT
  2
RText
  3
RText|AutoCAD Express Tool|expresstools@autodesk.com
 90
        0
280
     0
281
     1
  0
CLASS
  1
ARCALIGNEDTEXT
  2
AcDbArcAlignedText
  3
ATEXT|AutoCAD Express Tool|expresstools@autodesk.com
 90
        0
280
     0
281
     1
  0
CLASS
  1
SCALE
  2
AcDbScale
  3
ObjectDBX Classes
 90
     1153
280
     0
281
     0
  0
CLASS
  1
VISUALSTYLE
  2
AcDbVisualStyle
  3
ObjectDBX Classes
 90
     4095
280
     0
281
     0
  0
CLASS
  1
MATERIAL
  2
AcDbMaterial
  3
ObjectDBX Classes
 90
     1153
280
     0
281
     0
  0
ENDSEC
  0
SECTION
  2
TABLES
  0
TABLE
  2
VPORT
  5
7
102
{ACAD_XDICTIONARY
360
3A6
102
}
330
0
100
AcDbSymbolTable
 70
     1
  0
VPORT
  5
15
330
7
100
AcDbSymbolTableRecord
100
AcDbViewportTableRecord
  2
*ACTIVE
 70
     0
 10
0.0
 20
0.0
 11
1.0
 21
1.0
 12
105.0
 22
148.5
 13
0.0
 23
0.0
 14
1.0
 24
1.0
 15
0.0
 25
0.0
 16
0.0
 26
0.0
 36
1.0
 17
0.0
 27
0.0
 37
0.0
 40
297.0
 41
1.4142857143
 42
50.0
 43
0.0
 44
0.0
 50
0.0
 51
0.0
 71
     0
 72
  2000
 73
     1
 74
     1
 75
     0
 76
     0
 77
     0
 78
     0
281
     0
 65
     1
110
0.0
120
0.0
130
0.0
111
1.0
121
0.0
131
0.0
112
0.0
122
1.0
132
0.0
 79
     0
146
0.0
  0
ENDTAB
  0
TABLE
  2
LTYPE
  5
4
330
0
100
AcDbSymbolTable
 70
     6
  0
LTYPE
  5
11
330
4
100
AcDbSymbolTableRecord
100
AcDbLinetypeTableRecord
  2
BYBLOCK
 70
     0
  3

 72
    65
 73
     0
 40
0.0
  0
LTYPE
  5
12
330
4
100
AcDbSymbolTableRecord
100
AcDbLinetypeTableRecord
  2
BYLAYER
 70
     0
  3

 72
    65
 73
     0
 40
0.0
  0
LTYPE
  5
13
330
4
100
AcDbSymbolTableRecord
100
AcDbLinetypeTableRecord
  2
CONTINUOUS
 70
     0
  3
Solid line
 72
    65
 73
     0
 40
0.0
  0
LTYPE
  5
1D
330
4
100
AcDbSymbolTableRecord
100
AcDbLinetypeTableRecord
  2
HIDDEN
 70
     0
  3
Hidden __ __ __ __ __ __ __ __ __ __ __ __ __ __
 72
    65
 73
     2
 40
1.905
 49
1.27
 74
     0
 49
-0.635
 74
     0
  0
LTYPE
  5
1E
330
4
100
AcDbSymbolTableRecord
100
AcDbLinetypeTableRecord
  2
PHANTOM
 70
     0
  3
Phantom ______  __  __  ______  __  __  ______
 72
    65
 73
     6
 40
12.7
 49
6.35
 74
     0
 49
-1.27
 74
     0
 49
1.27
 74
     0
 49
-1.27
 74
     0
 49
1.27
 74
     0
 49
-1.27
 74
     0
  0
LTYPE
  5
1F
330
4
100
AcDbSymbolTableRecord
100
AcDbLinetypeTableRecord
  2
CENTER
 70
     0
  3
Center ____ _ ____ _ ____ _ ____ _ ____ _ ____
 72
    65
 73
     4
 40
10.16
 49
6.35
 74
     0
 49
-1.27
 74
     0
 49
1.27
 74
     0
 49
-1.27
 74
     0
  0
LTYPE
  5
20
330
4
100
AcDbSymbolTableRecord
100
AcDbLinetypeTableRecord
  2
CENTERX2
 70
     0
  3
Center (2x) ________  __  ________  __  _____
 72
    65
 73
     4
 40
20.32
 49
12.7
 74
     0
 49
-2.54
 74
     0
 49
2.54
 74
     0
 49
-2.54
 74
     0
  0
LTYPE
  5
21
330
4
100
AcDbSymbolTableRecord
100
AcDbLinetypeTableRecord
  2
DOT2
 70
     0
  3
Dot (.5x) ........................................
 72
    65
 73
     2
 40
0.635
 49
0.0
 74
     0
 49
-0.635
 74
     0
  0
LTYPE
  5
3D0
330
5
100
AcDbSymbolTableRecord
100
AcDbLinetypeTableRecord
  2
DASH
 70
     0
  3
DASH _ _ _ _ _
 72
    65
 73
     2
 40
0.75
 49
0.40
 74
     0
 49
-0.35
 74
     0
  0
LTYPE
  5
3D1
330
5
100
AcDbSymbolTableRecord
100
AcDbLinetypeTableRecord
  2
LONGDASH_DASH
 70
     0
  3
LONGDASH_DASH __ . __ . __
 72
    65
 73
     4
 40
0.85
 49
0.40
 74
     0
 49
-0.20
 74
     0
 49
0.05
 74
     0
 49
-0.20
 74
     0
  0
LTYPE
  5
3D2
330
5
100
AcDbSymbolTableRecord
100
AcDbLinetypeTableRecord
  2
LONGDASH_DASH_DASH
 70
     0
  3
LONGDASH_DASH_DASH __ . . __ . . __
 72
    65
 73
     6
 40
1.10
 49
0.40
 74
     0
 49
-0.20
 74
     0
 49
0.05
 74
     0
 49
-0.20
 74
     0
 49
0.05
 74
     0
 49
-0.20
 74
     0
  0
ENDTAB
  0
TABLE
  2
LAYER
  5
2
330
0
100
AcDbSymbolTable
 70
     8
  0
LAYER
  5
23
330
2
100
AcDbSymbolTableRecord
100
AcDbLayerTableRecord
  2
DEFPOINTS
 70
     0
 62
     7
  6
CONTINUOUS
290
     0
370
    -3
390
0
  0
LAYER
  5
3D3
330
2
100
AcDbSymbolTableRecord
100
AcDbLayerTableRecord
  2
0
 70
     0
 62
     -1
  6
CONTINUOUS
370
    -3
390
F
  0
LAYER
  5
3D4
330
2
100
AcDbSymbolTableRecord
100
AcDbLayerTableRecord
  2
1
 70
     0
 62
     4
  6
CONTINUOUS
370
    50
390
F
  0
LAYER
  5
3D5
330
2
100
AcDbSymbolTableRecord
100
AcDbLayerTableRecord
  2
2
 70
     0
 62
     7
  6
CONTINUOUS
370
    25
390
F
  0
LAYER
  5
3D6
330
2
100
AcDbSymbolTableRecord
100
AcDbLayerTableRecord
  2
3
 70
     0
 62
     1
  6
DASH
370
    35
390
F
  0
LAYER
  5
3D7
330
2
100
AcDbSymbolTableRecord
100
AcDbLayerTableRecord
  2
4
 70
     0
 62
     2
  6
LONGDASH_DASH
370
    25
390
F
  0
LAYER
  5
3D8
330
2
100
AcDbSymbolTableRecord
100
AcDbLayerTableRecord
  2
6
 70
     0
 62
     5
  6
CONTINUOUS
370
    -3
390
F
  0
LAYER
  5
3D9
330
2
100
AcDbSymbolTableRecord
100
AcDbLayerTableRecord
  2
CUT
 70
     0
 62
     1
  6
CONTINUOUS
370
    25
390
F
  0
LAYER
  5
3DA
330
2
100
AcDbSymbolTableRecord
100
AcDbLayerTableRecord
  2
NOCUT
 70
     0
 62
     7
  6
CONTINUOUS
370
    25
390
F
  0
LAYER
  5
3DB
330
2
100
AcDbSymbolTableRecord
100
AcDbLayerTableRecord
  2
SK1
 70
     0
 62
     4
  6
CONTINUOUS
370
    50
390
F
  0
LAYER
  5
3DC
330
2
100
AcDbSymbolTableRecord
100
AcDbLayerTableRecord
  2
SK2
 70
     0
 62
     7
  6
CONTINUOUS
370
    25
390
F
  0
LAYER
  5
3DD
330
2
100
AcDbSymbolTableRecord
100
AcDbLayerTableRecord
  2
SK3
 70
     0
 62
     1
  6
DASH
370
    35
390
F
  0
LAYER
  5
3DE
330
2
100
AcDbSymbolTableRecord
100
AcDbLayerTableRecord
  2
SK4
 70
     0
 62
     2
  6
LONGDASH_DASH
370
    25
390
F
  0
LAYER
  5
3DF
330
2
100
AcDbSymbolTableRecord
100
AcDbLayerTableRecord
  2
SK6
 70
     0
 62
     5
  6
CONTINUOUS
370
    -3
390
F
  0
LAYER
  5
3E0
330
2
100
AcDbSymbolTableRecord
100
AcDbLayerTableRecord
  2
INFTOTAL
 70
     0
 62
     9
  6
CONTINUOUS
370
    18
390
F
  0
ENDTAB
  0
TABLE
  2
STYLE
  5
3
330
0
100
AcDbSymbolTable
 70
     2
  0
STYLE
  5
17
330
3
100
AcDbSymbolTableRecord
100
AcDbTextStyleTableRecord
  2
STANDARD
 70
     0
 40
0.0
 41
1.0
 50
0.0
 71
     0
 42
0.2
  3
txt
  4

  0
STYLE
  5
39E
330
3
100
AcDbSymbolTableRecord
100
AcDbTextStyleTableRecord
  2
BMG_Text
 70
     0
 40
3.5
 41
1.0
 50
0.0
 71
     0
 42
0.0
  3
monos.ttf
  4

1001
ACAD
1000
Monospac821 BT
1071
       49
  0
ENDTAB
  0
TABLE
  2
VIEW
  5
5
330
0
100
AcDbSymbolTable
 70
     0
  0
ENDTAB
  0
TABLE
  2
UCS
  5
6
330
0
100
AcDbSymbolTable
 70
     0
  0
ENDTAB
  0
TABLE
  2
APPID
  5
8
330
0
100
AcDbSymbolTable
 70
     1
  0
APPID
  5
16
330
8
100
AcDbSymbolTableRecord
100
AcDbRegAppTableRecord
  2
ACAD
 70
     0
  0
ENDTAB
  0
TABLE
  2
DIMSTYLE
  5
9
330
0
100
AcDbSymbolTable
 70
     1
100
AcDbDimStyleTable
  0
DIMSTYLE
105
18
330
9
100
AcDbSymbolTableRecord
100
AcDbDimStyleTableRecord
  2
STANDARD
 70
     0
178
     0
340
17
  0
ENDTAB
  0
TABLE
  2
BLOCK_RECORD
  5
1
330
0
100
AcDbSymbolTable
 70
     0
  0
BLOCK_RECORD
  5
A
330
1
100
AcDbSymbolTableRecord
100
AcDbBlockTableRecord
  2
*MODEL_SPACE
340
387
  0
BLOCK_RECORD
  5
B
330
1
100
AcDbSymbolTableRecord
100
AcDbBlockTableRecord
  2
*PAPER_SPACE
340
388
  0
ENDTAB
  0
ENDSEC
  0
SECTION
  2
BLOCKS
  0
BLOCK
  5
D
330
A
100
AcDbEntity
  8
0
100
AcDbBlockBegin
  2
*MODEL_SPACE
 70
     0
 10
0.0
 20
0.0
 30
0.0
  3
*MODEL_SPACE
  1

  0
ENDBLK
  5
E
330
A
100
AcDbEntity
  8
0
100
AcDbBlockEnd
  0
BLOCK
  5
F
330
B
100
AcDbEntity
 67
     1
  8
0
100
AcDbBlockBegin
  2
*PAPER_SPACE
 70
     0
 10
0.0
 20
0.0
 30
0.0
  3
*PAPER_SPACE
  1

  0
ENDBLK
  5
10
330
B
100
AcDbEntity
 67
     1
  8
0
100
AcDbBlockEnd
  0
ENDSEC
  0
SECTION
  2
ENTITIES
  0
ARC
  5
29
330
A
100
AcDbEntity
  8
1
  6
CONTINUOUS
370
    50
100
AcDbCircle
 10
106.492432616
 20
134.8905329167
 30
0.0
 40
0.5
100
AcDbArc
 50
66.4218215218
 51
90.0
  0
ARC
  5
2A
330
A
100
AcDbEntity
  8
1
  6
CONTINUOUS
370
    50
100
AcDbCircle
 10
106.492432616
 20
205.1405329167
 30
0.0
 40
0.5
100
AcDbArc
 50
270.0
 51
293.5781784782001
  0
LINE
  5
2B
330
A
100
AcDbEntity
  8
1
  6
CONTINUOUS
370
    50
100
AcDbLine
 10
105.192432616
 20
204.9405329167
 30
0.0
 11
5.4457726801
 21
190.3941450094
 31
0.0
  0
LINE
  5
2C
330
A
100
AcDbEntity
  8
1
  6
CONTINUOUS
370
    50
100
AcDbLine
 10
5.4457726801
 20
149.636920824
 30
0.0
 11
105.192432616
 21
135.0905329167
 31
0.0
  0
LINE
  5
2D
330
A
100
AcDbEntity
  8
1
  6
CONTINUOUS
370
    50
100
AcDbLine
 10
105.192432616
 20
135.0905329167
 30
0.0
 11
105.7353228926
 21
135.3436868102
 31
0.0
  0
LINE
  5
2E
330
A
100
AcDbEntity
  8
1
  6
CONTINUOUS
370
    50
100
AcDbLine
 10
105.7353228926
 20
204.6873790232
 30
0.0
 11
105.192432616
 21
204.9405329167
 31
0.0
  0
ARC
  5
2F
330
A
100
AcDbEntity
  8
1
  6
CONTINUOUS
370
    50
100
AcDbCircle
 10
105.9466320235
 20
134.8905329167
 30
0.0
 40
0.5
100
AcDbArc
 50
90.0
 51
115.0
  0
ARC
  5
30
330
A
100
AcDbEntity
  8
1
  6
CONTINUOUS
370
    50
100
AcDbCircle
 10
105.9466320235
 20
205.1405329167
 30
0.0
 40
0.5
100
AcDbArc
 50
245.0
 51
270.0
  0
LINE
  5
31
330
A
100
AcDbEntity
  8
1
  6
CONTINUOUS
370
    50
100
AcDbLine
 10
105.9466320235
 20
135.3905329167
 30
0.0
 11
106.492432616
 21
135.3905329167
 31
0.0
  0
LINE
  5
32
330
A
100
AcDbEntity
  8
1
  6
CONTINUOUS
370
    50
100
AcDbLine
 10
106.492432616
 20
204.6405329167
 30
0.0
 11
105.9466320235
 21
204.6405329167
 31
0.0
  0
ARC
  5
33
330
A
100
AcDbEntity
  8
1
  6
CONTINUOUS
370
    50
100
AcDbCircle
 10
129.242432616
 20
138.5655329167
 30
0.0
 40
5.0
100
AcDbArc
 50
81.890385544
 51
169.0472158011
  0
ARC
  5
34
330
A
100
AcDbEntity
  8
1
  6
CONTINUOUS
370
    50
100
AcDbCircle
 10
129.242432616
 20
201.4655329167
 30
0.0
 40
5.0
100
AcDbArc
 50
190.9527841989
 51
278.109614456
  0
LINE
  5
35
330
A
100
AcDbEntity
  8
1
  6
CONTINUOUS
370
    50
100
AcDbLine
 10
129.947769415
 20
143.5155329167
 30
0.0
 11
148.0145113032
 21
143.5155329167
 31
0.0
  0
LINE
  5
36
330
A
100
AcDbEntity
  8
1
  6
CONTINUOUS
370
    50
100
AcDbLine
 10
148.0145113032
 20
196.5155329167
 30
0.0
 11
129.947769415
 21
196.5155329167
 31
0.0
  0
LINE
  5
37
330
A
100
AcDbEntity
  8
1
  6
CONTINUOUS
370
    50
100
AcDbLine
 10
148.0145113032
 20
143.5155329167
 30
0.0
 11
204.159304512
 21
147.9342239715
 31
0.0
  0
LINE
  5
38
330
A
100
AcDbEntity
  8
1
  6
CONTINUOUS
370
    50
100
AcDbLine
 10
204.159304512
 20
192.0968418618
 30
0.0
 11
148.0145113032
 21
196.5155329167
 31
0.0
  0
ARC
  5
39
330
A
100
AcDbEntity
  8
1
  6
CONTINUOUS
370
    50
100
AcDbCircle
 10
203.192432616
 20
149.6849834458
 30
0.0
 40
2.0
100
AcDbArc
 50
298.910050707
 51
0.0
  0
ARC
  5
3A
330
A
100
AcDbEntity
  8
1
  6
CONTINUOUS
370
    50
100
AcDbCircle
 10
203.192432616
 20
190.3460823876
 30
0.0
 40
2.0
100
AcDbArc
 50
360.0
 51
61.089949293
  0
ARC
  5
3B
330
A
100
AcDbEntity
  8
1
  6
CONTINUOUS
370
    50
100
AcDbCircle
 10
5.842432616
 20
151.8528744903
 30
0.0
 40
2.25
100
AcDbArc
 50
180.0
 51
258.0
  0
ARC
  5
3C
330
A
100
AcDbEntity
  8
1
  6
CONTINUOUS
370
    50
100
AcDbCircle
 10
5.842432616
 20
188.1781913431
 30
0.0
 40
2.25
100
AcDbArc
 50
102.0
 51
180.0
  0
LINE
  5
3D
330
A
100
AcDbEntity
  8
1
  6
CONTINUOUS
370
    50
100
AcDbLine
 10
118.217432616
 20
199.8655329167
 30
0.0
 11
118.217432616
 21
125.368757438
 31
0.0
  0
LINE
  5
3E
330
A
100
AcDbEntity
  8
1
  6
CONTINUOUS
370
    50
100
AcDbLine
 10
119.5255941234
 20
199.8655329167
 30
0.0
 11
118.217432616
 21
199.8655329167
 31
0.0
  0
LINE
  5
3F
330
A
100
AcDbEntity
  8
1
  6
CONTINUOUS
370
    50
100
AcDbLine
 10
119.5255941234
 20
199.8655329167
 30
0.0
 11
119.5255941234
 21
123.2561956145
 31
0.0
  0
LINE
  5
40
330
A
100
AcDbEntity
  8
1
  6
CONTINUOUS
370
    50
100
AcDbLine
 10
118.9186747094
 20
124.1061956167
 30
0.0
 11
119.5255941234
 21
123.2561956145
 31
0.0
  0
LINE
  5
41
330
A
100
AcDbEntity
  8
1
  6
CONTINUOUS
370
    50
100
AcDbLine
 10
118.217432616
 20
125.368757438
 30
0.0
 11
118.9186747094
 21
124.1061956167
 31
0.0
  0
LINE
  5
42
330
A
100
AcDbEntity
  8
1
  6
CONTINUOUS
370
    50
100
AcDbLine
 10
123.742432616
 20
123.2561956145
 30
0.0
 11
123.742432616
 21
199.8655329167
 31
0.0
  0
LINE
  5
43
330
A
100
AcDbEntity
  8
1
  6
CONTINUOUS
370
    50
100
AcDbLine
 10
123.742432616
 20
199.8655329167
 30
0.0
 11
124.242432616
 21
199.8655329167
 31
0.0
  0
LINE
  5
44
330
A
100
AcDbEntity
  8
1
  6
CONTINUOUS
370
    50
100
AcDbLine
 10
124.242432616
 20
199.8655329167
 30
0.0
 11
124.242432616
 21
123.6597789248
 31
0.0
  0
LINE
  5
45
330
A
100
AcDbEntity
  8
1
  6
CONTINUOUS
370
    50
100
AcDbLine
 10
124.242432616
 20
123.6597789248
 30
0.0
 11
123.742432616
 21
123.2561956145
 31
0.0
  0
LINE
  5
46
330
A
100
AcDbEntity
  8
1
  6
CONTINUOUS
370
    50
100
AcDbLine
 10
114.367432616
 20
199.8655329167
 30
0.0
 11
113.0592711085
 21
199.8655329167
 31
0.0
  0
LINE
  5
47
330
A
100
AcDbEntity
  8
1
  6
CONTINUOUS
370
    50
100
AcDbLine
 10
114.367432616
 20
125.368757438
 30
0.0
 11
114.367432616
 21
199.8655329167
 31
0.0
  0
LWPOLYLINE
  5
48
330
A
100
AcDbEntity
  8
1
  6
CONTINUOUS
370
    50
100
AcDbPolyline
 90
        3
 70
   128
 43
0.0
 10
113.6661905225
 20
124.1061956167
 10
113.7135026869
 20
124.1912979262
 10
114.367432616
 20
125.368757438
  0
LINE
  5
4D
330
A
100
AcDbEntity
  8
1
  6
CONTINUOUS
370
    50
100
AcDbLine
 10
113.0592711085
 20
123.2561956145
 30
0.0
 11
113.6661905225
 21
124.1061956167
 31
0.0
  0
LINE
  5
4E
330
A
100
AcDbEntity
  8
1
  6
CONTINUOUS
370
    50
100
AcDbLine
 10
113.0592711085
 20
123.2561956145
 30
0.0
 11
113.0592711085
 21
199.8655329167
 31
0.0
  0
LINE
  5
4F
330
A
100
AcDbEntity
  8
1
  6
CONTINUOUS
370
    50
100
AcDbLine
 10
123.742432616
 20
199.8655329167
 30
0.0
 11
119.5255941234
 21
199.8655329167
 31
0.0
  0
LINE
  5
50
330
A
100
AcDbEntity
  8
1
  6
CONTINUOUS
370
    50
100
AcDbLine
 10
119.5255941234
 20
123.2561956145
 30
0.0
 11
123.742432616
 21
123.2561956145
 31
0.0
  0
LINE
  5
51
330
A
100
AcDbEntity
  8
1
  6
CONTINUOUS
370
    50
100
AcDbLine
 10
108.0424326138
 20
123.2561956145
 30
0.0
 11
113.0592711085
 21
123.2561956145
 31
0.0
  0
LINE
  5
52
330
A
100
AcDbEntity
  8
1
  6
CONTINUOUS
370
    50
100
AcDbLine
 10
107.192432616
 20
123.5136713948
 30
0.0
 11
108.0424326138
 21
123.2561956145
 31
0.0
  0
LINE
  5
53
330
A
100
AcDbEntity
  8
1
  6
CONTINUOUS
370
    50
100
AcDbLine
 10
107.192432616
 20
199.8655329167
 30
0.0
 11
107.192432616
 21
123.5136713948
 31
0.0
  0
LINE
  5
54
330
A
100
AcDbEntity
  8
1
  6
CONTINUOUS
370
    50
100
AcDbLine
 10
113.0592711085
 20
199.8655329167
 30
0.0
 11
107.192432616
 21
199.8655329167
 31
0.0
  0
LINE
  5
55
330
A
100
AcDbEntity
  8
1
  6
CONTINUOUS
370
    50
100
AcDbLine
 10
106.692432616
 20
124.1990716282
 30
0.0
 11
106.692432616
 21
199.8655329167
 31
0.0
  0
LINE
  5
56
330
A
100
AcDbEntity
  8
1
  6
CONTINUOUS
370
    50
100
AcDbLine
 10
106.692432616
 20
199.8655329167
 30
0.0
 11
107.192432616
 21
199.8655329167
 31
0.0
  0
LINE
  5
57
330
A
100
AcDbEntity
  8
1
  6
CONTINUOUS
370
    50
100
AcDbLine
 10
107.192432616
 20
123.5136713948
 30
0.0
 11
106.692432616
 21
124.1990716282
 31
0.0
  0
ARC
  5
58
330
A
100
AcDbEntity
  8
1
  6
CONTINUOUS
370
    50
100
AcDbCircle
 10
114.8789141333
 20
125.8563251962
 30
0.0
 40
0.5115703146
100
AcDbArc
 50
91.2860357723
 51
181.0675571363
  0
LINE
  5
59
330
A
100
AcDbEntity
  8
1
  6
CONTINUOUS
370
    50
100
AcDbLine
 10
114.367432616
 20
199.8655329167
 30
0.0
 11
114.867432616
 21
199.8655329167
 31
0.0
  0
LINE
  5
5A
330
A
100
AcDbEntity
  8
1
  6
CONTINUOUS
370
    50
100
AcDbLine
 10
114.867432616
 20
199.8655329167
 30
0.0
 11
114.867432616
 21
126.3677666508
 31
0.0
  0
ARC
  5
5B
330
A
100
AcDbEntity
  8
1
  6
CONTINUOUS
370
    50
100
AcDbCircle
 10
117.7075396901
 20
125.857849836
 30
0.0
 40
0.5100127724
100
AcDbArc
 50
358.7578664212
 51
88.8885406704
  0
LINE
  5
5C
330
A
100
AcDbEntity
  8
1
  6
CONTINUOUS
370
    50
100
AcDbLine
 10
117.717432616
 20
199.8655329167
 30
0.0
 11
117.717432616
 21
126.3677666508
 31
0.0
  0
LINE
  5
5D
330
A
100
AcDbEntity
  8
1
  6
CONTINUOUS
370
    50
100
AcDbLine
 10
117.717432616
 20
199.8655329167
 30
0.0
 11
118.217432616
 21
199.8655329167
 31
0.0
  0
LINE
  5
5E
330
A
100
AcDbEntity
  8
1
  6
CONTINUOUS
370
    50
100
AcDbLine
 10
117.717432616
 20
126.3677666508
 30
0.0
 11
114.867432616
 21
126.3677666508
 31
0.0
  0
LINE
  5
5F
330
A
100
AcDbEntity
  8
1
  6
CONTINUOUS
370
    50
100
AcDbLine
 10
114.867432616
 20
199.8655329167
 30
0.0
 11
117.717432616
 21
199.8655329167
 31
0.0
  0
LINE
  5
60
330
A
100
AcDbEntity
  8
1
  6
CONTINUOUS
370
    50
100
AcDbLine
 10
5.4457726801
 20
190.3941450094
 30
0.0
 11
5.4457726801
 21
149.636920824
 31
0.0
  0
LINE
  5
61
330
A
100
AcDbEntity
  8
1
  6
CONTINUOUS
370
    50
100
AcDbLine
 10
105.192432616
 20
135.0905329167
 30
0.0
 11
105.192432616
 21
204.9405329167
 31
0.0
  0
LINE
  5
62
330
A
100
AcDbEntity
  8
1
  6
CONTINUOUS
370
    50
100
AcDbLine
 10
124.3335121644
 20
200.5155329167
 30
0.0
 11
124.3335121644
 21
139.5155329167
 31
0.0
  0
LINE
  5
63
330
A
100
AcDbEntity
  8
1
  6
CONTINUOUS
370
    50
100
AcDbLine
 10
129.947769415
 20
143.5155329167
 30
0.0
 11
129.947769415
 21
196.5155329167
 31
0.0
  0
LINE
  5
64
330
A
100
AcDbEntity
  8
1
  6
CONTINUOUS
370
    50
100
AcDbLine
 10
113.0592711085
 20
208.5266108684
 30
0.0
 11
114.367432616
 21
205.6165801013
 31
0.0
  0
LINE
  5
65
330
A
100
AcDbEntity
  8
1
  6
CONTINUOUS
370
    50
100
AcDbLine
 10
114.367432616
 20
205.0152114866
 30
0.0
 11
114.367432616
 21
205.6165801013
 31
0.0
  0
ARC
  5
66
330
A
100
AcDbEntity
  8
1
  6
CONTINUOUS
370
    50
100
AcDbCircle
 10
114.9641781614
 20
204.9480802681
 30
0.0
 40
0.6005096556
100
AcDbArc
 50
173.5814650337
 51
260.7289175413
  0
LINE
  5
67
330
A
100
AcDbEntity
  8
1
  6
CONTINUOUS
370
    50
100
AcDbLine
 10
117.717432616
 20
204.3554149782
 30
0.0
 11
114.867432616
 21
204.3554149782
 31
0.0
  0
ARC
  5
68
330
A
100
AcDbEntity
  8
1
  6
CONTINUOUS
370
    50
100
AcDbCircle
 10
117.6523586934
 20
204.9240792145
 30
0.0
 40
0.5723754267
100
AcDbArc
 50
276.5281284858
 51
9.1614889393
  0
LINE
  5
69
330
A
100
AcDbEntity
  8
1
  6
CONTINUOUS
370
    50
100
AcDbLine
 10
118.217432616
 20
205.6165801013
 30
0.0
 11
118.217432616
 21
205.0152114866
 31
0.0
  0
LWPOLYLINE
  5
6A
330
A
100
AcDbEntity
  8
1
  6
CONTINUOUS
370
    50
100
AcDbPolyline
 90
        3
 70
   128
 43
0.0
 10
118.217432616
 20
205.6165801013
 10
118.3057321663
 20
205.8159355143
 10
119.5255941234
 20
208.5266108684
  0
LINE
  5
6F
330
A
100
AcDbEntity
  8
1
  6
CONTINUOUS
370
    50
100
AcDbLine
 10
119.5255941234
 20
208.5266108684
 30
0.0
 11
123.742432616
 21
208.5266108684
 31
0.0
  0
LINE
  5
70
330
A
100
AcDbEntity
  8
1
  6
CONTINUOUS
370
    50
100
AcDbLine
 10
124.242432616
 20
207.8920180361
 30
0.0
 11
123.742432616
 21
208.5266108684
 31
0.0
  0
LINE
  5
71
330
A
100
AcDbEntity
  8
1
  6
CONTINUOUS
370
    50
100
AcDbLine
 10
107.192432616
 20
208.5266108684
 30
0.0
 11
106.692432616
 21
207.8920180361
 31
0.0
  0
LINE
  5
72
330
A
100
AcDbEntity
  8
1
  6
CONTINUOUS
370
    50
100
AcDbLine
 10
107.192432616
 20
208.5266108684
 30
0.0
 11
113.0592711085
 21
208.5266108684
 31
0.0
  0
LINE
  5
73
330
A
100
AcDbEntity
  8
1
  6
CONTINUOUS
370
    50
100
AcDbLine
 10
106.692432616
 20
207.8920180361
 30
0.0
 11
106.692432616
 21
199.8655329167
 31
0.0
  0
LINE
  5
74
330
A
100
AcDbEntity
  8
1
  6
CONTINUOUS
370
    50
100
AcDbLine
 10
124.242432616
 20
207.8920180361
 30
0.0
 11
124.242432616
 21
199.8655329167
 31
0.0
  0
LINE
  5
75
330
A
100
AcDbEntity
  8
1
  6
CONTINUOUS
370
    50
100
AcDbLine
 10
114.867432616
 20
213.6632991826
 30
0.0
 11
114.867432616
 21
204.3554149782
 31
0.0
  0
ARC
  5
76
330
A
100
AcDbEntity
  8
1
  6
CONTINUOUS
370
    50
100
AcDbCircle
 10
114.8766697893
 20
214.1725866433
 30
0.0
 40
0.5093712232
100
AcDbArc
 50
178.6854922084
 51
268.9609148830999
  0
LINE
  5
77
330
A
100
AcDbEntity
  8
1
  6
CONTINUOUS
370
    50
100
AcDbLine
 10
117.717432616
 20
213.6632991826
 30
0.0
 11
117.717432616
 21
204.3554149782
 31
0.0
  0
LINE
  5
78
330
A
100
AcDbEntity
  8
1
  6
CONTINUOUS
370
    50
100
AcDbLine
 10
117.717432616
 20
213.6632991826
 30
0.0
 11
114.867432616
 21
213.6632991826
 31
0.0
  0
ARC
  5
79
330
A
100
AcDbEntity
  8
1
  6
CONTINUOUS
370
    50
100
AcDbCircle
 10
117.7098734043
 20
214.170976231
 30
0.0
 40
0.5077333229
100
AcDbArc
 50
270.8530598850001
 51
1.5005330234
  0
LINE
  5
7A
330
A
100
AcDbEntity
  8
1
  6
CONTINUOUS
370
    50
100
AcDbLine
 10
114.367432616
 20
205.6165801013
 30
0.0
 11
114.367432616
 21
214.6623083954
 31
0.0
  0
LINE
  5
7B
330
A
100
AcDbEntity
  8
1
  6
CONTINUOUS
370
    50
100
AcDbLine
 10
113.0592711085
 20
208.5266108684
 30
0.0
 11
113.0592711085
 21
216.7748702189
 31
0.0
  0
LINE
  5
7C
330
A
100
AcDbEntity
  8
1
  6
CONTINUOUS
370
    50
100
AcDbLine
 10
113.6661905225
 20
215.9248702167
 30
0.0
 11
113.0592711085
 21
216.7748702189
 31
0.0
  0
LINE
  5
7D
330
A
100
AcDbEntity
  8
1
  6
CONTINUOUS
370
    50
100
AcDbLine
 10
113.6661905225
 20
215.9248702167
 30
0.0
 11
114.367432616
 21
214.6623083954
 31
0.0
  0
LINE
  5
7E
330
A
100
AcDbEntity
  8
1
  6
CONTINUOUS
370
    50
100
AcDbLine
 10
118.217432616
 20
214.6623083954
 30
0.0
 11
118.217432616
 21
205.6165801013
 31
0.0
  0
LINE
  5
7F
330
A
100
AcDbEntity
  8
1
  6
CONTINUOUS
370
    50
100
AcDbLine
 10
118.217432616
 20
214.6623083954
 30
0.0
 11
118.9186747094
 21
215.9248702167
 31
0.0
  0
LINE
  5
80
330
A
100
AcDbEntity
  8
1
  6
CONTINUOUS
370
    50
100
AcDbLine
 10
119.5255941234
 20
216.7748702189
 30
0.0
 11
118.9186747094
 21
215.9248702167
 31
0.0
  0
LINE
  5
81
330
A
100
AcDbEntity
  8
1
  6
CONTINUOUS
370
    50
100
AcDbLine
 10
119.5255941234
 20
216.7748702189
 30
0.0
 11
119.5255941234
 21
208.5266108684
 31
0.0
  0
LINE
  5
82
330
A
100
AcDbEntity
  8
1
  6
CONTINUOUS
370
    50
100
AcDbLine
 10
123.742432616
 20
208.5266108684
 30
0.0
 11
123.742432616
 21
216.7748702189
 31
0.0
  0
LINE
  5
83
330
A
100
AcDbEntity
  8
1
  6
CONTINUOUS
370
    50
100
AcDbLine
 10
123.742432616
 20
216.7748702189
 30
0.0
 11
124.242432616
 21
216.3712869086
 31
0.0
  0
LINE
  5
84
330
A
100
AcDbEntity
  8
1
  6
CONTINUOUS
370
    50
100
AcDbLine
 10
124.242432616
 20
216.3712869086
 30
0.0
 11
124.242432616
 21
207.8920180361
 31
0.0
  0
LINE
  5
85
330
A
100
AcDbEntity
  8
1
  6
CONTINUOUS
370
    50
100
AcDbLine
 10
106.692432616
 20
215.8319942052
 30
0.0
 11
107.192432616
 21
216.5173944386
 31
0.0
  0
LINE
  5
86
330
A
100
AcDbEntity
  8
1
  6
CONTINUOUS
370
    50
100
AcDbLine
 10
107.192432616
 20
216.5173944386
 30
0.0
 11
107.192432616
 21
208.5266108684
 31
0.0
  0
LINE
  5
87
330
A
100
AcDbEntity
  8
1
  6
CONTINUOUS
370
    50
100
AcDbLine
 10
106.692432616
 20
207.8920180361
 30
0.0
 11
106.692432616
 21
215.8319942052
 31
0.0
  0
LINE
  5
88
330
A
100
AcDbEntity
  8
1
  6
CONTINUOUS
370
    50
100
AcDbLine
 10
123.742432616
 20
216.7748702189
 30
0.0
 11
119.5255941234
 21
216.7748702189
 31
0.0
  0
LINE
  5
89
330
A
100
AcDbEntity
  8
1
  6
CONTINUOUS
370
    50
100
AcDbLine
 10
113.0592711085
 20
216.7748702189
 30
0.0
 11
108.0424326138
 21
216.7748702189
 31
0.0
  0
LINE
  5
8A
330
A
100
AcDbEntity
  8
1
  6
CONTINUOUS
370
    50
100
AcDbLine
 10
107.192432616
 20
216.5173944386
 30
0.0
 11
108.0424326138
 21
216.7748702189
 31
0.0
  0
LINE
  5
8B
330
A
100
AcDbEntity
  8
1
  6
CONTINUOUS
370
    50
100
AcDbLine
 10
148.0145113032
 20
143.5155329167
 30
0.0
 11
148.0145113032
 21
196.5155329167
 31
0.0
  0
LINE
  5
8C
330
A
100
AcDbEntity
  8
1
  6
CONTINUOUS
370
    50
100
AcDbLine
 10
204.159304512
 20
192.0968418618
 30
0.0
 11
204.159304512
 21
147.9342239715
 31
0.0
  0
LINE
  5
8D
330
A
100
AcDbEntity
  8
1
  6
CONTINUOUS
370
    50
100
AcDbLine
 10
205.192432616
 20
149.6849834517
 30
0.0
 11
205.192432616
 21
190.3460823876
 31
0.0
  0
LINE
  5
8E
330
A
100
AcDbEntity
  8
1
  6
CONTINUOUS
370
    50
100
AcDbLine
 10
3.592432616
 20
151.8528744927
 30
0.0
 11
3.592432616
 21
188.1781913431
 31
0.0
  0
LINE
  5
8F
330
A
100
AcDbEntity
  8
1
  6
CONTINUOUS
370
    50
100
AcDbLine
 10
106.492432616
 20
135.3905329167
 30
0.0
 11
106.492432616
 21
204.6405329167
 31
0.0
  0
LINE
  5
90
330
A
100
AcDbEntity
  8
1
  6
CONTINUOUS
370
    50
100
AcDbLine
 10
105.7353228926
 20
135.3436868102
 30
0.0
 11
105.7353228926
 21
204.6873790232
 31
0.0
  0
LINE
  5
91
330
A
100
AcDbEntity
  8
1
  6
CONTINUOUS
370
    50
100
AcDbLine
 10
105.9466320235
 20
135.3905329167
 30
0.0
 11
105.9466320235
 21
204.6405329167
 31
0.0
  0
LINE
  5
92
330
A
100
AcDbEntity
  8
1
  6
CONTINUOUS
370
    50
100
AcDbLine
 10
5.3746313116
 20
149.6520423887
 30
0.0
 11
5.3746313116
 21
190.3790234447
 31
0.0
  0
LWPOLYLINE
  5
93
330
A
100
AcDbEntity
  8
1
  6
CONTINUOUS
370
    50
100
AcDbPolyline
 90
       25
 70
   128
 43
0.0
 10
123.4149852255
 20
156.3501628981
 10
123.2439594624
 20
155.6936969245
 10
122.9748805571
 20
155.0819680221
 10
122.6260857924
 20
154.5566645047
 10
122.221344955
 20
154.1535849389
 10
121.7882404641
 20
153.900198531
 10
121.3562876752
 20
153.813773146
 10
120.9549234568
 20
153.900198531
 10
120.6115001172
 20
154.1535849389
 10
120.3494213894
 20
154.5566645047
 10
120.1865475057
 20
155.0819680221
 10
120.133978052
 20
155.6936969245
 10
120.1952955498
 20
156.3501628981
 10
120.3663213129
 20
157.0066288718
 10
120.6354002182
 20
157.6183577742
 10
120.984194983
 20
158.1436612916
 10
121.3889358204
 20
158.5467408574
 10
121.8220403112
 20
158.8001272652
 10
122.2539931002
 20
158.8865526502
 10
122.6553573186
 20
158.8001272652
 10
122.9987806582
 20
158.5467408574
 10
123.260859386
 20
158.1436612916
 10
123.4237332697
 20
157.6183577742
 10
123.4763027233
 20
157.0066288718
 10
123.4149852255
 20
156.3501628981
  0
LWPOLYLINE
  5
AE
330
A
100
AcDbEntity
  8
1
  6
CONTINUOUS
370
    50
100
AcDbPolyline
 90
       26
 70
   128
 43
0.0
 10
115.306519959
 20
157.7852139764
 10
115.3118596
 20
157.2707118065
 10
115.3062729877
 20
156.817106347
 10
115.2887560007
 20
156.4687206489
 10
115.249039482
 20
156.2171762858
 10
115.1430929152
 20
156.100611139
 10
115.021741573
 20
156.1143110855
 10
114.8537148222
 20
156.1603755532
 10
114.6124904336
 20
156.229650077
 10
114.20335408
 20
156.3548768123
 10
113.3630126105
 20
156.7224678018
 10
112.7644571954
 20
157.1882960408
 10
112.4711210597
 20
157.6168111989
 10
112.3598524189
 20
158.0307537246
 10
112.4046624828
 20
158.4543681569
 10
112.5835987887
 20
158.8254143468
 10
113.0189816436
 20
159.2696258879
 10
113.8293531814
 20
159.6748301698
 10
114.3582219714
 20
159.782323405
 10
114.6742381407
 20
159.7758705927
 10
114.8875720789
 20
159.7082068556
 10
115.0349609339
 20
159.5843473188
 10
115.1781307414
 20
159.266482227
 10
115.2691808651
 20
158.630864649
 10
115.299930618
 20
158.0352133694
 10
115.306519959
 20
157.7852139764
  0
LWPOLYLINE
  5
CA
330
A
100
AcDbEntity
  8
1
  6
CONTINUOUS
370
    50
100
AcDbPolyline
 90
       23
 70
   128
 43
0.0
 10
122.7223774582
 20
156.4600860533
 10
122.5675699412
 20
155.8829224006
 10
122.3199647336
 20
155.3525171145
 10
121.9996213368
 20
154.9118404769
 10
121.6324920677
 20
154.5965934881
 10
121.2483195562
 20
154.4323155843
 10
120.8782271744
 20
154.4323155843
 10
120.5521976062
 20
154.5965934881
 10
120.2966438281
 20
154.9118404769
 10
120.1322692874
 20
155.3525171145
 10
120.0723906319
 20
155.8829224006
 10
120.121858874
 20
156.4600860533
 10
120.2766663911
 20
157.037249706
 10
120.5242715986
 20
157.5676549921
 10
120.8446149954
 20
158.0083316297
 10
121.2117442646
 20
158.3235786185
 10
121.5959167761
 20
158.4878565223
 10
121.9660091578
 20
158.4878565223
 10
122.292038726
 20
158.3235786185
 10
122.5475925041
 20
158.0083316297
 10
122.7119670448
 20
157.5676549921
 10
122.7718457004
 20
157.037249706
 10
122.7223774582
 20
156.4600860533
  0
LWPOLYLINE
  5
E3
330
A
100
AcDbEntity
  8
1
  6
CONTINUOUS
370
    50
100
AcDbPolyline
 90
       23
 70
   128
 43
0.0
 10
113.5375045852
 20
159.0960433149
 10
113.3826970682
 20
158.5188796622
 10
113.1350918606
 20
157.9884743761
 10
112.8147484638
 20
157.5477977385
 10
112.4476191947
 20
157.2325507497
 10
112.0634466832
 20
157.0682728459
 10
111.6933543014
 20
157.0682728459
 10
111.3673247332
 20
157.2325507497
 10
111.1117709551
 20
157.5477977385
 10
110.9473964144
 20
157.9884743761
 10
110.8875177589
 20
158.5188796622
 10
110.936986001
 20
159.0960433149
 10
111.0917935181
 20
159.6732069676
 10
111.3393987256
 20
160.2036122537
 10
111.6597421224
 20
160.6442888913
 10
112.0268713916
 20
160.9595358801
 10
112.4110439031
 20
161.1238137839
 10
112.7811362848
 20
161.1238137839
 10
113.107165853
 20
160.9595358801
 10
113.3627196311
 20
160.6442888913
 10
113.5270941718
 20
160.2036122537
 10
113.5869728274
 20
159.6732069676
 10
113.5375045852
 20
159.0960433149
  0
LINE
  5
FC
330
A
100
AcDbEntity
  8
1
  6
CONTINUOUS
370
    50
100
AcDbLine
 10
106.9455865095
 20
134.7155329167
 30
0.0
 11
106.9455865095
 21
206.258191948
 31
0.0
  0
LINE
  5
FD
330
A
100
AcDbEntity
  8
1
  6
CONTINUOUS
370
    50
100
AcDbLine
 10
106.992432616
 20
134.7155329167
 30
0.0
 11
106.992432616
 21
206.0468828172
 31
0.0
  0
LWPOLYLINE
  5
FE
330
A
100
AcDbEntity
  8
1
  6
CONTINUOUS
370
    50
100
AcDbPolyline
 90
       25
 70
   128
 43
0.0
 10
113.7775125774
 20
159.098241778
 10
113.6130647283
 20
158.4670244957
 10
113.3543350116
 20
157.878823628
 10
113.0189554302
 20
157.373724092
 10
112.629781548
 20
156.9861475865
 10
112.2133349222
 20
156.7425068096
 10
111.797995702
 20
156.6594054779
 10
111.412068569
 20
156.7425068096
 10
111.0818538193
 20
156.9861475865
 10
110.8298550427
 20
157.373724092
 10
110.6732455391
 20
157.878823628
 10
110.6226979875
 20
158.4670244957
 10
110.68165712
 20
159.098241778
 10
110.8461049691
 20
159.7294590604
 10
111.1048346857
 20
160.3176599281
 10
111.4402142672
 20
160.822759464
 10
111.8293881493
 20
161.2103359696
 10
112.2458347752
 20
161.4539767464
 10
112.6611739953
 20
161.5370780781
 10
113.0471011284
 20
161.4539767464
 10
113.377315878
 20
161.2103359696
 10
113.6293146547
 20
160.822759464
 10
113.7859241583
 20
160.3176599281
 10
113.8364717099
 20
159.7294590604
 10
113.7775125774
 20
159.098241778
  0
LWPOLYLINE
  5
119
330
A
100
AcDbEntity
  8
1
  6
CONTINUOUS
370
    50
100
AcDbPolyline
 90
       25
 70
   128
 43
0.0
 10
113.7851730218
 20
159.0960433149
 10
113.6207251727
 20
158.4648260326
 10
113.3619954561
 20
157.8766251649
 10
113.0266158746
 20
157.3715256289
 10
112.6374419925
 20
156.9839491233
 10
112.2209953667
 20
156.7403083465
 10
111.8056561465
 20
156.6572070148
 10
111.4197290134
 20
156.7403083465
 10
111.0895142638
 20
156.9839491233
 10
110.8375154871
 20
157.3715256289
 10
110.6809059835
 20
157.8766251649
 10
110.6303584319
 20
158.4648260326
 10
110.6893175644
 20
159.0960433149
 10
110.8537654136
 20
159.7272605973
 10
111.1124951302
 20
160.315461465
 10
111.4478747117
 20
160.8205610009
 10
111.8370485938
 20
161.2081375065
 10
112.2534952196
 20
161.4517782833
 10
112.6688344398
 20
161.534879615
 10
113.0547615729
 20
161.4517782833
 10
113.3849763225
 20
161.2081375065
 10
113.6369750992
 20
160.8205610009
 10
113.7935846027
 20
160.315461465
 10
113.8441321543
 20
159.7272605973
 10
113.7851730218
 20
159.0960433149
  0
LWPOLYLINE
  5
134
330
A
100
AcDbEntity
  8
1
  6
CONTINUOUS
370
    50
100
AcDbPolyline
 90
       23
 70
   128
 43
0.0
 10
113.5298441408
 20
159.098241778
 10
113.3750366238
 20
158.5210781253
 10
113.1274314162
 20
157.9906728392
 10
112.8070880194
 20
157.5499962016
 10
112.4399587502
 20
157.2347492128
 10
112.0557862387
 20
157.070471309
 10
111.685693857
 20
157.070471309
 10
111.3596642888
 20
157.2347492128
 10
111.1041105107
 20
157.5499962016
 10
110.93973597
 20
157.9906728392
 10
110.8798573145
 20
158.5210781253
 10
110.9293255566
 20
159.098241778
 10
111.0841330736
 20
159.6754054307
 10
111.3317382812
 20
160.2058107168
 10
111.652081678
 20
160.6464873544
 10
112.0192109471
 20
160.9617343432
 10
112.4033834586
 20
161.126012247
 10
112.7734758404
 20
161.126012247
 10
113.0995054086
 20
160.9617343432
 10
113.3550591867
 20
160.6464873544
 10
113.5194337274
 20
160.2058107168
 10
113.5793123829
 20
159.6754054307
 10
113.5298441408
 20
159.098241778
  0
LWPOLYLINE
  5
14D
330
A
100
AcDbEntity
  8
1
  6
CONTINUOUS
370
    50
100
AcDbPolyline
 90
       22
 70
   128
 43
0.0
 10
89.8311163123
 20
165.8995154129
 10
89.3846258161
 20
165.3844428329
 10
88.5029170607
 20
164.8925747755
 10
86.918054722
 20
164.542012853
 10
86.0894770157
 20
164.5348411845
 10
85.2466353443
 20
164.6605160791
 10
84.3865847849
 20
164.9923320488
 10
83.8290053809
 20
165.4340650615
 10
83.5330387951
 20
165.9098558113
 10
83.4357425768
 20
166.4643423202
 10
83.5403052765
 20
166.9676296558
 10
83.804901047
 20
167.422405766
 10
84.3536153032
 20
167.9154669671
 10
85.2867086899
 20
168.323208447
 10
86.7427253772
 20
168.461789159
 10
88.223893806
 20
168.1602212086
 10
89.1466321858
 20
167.6912624034
 10
89.6542500151
 20
167.2278037976
 10
89.8940967712
 20
166.8194991559
 10
89.9690723003
 20
166.4414709071
 10
89.9058519728
 20
166.0661382345
 10
89.8311163123
 20
165.8995154129
  0
LINE
  5
165
330
A
100
AcDbEntity
  8
1
  6
CONTINUOUS
370
    50
100
AcDbLine
 10
106.692432616
 20
133.9655329167
 30
0.0
 11
108.892432616
 21
133.9655329167
 31
0.0
  0
LINE
  5
166
330
A
100
AcDbEntity
  8
1
  6
CONTINUOUS
370
    50
100
AcDbLine
 10
108.892432616
 20
208.2655329167
 30
0.0
 11
106.692432616
 21
208.2655329167
 31
0.0
  0
LINE
  5
167
330
A
100
AcDbEntity
  8
1
  6
CONTINUOUS
370
    50
100
AcDbLine
 10
4.3529041087
 20
157.0851089995
 30
0.0
 11
4.3529041087
 21
182.9459568339
 31
0.0
  0
LINE
  5
168
330
A
100
AcDbEntity
  8
1
  6
CONTINUOUS
370
    50
100
AcDbLine
 10
108.5817724442
 20
134.7155329167
 30
0.0
 11
106.692432616
 21
134.7155329167
 31
0.0
  0
LINE
  5
169
330
A
100
AcDbEntity
  8
1
  6
CONTINUOUS
370
    50
100
AcDbLine
 10
106.692432616
 20
207.5155329167
 30
0.0
 11
108.5817724442
 21
207.5155329167
 31
0.0
  0
LINE
  5
16A
330
A
100
AcDbEntity
  8
1
  6
CONTINUOUS
370
    50
100
AcDbLine
 10
204.1292105916
 20
157.5155329167
 30
0.0
 11
204.1292105916
 21
182.5155329167
 31
0.0
  0
LINE
  5
16B
330
A
100
AcDbEntity
  8
1
  6
CONTINUOUS
370
    50
100
AcDbLine
 10
108.0424326138
 20
123.2561956145
 30
0.0
 11
108.892432616
 21
124.1061956167
 31
0.0
  0
LINE
  5
16C
330
A
100
AcDbEntity
  8
1
  6
CONTINUOUS
370
    50
100
AcDbLine
 10
108.0424326138
 20
216.7748702189
 30
0.0
 11
108.892432616
 21
215.9248702167
 31
0.0
  0
LINE
  5
16D
330
A
100
AcDbEntity
  8
1
  6
CONTINUOUS
370
    50
100
AcDbLine
 10
4.8529041087
 20
157.3737841341
 30
0.0
 11
4.8529041087
 21
182.6572816993
 31
0.0
  0
LINE
  5
16E
330
A
100
AcDbEntity
  8
1
  6
CONTINUOUS
370
    50
100
AcDbLine
 10
108.892432616
 20
124.1061956167
 30
0.0
 11
113.6661905225
 21
124.1061956167
 31
0.0
  0
LINE
  5
16F
330
A
100
AcDbEntity
  8
1
  6
CONTINUOUS
370
    50
100
AcDbLine
 10
118.9186747094
 20
124.1061956167
 30
0.0
 11
124.242432616
 21
124.1061956167
 31
0.0
  0
LINE
  5
170
330
A
100
AcDbEntity
  8
1
  6
CONTINUOUS
370
    50
100
AcDbLine
 10
108.892432616
 20
124.1061956167
 30
0.0
 11
108.892432616
 21
133.9655329167
 31
0.0
  0
LINE
  5
171
330
A
100
AcDbEntity
  8
1
  6
CONTINUOUS
370
    50
100
AcDbLine
 10
108.892432616
 20
133.9655329167
 30
0.0
 11
124.242432616
 21
133.9655329167
 31
0.0
  0
LINE
  5
172
330
A
100
AcDbEntity
  8
1
  6
CONTINUOUS
370
    50
100
AcDbLine
 10
124.242432616
 20
134.7155329167
 30
0.0
 11
108.5817724442
 21
134.7155329167
 31
0.0
  0
LINE
  5
173
330
A
100
AcDbEntity
  8
1
  6
CONTINUOUS
370
    50
100
AcDbLine
 10
108.892432616
 20
133.9655329167
 30
0.0
 11
108.5817724442
 21
134.7155329167
 31
0.0
  0
LINE
  5
174
330
A
100
AcDbEntity
  8
1
  6
CONTINUOUS
370
    50
100
AcDbLine
 10
108.892432616
 20
215.9248702167
 30
0.0
 11
113.6661905225
 21
215.9248702167
 31
0.0
  0
LINE
  5
175
330
A
100
AcDbEntity
  8
1
  6
CONTINUOUS
370
    50
100
AcDbLine
 10
118.9186747094
 20
215.9248702167
 30
0.0
 11
124.242432616
 21
215.9248702167
 31
0.0
  0
LINE
  5
176
330
A
100
AcDbEntity
  8
1
  6
CONTINUOUS
370
    50
100
AcDbLine
 10
108.892432616
 20
215.9248702167
 30
0.0
 11
108.892432616
 21
208.2655329167
 31
0.0
  0
LINE
  5
177
330
A
100
AcDbEntity
  8
1
  6
CONTINUOUS
370
    50
100
AcDbLine
 10
124.242432616
 20
208.2655329167
 30
0.0
 11
108.892432616
 21
208.2655329167
 31
0.0
  0
LINE
  5
178
330
A
100
AcDbEntity
  8
1
  6
CONTINUOUS
370
    50
100
AcDbLine
 10
108.5817724442
 20
207.5155329167
 30
0.0
 11
124.242432616
 21
207.5155329167
 31
0.0
  0
LINE
  5
179
330
A
100
AcDbEntity
  8
1
  6
CONTINUOUS
370
    50
100
AcDbLine
 10
108.892432616
 20
208.2655329167
 30
0.0
 11
108.5817724442
 21
207.5155329167
 31
0.0
  0
LINE
  5
17A
330
A
100
AcDbEntity
  8
1
  6
CONTINUOUS
370
    50
100
AcDbLine
 10
147.692432616
 20
182.7155329167
 30
0.0
 11
147.692432616
 21
157.3155329167
 31
0.0
  0
LINE
  5
17B
330
A
100
AcDbEntity
  8
1
  6
CONTINUOUS
370
    50
100
AcDbLine
 10
147.192432616
 20
157.8155329178
 30
0.0
 11
147.192432616
 21
182.2155329167
 31
0.0
  0
LINE
  5
17C
330
A
100
AcDbEntity
  8
1
  6
CONTINUOUS
370
    50
100
AcDbLine
 10
157.1924326198
 20
182.5155329167
 30
0.0
 11
157.1924326198
 21
157.5155329167
 31
0.0
  0
LINE
  5
17D
330
A
100
AcDbEntity
  8
1
  6
CONTINUOUS
370
    50
100
AcDbLine
 10
157.076962566
 20
157.3155329167
 30
0.0
 11
157.076962566
 21
182.7155329167
 31
0.0
  0
LINE
  5
17E
330
A
100
AcDbEntity
  8
1
  6
CONTINUOUS
370
    50
100
AcDbLine
 10
15.292432616
 20
182.6655329167
 30
0.0
 11
15.292432616
 21
157.3655329167
 31
0.0
  0
LINE
  5
17F
330
A
100
AcDbEntity
  8
1
  6
CONTINUOUS
370
    50
100
AcDbLine
 10
12.5821440477
 20
182.6655329167
 30
0.0
 11
12.5821440477
 21
157.3655329167
 31
0.0
  0
LINE
  5
180
330
A
100
AcDbEntity
  8
1
  6
CONTINUOUS
370
    50
100
AcDbLine
 10
16.4976513029
 20
180.5780329167
 30
0.0
 11
16.4976513029
 21
159.4530329167
 31
0.0
  0
LINE
  5
181
330
A
100
AcDbEntity
  8
1
  6
CONTINUOUS
370
    50
100
AcDbLine
 10
12.3223364266
 20
182.5155329167
 30
0.0
 11
12.3223364266
 21
157.5155329167
 31
0.0
  0
LINE
  5
182
330
A
100
AcDbEntity
  8
1
  6
CONTINUOUS
370
    50
100
AcDbLine
 10
5.592432616
 20
182.5155329167
 30
0.0
 11
5.592432616
 21
157.5155329167
 31
0.0
  0
LINE
  5
183
330
A
100
AcDbEntity
  8
1
  6
CONTINUOUS
370
    50
100
AcDbLine
 10
52.592432616
 20
182.0155329167
 30
0.0
 11
52.592432616
 21
158.0155329167
 31
0.0
  0
LINE
  5
184
330
A
100
AcDbEntity
  8
1
  6
CONTINUOUS
370
    50
100
AcDbLine
 10
52.602432616
 20
182.0155329167
 30
0.0
 11
52.602432616
 21
158.0155329167
 31
0.0
  0
LINE
  5
185
330
A
100
AcDbEntity
  8
1
  6
CONTINUOUS
370
    50
100
AcDbLine
 10
67.592432616
 20
180.5780329167
 30
0.0
 11
67.592432616
 21
159.4530329167
 31
0.0
  0
LINE
  5
186
330
A
100
AcDbEntity
  8
1
  6
CONTINUOUS
370
    50
100
AcDbLine
 10
67.6151807556
 20
180.5155329167
 30
0.0
 11
67.6151807556
 21
159.5155329167
 31
0.0
  0
LINE
  5
187
330
A
100
AcDbEntity
  8
1
  6
CONTINUOUS
370
    50
100
AcDbLine
 10
115.3244834236
 20
162.5155329167
 30
0.0
 11
115.3244834236
 21
177.5155329167
 31
0.0
  0
LINE
  5
188
330
A
100
AcDbEntity
  8
1
  6
CONTINUOUS
370
    50
100
AcDbLine
 10
113.592432616
 20
180.5155329167
 30
0.0
 11
113.592432616
 21
159.5155329167
 31
0.0
  0
LWPOLYLINE
  5
189
330
A
100
AcDbEntity
  8
1
  6
CONTINUOUS
370
    50
100
AcDbPolyline
 90
       22
 70
   128
 43
0.0
 10
89.8311163123
 20
174.1315504205
 10
89.3846258161
 20
174.6466230005
 10
88.5029170607
 20
175.1384910578
 10
86.918054722
 20
175.4890529804
 10
86.075194556
 20
175.4956180375
 10
85.2466353443
 20
175.3705497543
 10
84.3865847849
 20
175.0387337846
 10
83.8290053809
 20
174.5970007719
 10
83.5330387951
 20
174.1212100221
 10
83.4357425768
 20
173.5667235132
 10
83.5403052765
 20
173.0634361775
 10
83.804901047
 20
172.6086600673
 10
84.3536153032
 20
172.1155988662
 10
85.2867086899
 20
171.7078573863
 10
86.7427253772
 20
171.5692766744
 10
88.223893806
 20
171.8708446248
 10
89.1466321858
 20
172.33980343
 10
89.6542500151
 20
172.8032620358
 10
89.8940967712
 20
173.2115666775
 10
89.9690723003
 20
173.5895949262
 10
89.9058519728
 20
173.9649275988
 10
89.8311163123
 20
174.1315504205
  0
LINE
  5
1A1
330
A
100
AcDbEntity
  8
1
  6
CONTINUOUS
370
    50
100
AcDbLine
 10
111.292432616
 20
207.3155329167
 30
0.0
 11
121.292432616
 21
207.3155329167
 31
0.0
  0
LINE
  5
1A2
330
A
100
AcDbEntity
  8
1
  6
CONTINUOUS
370
    50
100
AcDbLine
 10
111.5924328195
 20
202.8155329167
 30
0.0
 11
120.992432616
 21
202.8155329167
 31
0.0
  0
LINE
  5
1A3
330
A
100
AcDbEntity
  8
1
  6
CONTINUOUS
370
    50
100
AcDbLine
 10
121.292432616
 20
203.1155329167
 30
0.0
 11
111.292432616
 21
203.1155329167
 31
0.0
  0
LINE
  5
1A4
330
A
100
AcDbEntity
  8
1
  6
CONTINUOUS
370
    50
100
AcDbLine
 10
115.192432616
 20
202.4155329167
 30
0.0
 11
117.392432616
 21
202.4155329167
 31
0.0
  0
LINE
  5
1A5
330
A
100
AcDbEntity
  8
1
  6
CONTINUOUS
370
    50
100
AcDbLine
 10
115.042432616
 20
199.0155329167
 30
0.0
 11
117.542432616
 21
199.0155329167
 31
0.0
  0
LINE
  5
1A6
330
A
100
AcDbEntity
  8
1
  6
CONTINUOUS
370
    50
100
AcDbLine
 10
115.042432616
 20
199.0055329167
 30
0.0
 11
117.542432616
 21
199.0055329167
 31
0.0
  0
LINE
  5
1A7
330
A
100
AcDbEntity
  8
1
  6
CONTINUOUS
370
    50
100
AcDbLine
 10
115.192432616
 20
196.4155329167
 30
0.0
 11
117.392432616
 21
196.4155329167
 31
0.0
  0
LWPOLYLINE
  5
1A8
330
A
100
AcDbEntity
  8
1
  6
CONTINUOUS
370
    50
100
AcDbPolyline
 90
       23
 70
   128
 43
0.0
 10
113.5298441408
 20
180.9328240553
 10
113.3750366238
 20
181.5099877081
 10
113.1274314162
 20
182.0403929941
 10
112.8070880194
 20
182.4810696318
 10
112.4399587502
 20
182.7963166206
 10
112.0557862387
 20
182.9605945244
 10
111.685693857
 20
182.9605945244
 10
111.3596642888
 20
182.7963166206
 10
111.1041105107
 20
182.4810696318
 10
110.93973597
 20
182.0403929941
 10
110.8798573145
 20
181.5099877081
 10
110.9293255566
 20
180.9328240553
 10
111.0841330736
 20
180.3556604026
 10
111.3317382812
 20
179.8252551166
 10
111.652081678
 20
179.3845784789
 10
112.0192109471
 20
179.0693314901
 10
112.4033834586
 20
178.9050535863
 10
112.7734758404
 20
178.9050535863
 10
113.0995054086
 20
179.0693314901
 10
113.3550591867
 20
179.3845784789
 10
113.5194337274
 20
179.8252551166
 10
113.5793123829
 20
180.3556604026
 10
113.5298441408
 20
180.9328240553
  0
LINE
  5
1C1
330
A
100
AcDbEntity
  8
1
  6
CONTINUOUS
370
    50
100
AcDbLine
 10
117.717432616
 20
126.3677666508
 30
0.0
 11
117.717432616
 21
213.6632991826
 31
0.0
  0
LINE
  5
1C2
330
A
100
AcDbEntity
  8
1
  6
CONTINUOUS
370
    50
100
AcDbLine
 10
118.217432616
 20
199.8655329167
 30
0.0
 11
118.217432616
 21
205.0152114866
 31
0.0
  0
LINE
  5
1C3
330
A
100
AcDbEntity
  8
1
  6
CONTINUOUS
370
    50
100
AcDbLine
 10
114.867432616
 20
126.3677666508
 30
0.0
 11
114.867432616
 21
213.6632991826
 31
0.0
  0
LINE
  5
1C4
330
A
100
AcDbEntity
  8
1
  6
CONTINUOUS
370
    50
100
AcDbLine
 10
114.367432616
 20
199.8655329167
 30
0.0
 11
114.367432616
 21
205.0152114866
 31
0.0
  0
LINE
  5
1C5
330
A
100
AcDbEntity
  8
1
  6
CONTINUOUS
370
    50
100
AcDbLine
 10
113.0592711085
 20
208.5266108684
 30
0.0
 11
113.0592711085
 21
199.8655329167
 31
0.0
  0
LINE
  5
1C6
330
A
100
AcDbEntity
  8
1
  6
CONTINUOUS
370
    50
100
AcDbLine
 10
123.742432616
 20
208.5266108684
 30
0.0
 11
123.742432616
 21
199.8655329167
 31
0.0
  0
LINE
  5
1C7
330
A
100
AcDbEntity
  8
1
  6
CONTINUOUS
370
    50
100
AcDbLine
 10
119.5255941234
 20
199.8655329167
 30
0.0
 11
119.5255941234
 21
208.5266108684
 31
0.0
  0
LINE
  5
1C8
330
A
100
AcDbEntity
  8
1
  6
CONTINUOUS
370
    50
100
AcDbLine
 10
107.192432616
 20
199.8655329167
 30
0.0
 11
107.192432616
 21
208.5266108684
 31
0.0
  0
LWPOLYLINE
  5
1C9
330
A
100
AcDbEntity
  8
1
  6
CONTINUOUS
370
    50
100
AcDbPolyline
 90
       25
 70
   128
 43
0.0
 10
113.7851730218
 20
180.9350225185
 10
113.6207251727
 20
181.5662398008
 10
113.3619954561
 20
182.1544406685
 10
113.0266158746
 20
182.6595402045
 10
112.6374419925
 20
183.04711671
 10
112.2209953667
 20
183.2907574868
 10
111.8056561465
 20
183.3738588186
 10
111.4197290134
 20
183.2907574868
 10
111.0895142638
 20
183.04711671
 10
110.8375154871
 20
182.6595402045
 10
110.6809059835
 20
182.1544406685
 10
110.6303584319
 20
181.5662398008
 10
110.6893175644
 20
180.9350225185
 10
110.8537654136
 20
180.3038052361
 10
111.1124951302
 20
179.7156043684
 10
111.4478747117
 20
179.2105048324
 10
111.8370485938
 20
178.8229283269
 10
112.2534952196
 20
178.5792875501
 10
112.6688344398
 20
178.4961862183
 10
113.0547615729
 20
178.5792875501
 10
113.3849763225
 20
178.8229283269
 10
113.6369750992
 20
179.2105048324
 10
113.7935846027
 20
179.7156043684
 10
113.8441321543
 20
180.3038052361
 10
113.7851730218
 20
180.9350225185
  0
LWPOLYLINE
  5
1E4
330
A
100
AcDbEntity
  8
1
  6
CONTINUOUS
370
    50
100
AcDbPolyline
 90
       25
 70
   128
 43
0.0
 10
113.7775125774
 20
180.9328240553
 10
113.6130647283
 20
181.5640413377
 10
113.3543350116
 20
182.1522422054
 10
113.0189554302
 20
182.6573417414
 10
112.629781548
 20
183.0449182469
 10
112.2133349222
 20
183.2885590237
 10
111.797995702
 20
183.3716603555
 10
111.412068569
 20
183.2885590237
 10
111.0818538193
 20
183.0449182469
 10
110.8298550427
 20
182.6573417414
 10
110.6732455391
 20
182.1522422054
 10
110.6226979875
 20
181.5640413377
 10
110.68165712
 20
180.9328240553
 10
110.8461049691
 20
180.301606773
 10
111.1048346857
 20
179.7134059053
 10
111.4402142672
 20
179.2083063693
 10
111.8293881493
 20
178.8207298638
 10
112.2458347752
 20
178.577089087
 10
112.6611739953
 20
178.4939877552
 10
113.0471011284
 20
178.577089087
 10
113.377315878
 20
178.8207298638
 10
113.6293146547
 20
179.2083063693
 10
113.7859241583
 20
179.7134059053
 10
113.8364717099
 20
180.301606773
 10
113.7775125774
 20
180.9328240553
  0
LWPOLYLINE
  5
1FF
330
A
100
AcDbEntity
  8
1
  6
CONTINUOUS
370
    50
100
AcDbPolyline
 90
       23
 70
   128
 43
0.0
 10
113.5375045852
 20
180.9350225185
 10
113.3826970682
 20
181.5121861712
 10
113.1350918606
 20
182.0425914572
 10
112.8147484638
 20
182.4832680949
 10
112.4476191947
 20
182.7985150837
 10
112.0634466832
 20
182.9627929875
 10
111.6933543014
 20
182.9627929875
 10
111.3673247332
 20
182.7985150837
 10
111.1117709551
 20
182.4832680949
 10
110.9473964144
 20
182.0425914572
 10
110.8875177589
 20
181.5121861712
 10
110.936986001
 20
180.9350225185
 10
111.0917935181
 20
180.3578588658
 10
111.3393987256
 20
179.8274535797
 10
111.6597421224
 20
179.386776942
 10
112.0268713916
 20
179.0715299532
 10
112.4110439031
 20
178.9072520495
 10
112.7811362848
 20
178.9072520495
 10
113.107165853
 20
179.0715299532
 10
113.3627196311
 20
179.386776942
 10
113.5270941718
 20
179.8274535797
 10
113.5869728274
 20
180.3578588658
 10
113.5375045852
 20
180.9350225185
  0
LWPOLYLINE
  5
218
330
A
100
AcDbEntity
  8
1
  6
CONTINUOUS
370
    50
100
AcDbPolyline
 90
       25
 70
   128
 43
0.0
 10
115.306519959
 20
182.245851857
 10
115.2837142243
 20
181.6202719845
 10
115.2345646575
 20
181.0640822261
 10
115.0974762992
 20
180.5445080531
 10
114.9615799901
 20
180.3721671013
 10
114.7763728805
 20
180.2776661882
 10
114.5363610237
 20
180.2431963508
 10
114.0442913396
 20
180.2984056404
 10
113.14387101
 20
180.674713877
 10
112.6661109212
 20
181.0949701158
 10
112.424750935
 20
181.5152837988
 10
112.3594241577
 20
181.9949770079
 10
112.4643309589
 20
182.3992829691
 10
112.7647371005
 20
182.8430707732
 10
113.3736028685
 20
183.3147238134
 10
114.2908284968
 20
183.704670409
 10
114.6180391709
 20
183.8030166467
 10
114.8481367103
 20
183.8690892828
 10
115.0126205249
 20
183.9145415029
 10
115.1589173809
 20
183.9272787146
 10
115.2612109388
 20
183.7666447392
 10
115.2973573591
 20
183.4371305329
 10
115.3101615263
 20
183.0204845848
 10
115.3105388622
 20
182.5043890444
 10
115.306519959
 20
182.245851857
  0
LWPOLYLINE
  5
233
330
A
100
AcDbEntity
  8
1
  6
CONTINUOUS
370
    50
100
AcDbPolyline
 90
       23
 70
   128
 43
0.0
 10
122.7223774582
 20
183.5709797801
 10
122.5675699412
 20
184.1481434328
 10
122.3199647336
 20
184.6785487189
 10
121.9996213368
 20
185.1192253565
 10
121.6324920677
 20
185.4344723453
 10
121.2483195562
 20
185.5987502491
 10
120.8782271744
 20
185.5987502491
 10
120.5521976062
 20
185.4344723453
 10
120.2966438281
 20
185.1192253565
 10
120.1322692874
 20
184.6785487189
 10
120.0723906319
 20
184.1481434328
 10
120.121858874
 20
183.5709797801
 10
120.2766663911
 20
182.9938161274
 10
120.5242715986
 20
182.4634108413
 10
120.8446149954
 20
182.0227342036
 10
121.2117442646
 20
181.7074872148
 10
121.5959167761
 20
181.5432093111
 10
121.9660091578
 20
181.5432093111
 10
122.292038726
 20
181.7074872148
 10
122.5475925041
 20
182.0227342036
 10
122.7119670448
 20
182.4634108413
 10
122.7718457004
 20
182.9938161274
 10
122.7223774582
 20
183.5709797801
  0
LINE
  5
24C
330
A
100
AcDbEntity
  8
1
  6
CONTINUOUS
370
    50
100
AcDbLine
 10
120.142432616
 20
188.9731641126
 30
0.0
 11
120.142432616
 21
194.3670559131
 31
0.0
  0
LINE
  5
24D
330
A
100
AcDbEntity
  8
1
  6
CONTINUOUS
370
    50
100
AcDbLine
 10
120.142432616
 20
186.8670559131
 30
0.0
 11
120.142432616
 21
188.9731641126
 31
0.0
  0
LWPOLYLINE
  5
24E
330
A
100
AcDbEntity
  8
1
  6
CONTINUOUS
370
    50
100
AcDbPolyline
 90
       25
 70
   128
 43
0.0
 10
123.4149852255
 20
183.6809029353
 10
123.2439594624
 20
184.3373689089
 10
122.9748805571
 20
184.9490978113
 10
122.6260857924
 20
185.4744013287
 10
122.221344955
 20
185.8774808945
 10
121.7882404641
 20
186.1308673024
 10
121.3562876752
 20
186.2172926874
 10
120.9549234568
 20
186.1308673024
 10
120.6115001172
 20
185.8774808945
 10
120.3494213894
 20
185.4744013287
 10
120.1865475057
 20
184.9490978113
 10
120.133978052
 20
184.3373689089
 10
120.1952955498
 20
183.6809029353
 10
120.3663213129
 20
183.0244369616
 10
120.6354002182
 20
182.4127080592
 10
120.984194983
 20
181.8874045418
 10
121.3889358204
 20
181.484324976
 10
121.8220403112
 20
181.2309385681
 10
122.2539931002
 20
181.1445131831
 10
122.6553573186
 20
181.2309385681
 10
122.9987806582
 20
181.484324976
 10
123.260859386
 20
181.8874045418
 10
123.4237332697
 20
182.4127080592
 10
123.4763027233
 20
183.0244369616
 10
123.4149852255
 20
183.6809029353
  0
LINE
  5
269
330
A
100
AcDbEntity
  8
1
  6
CONTINUOUS
370
    50
100
AcDbLine
 10
120.142432616
 20
173.5017626266
 30
0.0
 11
120.142432616
 21
177.2517626266
 31
0.0
  0
LINE
  5
26A
330
A
100
AcDbEntity
  8
1
  6
CONTINUOUS
370
    50
100
AcDbLine
 10
120.142432616
 20
169.7517626266
 30
0.0
 11
120.142432616
 21
173.5017626266
 31
0.0
  0
LINE
  5
26B
330
A
100
AcDbEntity
  8
1
  6
CONTINUOUS
370
    50
100
AcDbLine
 10
121.292432616
 20
150.0155329167
 30
0.0
 11
123.292432616
 21
150.0155329167
 31
0.0
  0
LINE
  5
26C
330
A
100
AcDbEntity
  8
1
  6
CONTINUOUS
370
    50
100
AcDbLine
 10
123.292432616
 20
150.0155329167
 30
0.0
 11
123.292432616
 21
190.0155329167
 31
0.0
  0
LINE
  5
26D
330
A
100
AcDbEntity
  8
1
  6
CONTINUOUS
370
    50
100
AcDbLine
 10
108.492432616
 20
190.0155329167
 30
0.0
 11
108.492432616
 21
150.0155329167
 31
0.0
  0
LINE
  5
26E
330
A
100
AcDbEntity
  8
1
  6
CONTINUOUS
370
    50
100
AcDbLine
 10
108.492432616
 20
150.0155329167
 30
0.0
 11
112.492432616
 21
150.0155329167
 31
0.0
  0
LINE
  5
26F
330
A
100
AcDbEntity
  8
1
  6
CONTINUOUS
370
    50
100
AcDbLine
 10
112.492432616
 20
150.0155329167
 30
0.0
 11
112.492432616
 21
181.4141316796
 31
0.0
  0
LINE
  5
270
330
A
100
AcDbEntity
  8
1
  6
CONTINUOUS
370
    50
100
AcDbLine
 10
112.492432616
 20
182.450989712
 30
0.0
 11
112.492432616
 21
190.0155329167
 31
0.0
  0
LINE
  5
271
330
A
100
AcDbEntity
  8
1
  6
CONTINUOUS
370
    50
100
AcDbLine
 10
121.292432616
 20
190.0155329167
 30
0.0
 11
121.292432616
 21
150.0155329167
 31
0.0
  0
LINE
  5
272
330
A
100
AcDbEntity
  8
1
  6
CONTINUOUS
370
    50
100
AcDbLine
 10
123.292432616
 20
190.0155329167
 30
0.0
 11
121.292432616
 21
190.0155329167
 31
0.0
  0
LINE
  5
273
330
A
100
AcDbEntity
  8
1
  6
CONTINUOUS
370
    50
100
AcDbLine
 10
112.492432616
 20
190.0155329167
 30
0.0
 11
108.492432616
 21
190.0155329167
 31
0.0
  0
LINE
  5
274
330
A
100
AcDbEntity
  8
1
  6
CONTINUOUS
370
    50
100
AcDbLine
 10
121.0879207706
 20
153.8510438492
 30
0.0
 11
124.242432616
 21
152.9457337245
 31
0.0
  0
LINE
  5
275
330
A
100
AcDbEntity
  8
1
  6
CONTINUOUS
370
    50
100
AcDbLine
 10
124.242432616
 20
158.3556400695
 30
0.0
 11
122.5223600047
 21
158.8492819471
 31
0.0
  0
LINE
  5
276
330
A
100
AcDbEntity
  8
1
  6
CONTINUOUS
370
    50
100
AcDbLine
 10
106.692432616
 20
153.6739903479
 30
0.0
 11
115.1584567223
 21
156.1036459379
 31
0.0
  0
LINE
  5
277
330
A
100
AcDbEntity
  8
1
  6
CONTINUOUS
370
    50
100
AcDbLine
 10
113.8889708425
 20
159.6927105834
 30
0.0
 11
106.692432616
 21
157.6273834462
 31
0.0
  0
LINE
  5
278
330
A
100
AcDbEntity
  8
1
  6
CONTINUOUS
370
    50
100
AcDbLine
 10
121.1289603861
 20
158.308845739
 30
0.0
 11
120.8759727803
 21
158.0420991171
 31
0.0
  0
LINE
  5
279
330
A
100
AcDbEntity
  8
1
  6
CONTINUOUS
370
    50
100
AcDbLine
 10
120.1201479051
 20
155.4084618067
 30
0.0
 11
120.1931772073
 21
155.0481519262
 31
0.0
  0
LINE
  5
27A
330
A
100
AcDbEntity
  8
1
  6
CONTINUOUS
370
    50
100
AcDbLine
 10
114.7791753396
 20
156.1817675434
 30
0.0
 11
120.8428253985
 21
154.4415668215
 31
0.0
  0
LINE
  5
27B
330
A
100
AcDbEntity
  8
1
  6
CONTINUOUS
370
    50
100
AcDbLine
 10
111.6579525255
 20
157.0775240831
 30
0.0
 11
114.7791753396
 21
156.1817675434
 31
0.0
  0
LINE
  5
27C
330
A
100
AcDbEntity
  8
1
  6
CONTINUOUS
370
    50
100
AcDbLine
 10
122.0014109337
 20
158.4786052852
 30
0.0
 11
112.8165380608
 21
161.1145625468
 31
0.0
  0
LINE
  5
27D
330
A
100
AcDbEntity
  8
1
  6
CONTINUOUS
370
    50
100
AcDbLine
 10
106.9455865095
 20
206.258191948
 30
0.0
 11
106.692432616
 21
206.8010822246
 31
0.0
  0
ARC
  5
27E
330
A
100
AcDbEntity
  8
1
  6
CONTINUOUS
370
    50
100
AcDbCircle
 10
106.492432616
 20
206.0468828172
 30
0.0
 40
0.5
100
AcDbArc
 50
0.0
 51
25.0
  0
ARC
  5
27F
330
A
100
AcDbEntity
  8
1
  6
CONTINUOUS
370
    50
100
AcDbCircle
 10
106.492432616
 20
134.8905329167
 30
0.0
 40
0.5
100
AcDbArc
 50
0.0
 51
66.4218215218
  0
ARC
  5
280
330
A
100
AcDbEntity
  8
1
  6
CONTINUOUS
370
    50
100
AcDbCircle
 10
106.492432616
 20
205.1405329167
 30
0.0
 40
0.5
100
AcDbArc
 50
293.5781784782001
 51
0.0
  0
LINE
  5
281
330
A
100
AcDbEntity
  8
1
  6
CONTINUOUS
370
    50
100
AcDbLine
 10
85.1040137143
 20
164.6982117944
 30
0.0
 11
111.6502920811
 21
157.0797225462
 31
0.0
  0
LINE
  5
282
330
A
100
AcDbEntity
  8
1
  6
CONTINUOUS
370
    50
100
AcDbLine
 10
112.8088776163
 20
161.1167610099
 30
0.0
 11
87.8942736505
 21
168.2669776925
 31
0.0
  0
ARC
  5
283
330
A
100
AcDbEntity
  8
1
  6
CONTINUOUS
370
    50
100
AcDbCircle
 10
5.592432616
 20
155.5155329167
 30
0.0
 40
2.0
100
AcDbArc
 50
128.2989210679
 51
180.0
  0
ARC
  5
284
330
A
100
AcDbEntity
  8
1
  6
CONTINUOUS
370
    50
100
AcDbCircle
 10
5.592432616
 20
184.5155329167
 30
0.0
 40
2.0
100
AcDbArc
 50
180.0
 51
231.7010789321
  0
ARC
  5
285
330
A
100
AcDbEntity
  8
1
  6
CONTINUOUS
370
    50
100
AcDbCircle
 10
203.692432616
 20
156.0805329167
 30
0.0
 40
1.5
100
AcDbArc
 50
0.0
 51
73.0710674448
  0
ARC
  5
286
330
A
100
AcDbEntity
  8
1
  6
CONTINUOUS
370
    50
100
AcDbCircle
 10
203.692432616
 20
183.9505329167
 30
0.0
 40
1.5
100
AcDbArc
 50
286.9289325552
 51
0.0
  0
LINE
  5
287
330
A
100
AcDbEntity
  8
1
  6
CONTINUOUS
370
    50
100
AcDbLine
 10
4.3529041087
 20
157.0851089995
 30
0.0
 11
4.8529041087
 21
157.3737841341
 31
0.0
  0
LINE
  5
288
330
A
100
AcDbEntity
  8
1
  6
CONTINUOUS
370
    50
100
AcDbLine
 10
4.8529041087
 20
182.6572816993
 30
0.0
 11
4.3529041087
 21
182.9459568339
 31
0.0
  0
ARC
  5
289
330
A
100
AcDbEntity
  8
1
  6
CONTINUOUS
370
    50
100
AcDbCircle
 10
147.692432616
 20
157.8155329167
 30
0.0
 40
0.5
100
AcDbArc
 50
180.0
 51
270.0
  0
ARC
  5
28A
330
A
100
AcDbEntity
  8
1
  6
CONTINUOUS
370
    50
100
AcDbCircle
 10
147.692432616
 20
182.2155329167
 30
0.0
 40
0.5
100
AcDbArc
 50
90.0
 51
180.0
  0
LINE
  5
28B
330
A
100
AcDbEntity
  8
1
  6
CONTINUOUS
370
    50
100
AcDbLine
 10
157.076962566
 20
157.3155329167
 30
0.0
 11
157.1924326198
 21
157.5155329167
 31
0.0
  0
LINE
  5
28C
330
A
100
AcDbEntity
  8
1
  6
CONTINUOUS
370
    50
100
AcDbLine
 10
157.1924326198
 20
182.5155329167
 30
0.0
 11
157.076962566
 21
182.7155329167
 31
0.0
  0
LINE
  5
28D
330
A
100
AcDbEntity
  8
1
  6
CONTINUOUS
370
    50
100
AcDbLine
 10
147.692432616
 20
157.3155329167
 30
0.0
 11
157.076962566
 21
157.3155329167
 31
0.0
  0
LINE
  5
28E
330
A
100
AcDbEntity
  8
1
  6
CONTINUOUS
370
    50
100
AcDbLine
 10
157.076962566
 20
182.7155329167
 30
0.0
 11
147.692432616
 21
182.7155329167
 31
0.0
  0
LINE
  5
28F
330
A
100
AcDbEntity
  8
1
  6
CONTINUOUS
370
    50
100
AcDbLine
 10
15.292432616
 20
182.6655329167
 30
0.0
 11
12.5821440477
 21
182.6655329167
 31
0.0
  0
LINE
  5
290
330
A
100
AcDbEntity
  8
1
  6
CONTINUOUS
370
    50
100
AcDbLine
 10
12.5821440477
 20
157.3655329167
 30
0.0
 11
15.292432616
 21
157.3655329167
 31
0.0
  0
LINE
  5
291
330
A
100
AcDbEntity
  8
1
  6
CONTINUOUS
370
    50
100
AcDbLine
 10
15.292432616
 20
157.3655329167
 30
0.0
 11
16.4976513029
 21
159.4530329167
 31
0.0
  0
LINE
  5
292
330
A
100
AcDbEntity
  8
1
  6
CONTINUOUS
370
    50
100
AcDbLine
 10
16.4976513029
 20
180.5780329167
 30
0.0
 11
15.292432616
 21
182.6655329167
 31
0.0
  0
LINE
  5
293
330
A
100
AcDbEntity
  8
1
  6
CONTINUOUS
370
    50
100
AcDbLine
 10
12.5821440477
 20
182.6655329167
 30
0.0
 11
12.3223364266
 21
182.5155329167
 31
0.0
  0
LINE
  5
294
330
A
100
AcDbEntity
  8
1
  6
CONTINUOUS
370
    50
100
AcDbLine
 10
12.3223364266
 20
157.5155329167
 30
0.0
 11
12.5821440477
 21
157.3655329167
 31
0.0
  0
ARC
  5
295
330
A
100
AcDbEntity
  8
1
  6
CONTINUOUS
370
    50
100
AcDbCircle
 10
5.592432616
 20
155.5155329167
 30
0.0
 40
2.0
100
AcDbArc
 50
90.0
 51
111.7010789321
  0
ARC
  5
296
330
A
100
AcDbEntity
  8
1
  6
CONTINUOUS
370
    50
100
AcDbCircle
 10
5.592432616
 20
184.5155329167
 30
0.0
 40
2.0
100
AcDbArc
 50
248.2989210679
 51
270.0
  0
LINE
  5
297
330
A
100
AcDbEntity
  8
1
  6
CONTINUOUS
370
    50
100
AcDbLine
 10
157.1924326198
 20
157.5155329167
 30
0.0
 11
204.1292105916
 21
157.5155329167
 31
0.0
  0
LINE
  5
298
330
A
100
AcDbEntity
  8
1
  6
CONTINUOUS
370
    50
100
AcDbLine
 10
204.1292105916
 20
182.5155329167
 30
0.0
 11
157.1924326198
 21
182.5155329167
 31
0.0
  0
LINE
  5
299
330
A
100
AcDbEntity
  8
1
  6
CONTINUOUS
370
    50
100
AcDbLine
 10
5.592432616
 20
157.5155329167
 30
0.0
 11
12.3223364266
 21
157.5155329167
 31
0.0
  0
LINE
  5
29A
330
A
100
AcDbEntity
  8
1
  6
CONTINUOUS
370
    50
100
AcDbLine
 10
12.3223364266
 20
182.5155329167
 30
0.0
 11
5.592432616
 21
182.5155329167
 31
0.0
  0
LINE
  5
29B
330
A
100
AcDbEntity
  8
1
  6
CONTINUOUS
370
    50
100
AcDbLine
 10
67.592432616
 20
180.5780329167
 30
0.0
 11
52.602432616
 21
180.5780329167
 31
0.0
  0
LINE
  5
29C
330
A
100
AcDbEntity
  8
1
  6
CONTINUOUS
370
    50
100
AcDbLine
 10
52.602432616
 20
159.4530329167
 30
0.0
 11
67.592432616
 21
159.4530329167
 31
0.0
  0
LINE
  5
29D
330
A
100
AcDbEntity
  8
1
  6
CONTINUOUS
370
    50
100
AcDbLine
 10
52.592432616
 20
180.5780329167
 30
0.0
 11
16.4976513029
 21
180.5780329167
 31
0.0
  0
LINE
  5
29E
330
A
100
AcDbEntity
  8
1
  6
CONTINUOUS
370
    50
100
AcDbLine
 10
16.4976513029
 20
159.4530329167
 30
0.0
 11
52.592432616
 21
159.4530329167
 31
0.0
  0
LINE
  5
29F
330
A
100
AcDbEntity
  8
1
  6
CONTINUOUS
370
    50
100
AcDbLine
 10
113.592432616
 20
159.5155329167
 30
0.0
 11
115.3244834236
 21
162.5155329167
 31
0.0
  0
LINE
  5
2A0
330
A
100
AcDbEntity
  8
1
  6
CONTINUOUS
370
    50
100
AcDbLine
 10
115.3244834236
 20
177.5155329167
 30
0.0
 11
113.592432616
 21
180.5155329167
 31
0.0
  0
LINE
  5
2A1
330
A
100
AcDbEntity
  8
1
  6
CONTINUOUS
370
    50
100
AcDbLine
 10
113.592432616
 20
180.5155329167
 30
0.0
 11
67.6151807556
 21
180.5155329167
 31
0.0
  0
LINE
  5
2A2
330
A
100
AcDbEntity
  8
1
  6
CONTINUOUS
370
    50
100
AcDbLine
 10
67.6151807556
 20
159.5155329167
 30
0.0
 11
113.592432616
 21
159.5155329167
 31
0.0
  0
LINE
  5
2A3
330
A
100
AcDbEntity
  8
1
  6
CONTINUOUS
370
    50
100
AcDbLine
 10
115.3244834236
 20
162.5155329167
 30
0.0
 11
147.192432616
 21
162.5155329167
 31
0.0
  0
LINE
  5
2A4
330
A
100
AcDbEntity
  8
1
  6
CONTINUOUS
370
    50
100
AcDbLine
 10
147.192432616
 20
177.5155329167
 30
0.0
 11
115.3244834236
 21
177.5155329167
 31
0.0
  0
LINE
  5
2A5
330
A
100
AcDbEntity
  8
1
  6
CONTINUOUS
370
    50
100
AcDbLine
 10
111.092432616
 20
207.5155329167
 30
0.0
 11
111.292432616
 21
207.3155329167
 31
0.0
  0
LINE
  5
2A6
330
A
100
AcDbEntity
  8
1
  6
CONTINUOUS
370
    50
100
AcDbLine
 10
121.292432616
 20
207.3155329167
 30
0.0
 11
121.492432616
 21
207.5155329167
 31
0.0
  0
ARC
  5
2A7
330
A
100
AcDbEntity
  8
1
  6
CONTINUOUS
370
    50
100
AcDbCircle
 10
111.592432616
 20
203.1155329167
 30
0.0
 40
0.3
100
AcDbArc
 50
180.0
 51
270.0
  0
ARC
  5
2A8
330
A
100
AcDbEntity
  8
1
  6
CONTINUOUS
370
    50
100
AcDbCircle
 10
120.992432616
 20
203.1155329167
 30
0.0
 40
0.3
100
AcDbArc
 50
270.0
 51
0.0
  0
LINE
  5
2A9
330
A
100
AcDbEntity
  8
1
  6
CONTINUOUS
370
    50
100
AcDbLine
 10
111.292432616
 20
207.3155329167
 30
0.0
 11
111.292432616
 21
203.1155329167
 31
0.0
  0
LINE
  5
2AA
330
A
100
AcDbEntity
  8
1
  6
CONTINUOUS
370
    50
100
AcDbLine
 10
121.292432616
 20
203.1155329167
 30
0.0
 11
121.292432616
 21
207.3155329167
 31
0.0
  0
LINE
  5
2AB
330
A
100
AcDbEntity
  8
1
  6
CONTINUOUS
370
    50
100
AcDbLine
 10
114.792432616
 20
202.8155329167
 30
0.0
 11
115.192432616
 21
202.4155329167
 31
0.0
  0
LINE
  5
2AC
330
A
100
AcDbEntity
  8
1
  6
CONTINUOUS
370
    50
100
AcDbLine
 10
117.392432616
 20
202.4155329167
 30
0.0
 11
117.792432616
 21
202.8155329167
 31
0.0
  0
LINE
  5
2AD
330
A
100
AcDbEntity
  8
1
  6
CONTINUOUS
370
    50
100
AcDbLine
 10
115.192432616
 20
196.4155329167
 30
0.0
 11
116.292432616
 21
196.015165659
 31
0.0
  0
LINE
  5
2AE
330
A
100
AcDbEntity
  8
1
  6
CONTINUOUS
370
    50
100
AcDbLine
 10
116.292432616
 20
196.015165659
 30
0.0
 11
117.392432616
 21
196.4155329167
 31
0.0
  0
LINE
  5
2AF
330
A
100
AcDbEntity
  8
1
  6
CONTINUOUS
370
    50
100
AcDbLine
 10
115.192432616
 20
199.0055329167
 30
0.0
 11
115.192432616
 21
196.4155329167
 31
0.0
  0
LINE
  5
2B0
330
A
100
AcDbEntity
  8
1
  6
CONTINUOUS
370
    50
100
AcDbLine
 10
117.392432616
 20
196.4155329167
 30
0.0
 11
117.392432616
 21
199.0055329167
 31
0.0
  0
LINE
  5
2B1
330
A
100
AcDbEntity
  8
1
  6
CONTINUOUS
370
    50
100
AcDbLine
 10
115.192432616
 20
202.4155329167
 30
0.0
 11
115.192432616
 21
199.0155329167
 31
0.0
  0
LINE
  5
2B2
330
A
100
AcDbEntity
  8
1
  6
CONTINUOUS
370
    50
100
AcDbLine
 10
117.392432616
 20
199.0155329167
 30
0.0
 11
117.392432616
 21
202.4155329167
 31
0.0
  0
LINE
  5
2B3
330
A
100
AcDbEntity
  8
1
  6
CONTINUOUS
370
    50
100
AcDbLine
 10
87.8942736505
 20
171.7640881409
 30
0.0
 11
112.8088776163
 21
178.9143048235
 31
0.0
  0
LINE
  5
2B4
330
A
100
AcDbEntity
  8
1
  6
CONTINUOUS
370
    50
100
AcDbLine
 10
111.6502920811
 20
182.9513432872
 30
0.0
 11
85.1040137143
 21
175.3328540389
 31
0.0
  0
LINE
  5
2B5
330
A
100
AcDbEntity
  8
1
  6
CONTINUOUS
370
    50
100
AcDbLine
 10
112.8165380608
 20
178.9165032866
 30
0.0
 11
122.0014109337
 21
181.5524605482
 31
0.0
  0
LINE
  5
2B6
330
A
100
AcDbEntity
  8
1
  6
CONTINUOUS
370
    50
100
AcDbLine
 10
114.8339832268
 20
183.8650275494
 30
0.0
 11
111.6579525255
 21
182.9535417503
 31
0.0
  0
LINE
  5
2B7
330
A
100
AcDbEntity
  8
1
  6
CONTINUOUS
370
    50
100
AcDbLine
 10
120.8428253985
 20
185.5894990119
 30
0.0
 11
114.8339832268
 21
183.8650275494
 31
0.0
  0
LINE
  5
2B8
330
A
100
AcDbEntity
  8
1
  6
CONTINUOUS
370
    50
100
AcDbLine
 10
120.142432616
 20
186.8670559131
 30
0.0
 11
124.242432616
 21
186.8670559131
 31
0.0
  0
LINE
  5
2B9
330
A
100
AcDbEntity
  8
1
  6
CONTINUOUS
370
    50
100
AcDbLine
 10
124.242432616
 20
194.3670559131
 30
0.0
 11
120.142432616
 21
194.3670559131
 31
0.0
  0
LINE
  5
2BA
330
A
100
AcDbEntity
  8
1
  6
CONTINUOUS
370
    50
100
AcDbLine
 10
120.142432616
 20
194.3670559131
 30
0.0
 11
118.7775442375
 21
190.6170559131
 31
0.0
  0
LINE
  5
2BB
330
A
100
AcDbEntity
  8
1
  6
CONTINUOUS
370
    50
100
AcDbLine
 10
118.7775442375
 20
190.6170559131
 30
0.0
 11
120.142432616
 21
186.8670559131
 31
0.0
  0
LINE
  5
2BC
330
A
100
AcDbEntity
  8
1
  6
CONTINUOUS
370
    50
100
AcDbLine
 10
106.692432616
 20
182.4036823872
 30
0.0
 11
113.8915123149
 21
180.3376258754
 31
0.0
  0
LINE
  5
2BD
330
A
100
AcDbEntity
  8
1
  6
CONTINUOUS
370
    50
100
AcDbLine
 10
115.1601349881
 20
183.9269382516
 30
0.0
 11
106.692432616
 21
186.3570754855
 31
0.0
  0
LINE
  5
2BE
330
A
100
AcDbEntity
  8
1
  6
CONTINUOUS
370
    50
100
AcDbLine
 10
120.1931772073
 20
184.9829139072
 30
0.0
 11
120.1201479051
 21
184.6226040266
 31
0.0
  0
LINE
  5
2BF
330
A
100
AcDbEntity
  8
1
  6
CONTINUOUS
370
    50
100
AcDbLine
 10
120.8759727803
 20
181.9889667162
 30
0.0
 11
121.1289603861
 21
181.7222200943
 31
0.0
  0
LINE
  5
2C0
330
A
100
AcDbEntity
  8
1
  6
CONTINUOUS
370
    50
100
AcDbLine
 10
122.5223600047
 20
181.1817838863
 30
0.0
 11
124.242432616
 21
181.6754257638
 31
0.0
  0
LINE
  5
2C1
330
A
100
AcDbEntity
  8
1
  6
CONTINUOUS
370
    50
100
AcDbLine
 10
124.242432616
 20
187.0853321089
 30
0.0
 11
121.0879207706
 21
186.1800219842
 31
0.0
  0
LINE
  5
2C2
330
A
100
AcDbEntity
  8
1
  6
CONTINUOUS
370
    50
100
AcDbLine
 10
120.142432616
 20
169.7517626266
 30
0.0
 11
124.242432616
 21
169.7517626266
 31
0.0
  0
LINE
  5
2C3
330
A
100
AcDbEntity
  8
1
  6
CONTINUOUS
370
    50
100
AcDbLine
 10
124.242432616
 20
177.2517626266
 30
0.0
 11
120.142432616
 21
177.2517626266
 31
0.0
  0
LINE
  5
2C4
330
A
100
AcDbEntity
  8
1
  6
CONTINUOUS
370
    50
100
AcDbLine
 10
120.142432616
 20
177.2517626266
 30
0.0
 11
118.7775442375
 21
173.5017626266
 31
0.0
  0
LINE
  5
2C5
330
A
100
AcDbEntity
  8
1
  6
CONTINUOUS
370
    50
100
AcDbLine
 10
118.7775442375
 20
173.5017626266
 30
0.0
 11
120.142432616
 21
169.7517626266
 31
0.0
  0
LINE
  5
2C6
330
A
100
AcDbEntity
  8
1
  6
CONTINUOUS
370
    50
100
AcDbLine
 10
106.492432616
 20
204.6405329167
 30
0.0
 11
106.492432616
 21
135.3905329167
 31
0.0
  0
LINE
  5
2C7
330
A
100
AcDbEntity
  8
1
  6
CONTINUOUS
370
    50
100
AcDbLine
 10
105.7353228926
 20
204.6873790232
 30
0.0
 11
105.7353228926
 21
135.3436868102
 31
0.0
  0
LINE
  5
2C8
330
A
100
AcDbEntity
  8
1
  6
CONTINUOUS
370
    50
100
AcDbLine
 10
105.9466320235
 20
204.6405329167
 30
0.0
 11
105.9466320235
 21
135.3905329167
 31
0.0
  0
LINE
  5
2C9
330
A
100
AcDbEntity
  8
1
  6
CONTINUOUS
370
    50
100
AcDbLine
 10
5.3746313116
 20
190.3790234447
 30
0.0
 11
5.3746313116
 21
149.6520423887
 31
0.0
  0
LINE
  5
2CA
330
A
100
AcDbEntity
  8
1
  6
CONTINUOUS
370
    50
100
AcDbLine
 10
52.492432616
 20
182.0155329167
 30
0.0
 11
15.667710291
 21
182.0155329167
 31
0.0
  0
LINE
  5
2CB
330
A
100
AcDbEntity
  8
1
  6
CONTINUOUS
370
    50
100
AcDbLine
 10
15.667710291
 20
158.0155329167
 30
0.0
 11
52.492432616
 21
158.0155329167
 31
0.0
  0
LINE
  5
2CC
330
A
100
AcDbEntity
  8
1
  6
CONTINUOUS
370
    50
100
AcDbLine
 10
52.492432616
 20
182.0155329167
 30
0.0
 11
52.492432616
 21
181.8933902193
 31
0.0
  0
LINE
  5
2CD
330
A
100
AcDbEntity
  8
1
  6
CONTINUOUS
370
    50
100
AcDbLine
 10
52.492432616
 20
181.8933902193
 30
0.0
 11
52.492432616
 21
158.0155329167
 31
0.0
  0
LINE
  5
2CE
330
A
100
AcDbEntity
  8
1
  6
CONTINUOUS
370
    50
100
AcDbLine
 10
52.492432616
 20
180.5780329167
 30
0.0
 11
52.492432616
 21
180.5083424898
 31
0.0
  0
LINE
  5
2CF
330
A
100
AcDbEntity
  8
1
  6
CONTINUOUS
370
    50
100
AcDbLine
 10
52.492432616
 20
180.5083424898
 30
0.0
 11
52.492432616
 21
170.0155329167
 31
0.0
  0
LINE
  5
2D0
330
A
100
AcDbEntity
  8
1
  6
CONTINUOUS
370
    50
100
AcDbLine
 10
110.6893175644
 20
180.9350225185
 30
0.0
 11
110.8984469209
 21
180.1813806552
 31
0.0
  0
LINE
  5
2D1
330
A
100
AcDbEntity
  8
1
  6
CONTINUOUS
370
    50
100
AcDbLine
 10
110.8984469209
 20
180.1813806552
 30
0.0
 11
111.23862719
 21
179.5015105085
 31
0.0
  0
LINE
  5
2D2
330
A
100
AcDbEntity
  8
1
  6
CONTINUOUS
370
    50
100
AcDbLine
 10
111.23862719
 20
179.5015105085
 30
0.0
 11
111.6765591568
 21
178.9619625052
 31
0.0
  0
LINE
  5
2D3
330
A
100
AcDbEntity
  8
1
  6
CONTINUOUS
370
    50
100
AcDbLine
 10
111.6765591568
 20
178.9619625052
 30
0.0
 11
112.1693749892
 21
178.615551363
 31
0.0
  0
LINE
  5
2D4
330
A
100
AcDbEntity
  8
1
  6
CONTINUOUS
370
    50
100
AcDbLine
 10
112.1693749892
 20
178.615551363
 30
0.0
 11
112.6688344398
 21
178.4961862183
 31
0.0
  0
LINE
  5
2D5
330
A
100
AcDbEntity
  8
1
  6
CONTINUOUS
370
    50
100
AcDbLine
 10
112.6688344398
 20
178.4961862183
 30
0.0
 11
113.1260469376
 21
178.615551363
 31
0.0
  0
LINE
  5
2D6
330
A
100
AcDbEntity
  8
1
  6
CONTINUOUS
370
    50
100
AcDbLine
 10
113.1260469376
 20
178.615551363
 30
0.0
 11
113.4962573379
 21
178.9619625052
 31
0.0
  0
LINE
  5
2D7
330
A
100
AcDbEntity
  8
1
  6
CONTINUOUS
370
    50
100
AcDbLine
 10
113.4962573379
 20
178.9619625052
 30
0.0
 11
113.7432268672
 21
179.5015105085
 31
0.0
  0
LINE
  5
2D8
330
A
100
AcDbEntity
  8
1
  6
CONTINUOUS
370
    50
100
AcDbLine
 10
113.7432268672
 20
179.5015105085
 30
0.0
 11
113.8427804272
 21
180.1813806552
 31
0.0
  0
LINE
  5
2D9
330
A
100
AcDbEntity
  8
1
  6
CONTINUOUS
370
    50
100
AcDbLine
 10
113.8427804272
 20
180.1813806552
 30
0.0
 11
113.7851730218
 21
180.9350225185
 31
0.0
  0
LINE
  5
2DA
330
A
100
AcDbEntity
  8
1
  6
CONTINUOUS
370
    50
100
AcDbLine
 10
113.7851730218
 20
180.9350225185
 30
0.0
 11
113.5760436654
 21
181.6886643817
 31
0.0
  0
LINE
  5
2DB
330
A
100
AcDbEntity
  8
1
  6
CONTINUOUS
370
    50
100
AcDbLine
 10
113.5760436654
 20
181.6886643817
 30
0.0
 11
113.2358633963
 21
182.3685345284
 31
0.0
  0
LINE
  5
2DC
330
A
100
AcDbEntity
  8
1
  6
CONTINUOUS
370
    50
100
AcDbLine
 10
113.2358633963
 20
182.3685345284
 30
0.0
 11
112.7979314294
 21
182.9080825317
 31
0.0
  0
LINE
  5
2DD
330
A
100
AcDbEntity
  8
1
  6
CONTINUOUS
370
    50
100
AcDbLine
 10
112.7979314294
 20
182.9080825317
 30
0.0
 11
112.3051155971
 21
183.2544936739
 31
0.0
  0
LINE
  5
2DE
330
A
100
AcDbEntity
  8
1
  6
CONTINUOUS
370
    50
100
AcDbLine
 10
112.3051155971
 20
183.2544936739
 30
0.0
 11
111.8056561465
 21
183.3738588186
 31
0.0
  0
LINE
  5
2DF
330
A
100
AcDbEntity
  8
1
  6
CONTINUOUS
370
    50
100
AcDbLine
 10
111.8056561465
 20
183.3738588186
 30
0.0
 11
111.3484436486
 21
183.2544936739
 31
0.0
  0
LINE
  5
2E0
330
A
100
AcDbEntity
  8
1
  6
CONTINUOUS
370
    50
100
AcDbLine
 10
111.3484436486
 20
183.2544936739
 30
0.0
 11
110.9782332483
 21
182.9080825317
 31
0.0
  0
LINE
  5
2E1
330
A
100
AcDbEntity
  8
1
  6
CONTINUOUS
370
    50
100
AcDbLine
 10
110.9782332483
 20
182.9080825317
 30
0.0
 11
110.7312637191
 21
182.3685345284
 31
0.0
  0
LINE
  5
2E2
330
A
100
AcDbEntity
  8
1
  6
CONTINUOUS
370
    50
100
AcDbLine
 10
110.7312637191
 20
182.3685345284
 30
0.0
 11
110.6317101591
 21
181.6886643817
 31
0.0
  0
LINE
  5
2E3
330
A
100
AcDbEntity
  8
1
  6
CONTINUOUS
370
    50
100
AcDbLine
 10
110.6317101591
 20
181.6886643817
 30
0.0
 11
110.6893175644
 21
180.9350225185
 31
0.0
  0
LINE
  5
2E4
330
A
100
AcDbEntity
  8
1
  6
CONTINUOUS
370
    50
100
AcDbLine
 10
120.1806082147
 20
183.6589183042
 30
0.0
 11
120.1230008093
 21
184.4125601675
 31
0.0
  0
LINE
  5
2E5
330
A
100
AcDbEntity
  8
1
  6
CONTINUOUS
370
    50
100
AcDbLine
 10
120.1230008093
 20
184.4125601675
 30
0.0
 11
120.2225543693
 21
185.0924303142
 31
0.0
  0
LINE
  5
2E6
330
A
100
AcDbEntity
  8
1
  6
CONTINUOUS
370
    50
100
AcDbLine
 10
120.2225543693
 20
185.0924303142
 30
0.0
 11
120.4695238986
 21
185.6319783175
 31
0.0
  0
LINE
  5
2E7
330
A
100
AcDbEntity
  8
1
  6
CONTINUOUS
370
    50
100
AcDbLine
 10
120.4695238986
 20
185.6319783175
 30
0.0
 11
120.8397342988
 21
185.9783894596
 31
0.0
  0
LINE
  5
2E8
330
A
100
AcDbEntity
  8
1
  6
CONTINUOUS
370
    50
100
AcDbLine
 10
120.8397342988
 20
185.9783894596
 30
0.0
 11
121.2969467967
 21
186.0977546043
 31
0.0
  0
LINE
  5
2E9
330
A
100
AcDbEntity
  8
1
  6
CONTINUOUS
370
    50
100
AcDbLine
 10
121.2969467967
 20
186.0977546043
 30
0.0
 11
121.7964062473
 21
185.9783894596
 31
0.0
  0
LINE
  5
2EA
330
A
100
AcDbEntity
  8
1
  6
CONTINUOUS
370
    50
100
AcDbLine
 10
121.7964062473
 20
185.9783894596
 30
0.0
 11
122.2892220797
 21
185.6319783175
 31
0.0
  0
LINE
  5
2EB
330
A
100
AcDbEntity
  8
1
  6
CONTINUOUS
370
    50
100
AcDbLine
 10
122.2892220797
 20
185.6319783175
 30
0.0
 11
122.7271540465
 21
185.0924303142
 31
0.0
  0
LINE
  5
2EC
330
A
100
AcDbEntity
  8
1
  6
CONTINUOUS
370
    50
100
AcDbLine
 10
122.7271540465
 20
185.0924303142
 30
0.0
 11
123.0673343156
 21
184.4125601675
 31
0.0
  0
LINE
  5
2ED
330
A
100
AcDbEntity
  8
1
  6
CONTINUOUS
370
    50
100
AcDbLine
 10
123.0673343156
 20
184.4125601675
 30
0.0
 11
123.2764636721
 21
183.6589183042
 31
0.0
  0
LINE
  5
2EE
330
A
100
AcDbEntity
  8
1
  6
CONTINUOUS
370
    50
100
AcDbLine
 10
123.2764636721
 20
183.6589183042
 30
0.0
 11
123.3340710774
 21
182.905276441
 31
0.0
  0
LINE
  5
2EF
330
A
100
AcDbEntity
  8
1
  6
CONTINUOUS
370
    50
100
AcDbLine
 10
123.3340710774
 20
182.905276441
 30
0.0
 11
123.2345175174
 21
182.2254062943
 31
0.0
  0
LINE
  5
2F0
330
A
100
AcDbEntity
  8
1
  6
CONTINUOUS
370
    50
100
AcDbLine
 10
123.2345175174
 20
182.2254062943
 30
0.0
 11
122.9875479881
 21
181.6858582909
 31
0.0
  0
LINE
  5
2F1
330
A
100
AcDbEntity
  8
1
  6
CONTINUOUS
370
    50
100
AcDbLine
 10
122.9875479881
 20
181.6858582909
 30
0.0
 11
122.6173375879
 21
181.3394471488
 31
0.0
  0
LINE
  5
2F2
330
A
100
AcDbEntity
  8
1
  6
CONTINUOUS
370
    50
100
AcDbLine
 10
122.6173375879
 20
181.3394471488
 30
0.0
 11
122.16012509
 21
181.2200820041
 31
0.0
  0
LINE
  5
2F3
330
A
100
AcDbEntity
  8
1
  6
CONTINUOUS
370
    50
100
AcDbLine
 10
122.16012509
 20
181.2200820041
 30
0.0
 11
121.6606656394
 21
181.3394471488
 31
0.0
  0
LINE
  5
2F4
330
A
100
AcDbEntity
  8
1
  6
CONTINUOUS
370
    50
100
AcDbLine
 10
121.6606656394
 20
181.3394471488
 30
0.0
 11
121.1678498071
 21
181.6858582909
 31
0.0
  0
LINE
  5
2F5
330
A
100
AcDbEntity
  8
1
  6
CONTINUOUS
370
    50
100
AcDbLine
 10
121.1678498071
 20
181.6858582909
 30
0.0
 11
120.7299178402
 21
182.2254062943
 31
0.0
  0
LINE
  5
2F6
330
A
100
AcDbEntity
  8
1
  6
CONTINUOUS
370
    50
100
AcDbLine
 10
120.7299178402
 20
182.2254062943
 30
0.0
 11
120.3897375711
 21
182.905276441
 31
0.0
  0
LINE
  5
2F7
330
A
100
AcDbEntity
  8
1
  6
CONTINUOUS
370
    50
100
AcDbLine
 10
120.3897375711
 20
182.905276441
 30
0.0
 11
120.1806082147
 21
183.6589183042
 31
0.0
  0
LINE
  5
2F8
330
A
100
AcDbEntity
  8
1
  6
CONTINUOUS
370
    50
100
AcDbLine
 10
113.7851730218
 20
159.0960433149
 30
0.0
 11
113.5760436654
 21
158.3424014517
 31
0.0
  0
LINE
  5
2F9
330
A
100
AcDbEntity
  8
1
  6
CONTINUOUS
370
    50
100
AcDbLine
 10
113.5760436654
 20
158.3424014517
 30
0.0
 11
113.2358633963
 21
157.662531305
 31
0.0
  0
LINE
  5
2FA
330
A
100
AcDbEntity
  8
1
  6
CONTINUOUS
370
    50
100
AcDbLine
 10
113.2358633963
 20
157.662531305
 30
0.0
 11
112.7979314294
 21
157.1229833016
 31
0.0
  0
LINE
  5
2FB
330
A
100
AcDbEntity
  8
1
  6
CONTINUOUS
370
    50
100
AcDbLine
 10
112.7979314294
 20
157.1229833016
 30
0.0
 11
112.3051155971
 21
156.7765721595
 31
0.0
  0
LINE
  5
2FC
330
A
100
AcDbEntity
  8
1
  6
CONTINUOUS
370
    50
100
AcDbLine
 10
112.3051155971
 20
156.7765721595
 30
0.0
 11
111.8056561465
 21
156.6572070148
 31
0.0
  0
LINE
  5
2FD
330
A
100
AcDbEntity
  8
1
  6
CONTINUOUS
370
    50
100
AcDbLine
 10
111.8056561465
 20
156.6572070148
 30
0.0
 11
111.3484436486
 21
156.7765721595
 31
0.0
  0
LINE
  5
2FE
330
A
100
AcDbEntity
  8
1
  6
CONTINUOUS
370
    50
100
AcDbLine
 10
111.3484436486
 20
156.7765721595
 30
0.0
 11
110.9782332483
 21
157.1229833016
 31
0.0
  0
LINE
  5
2FF
330
A
100
AcDbEntity
  8
1
  6
CONTINUOUS
370
    50
100
AcDbLine
 10
110.9782332483
 20
157.1229833016
 30
0.0
 11
110.7312637191
 21
157.662531305
 31
0.0
  0
LINE
  5
300
330
A
100
AcDbEntity
  8
1
  6
CONTINUOUS
370
    50
100
AcDbLine
 10
110.7312637191
 20
157.662531305
 30
0.0
 11
110.6317101591
 21
158.3424014517
 31
0.0
  0
LINE
  5
301
330
A
100
AcDbEntity
  8
1
  6
CONTINUOUS
370
    50
100
AcDbLine
 10
110.6317101591
 20
158.3424014517
 30
0.0
 11
110.6893175644
 21
159.0960433149
 31
0.0
  0
LINE
  5
302
330
A
100
AcDbEntity
  8
1
  6
CONTINUOUS
370
    50
100
AcDbLine
 10
110.6893175644
 20
159.0960433149
 30
0.0
 11
110.8984469209
 21
159.8496851782
 31
0.0
  0
LINE
  5
303
330
A
100
AcDbEntity
  8
1
  6
CONTINUOUS
370
    50
100
AcDbLine
 10
110.8984469209
 20
159.8496851782
 30
0.0
 11
111.23862719
 21
160.5295553249
 31
0.0
  0
LINE
  5
304
330
A
100
AcDbEntity
  8
1
  6
CONTINUOUS
370
    50
100
AcDbLine
 10
111.23862719
 20
160.5295553249
 30
0.0
 11
111.6765591568
 21
161.0691033282
 31
0.0
  0
LINE
  5
305
330
A
100
AcDbEntity
  8
1
  6
CONTINUOUS
370
    50
100
AcDbLine
 10
111.6765591568
 20
161.0691033282
 30
0.0
 11
112.1693749892
 21
161.4155144703
 31
0.0
  0
LINE
  5
306
330
A
100
AcDbEntity
  8
1
  6
CONTINUOUS
370
    50
100
AcDbLine
 10
112.1693749892
 20
161.4155144703
 30
0.0
 11
112.6688344398
 21
161.534879615
 31
0.0
  0
LINE
  5
307
330
A
100
AcDbEntity
  8
1
  6
CONTINUOUS
370
    50
100
AcDbLine
 10
112.6688344398
 20
161.534879615
 30
0.0
 11
113.1260469376
 21
161.4155144703
 31
0.0
  0
LINE
  5
308
330
A
100
AcDbEntity
  8
1
  6
CONTINUOUS
370
    50
100
AcDbLine
 10
113.1260469376
 20
161.4155144703
 30
0.0
 11
113.4962573379
 21
161.0691033282
 31
0.0
  0
LINE
  5
309
330
A
100
AcDbEntity
  8
1
  6
CONTINUOUS
370
    50
100
AcDbLine
 10
113.4962573379
 20
161.0691033282
 30
0.0
 11
113.7432268672
 21
160.5295553249
 31
0.0
  0
LINE
  5
30A
330
A
100
AcDbEntity
  8
1
  6
CONTINUOUS
370
    50
100
AcDbLine
 10
113.7432268672
 20
160.5295553249
 30
0.0
 11
113.8427804272
 21
159.8496851782
 31
0.0
  0
LINE
  5
30B
330
A
100
AcDbEntity
  8
1
  6
CONTINUOUS
370
    50
100
AcDbLine
 10
113.8427804272
 20
159.8496851782
 30
0.0
 11
113.7851730218
 21
159.0960433149
 31
0.0
  0
LINE
  5
30C
330
A
100
AcDbEntity
  8
1
  6
CONTINUOUS
370
    50
100
AcDbLine
 10
123.2764636721
 20
156.3721475292
 30
0.0
 11
123.3340710774
 21
157.1257893924
 31
0.0
  0
LINE
  5
30D
330
A
100
AcDbEntity
  8
1
  6
CONTINUOUS
370
    50
100
AcDbLine
 10
123.3340710774
 20
157.1257893924
 30
0.0
 11
123.2345175174
 21
157.8056595391
 31
0.0
  0
LINE
  5
30E
330
A
100
AcDbEntity
  8
1
  6
CONTINUOUS
370
    50
100
AcDbLine
 10
123.2345175174
 20
157.8056595391
 30
0.0
 11
122.9875479881
 21
158.3452075425
 31
0.0
  0
LINE
  5
30F
330
A
100
AcDbEntity
  8
1
  6
CONTINUOUS
370
    50
100
AcDbLine
 10
122.9875479881
 20
158.3452075425
 30
0.0
 11
122.6173375879
 21
158.6916186846
 31
0.0
  0
LINE
  5
310
330
A
100
AcDbEntity
  8
1
  6
CONTINUOUS
370
    50
100
AcDbLine
 10
122.6173375879
 20
158.6916186846
 30
0.0
 11
122.16012509
 21
158.8109838293
 31
0.0
  0
LINE
  5
311
330
A
100
AcDbEntity
  8
1
  6
CONTINUOUS
370
    50
100
AcDbLine
 10
122.16012509
 20
158.8109838293
 30
0.0
 11
121.6606656394
 21
158.6916186846
 31
0.0
  0
LINE
  5
312
330
A
100
AcDbEntity
  8
1
  6
CONTINUOUS
370
    50
100
AcDbLine
 10
121.6606656394
 20
158.6916186846
 30
0.0
 11
121.1678498071
 21
158.3452075425
 31
0.0
  0
LINE
  5
313
330
A
100
AcDbEntity
  8
1
  6
CONTINUOUS
370
    50
100
AcDbLine
 10
121.1678498071
 20
158.3452075425
 30
0.0
 11
120.7299178402
 21
157.8056595391
 31
0.0
  0
LINE
  5
314
330
A
100
AcDbEntity
  8
1
  6
CONTINUOUS
370
    50
100
AcDbLine
 10
120.7299178402
 20
157.8056595391
 30
0.0
 11
120.3897375711
 21
157.1257893924
 31
0.0
  0
LINE
  5
315
330
A
100
AcDbEntity
  8
1
  6
CONTINUOUS
370
    50
100
AcDbLine
 10
120.3897375711
 20
157.1257893924
 30
0.0
 11
120.1806082147
 21
156.3721475292
 31
0.0
  0
LINE
  5
316
330
A
100
AcDbEntity
  8
1
  6
CONTINUOUS
370
    50
100
AcDbLine
 10
120.1806082147
 20
156.3721475292
 30
0.0
 11
120.1230008093
 21
155.6185056659
 31
0.0
  0
LINE
  5
317
330
A
100
AcDbEntity
  8
1
  6
CONTINUOUS
370
    50
100
AcDbLine
 10
120.1230008093
 20
155.6185056659
 30
0.0
 11
120.2225543693
 21
154.9386355192
 31
0.0
  0
LINE
  5
318
330
A
100
AcDbEntity
  8
1
  6
CONTINUOUS
370
    50
100
AcDbLine
 10
120.2225543693
 20
154.9386355192
 30
0.0
 11
120.4695238986
 21
154.3990875159
 31
0.0
  0
LINE
  5
319
330
A
100
AcDbEntity
  8
1
  6
CONTINUOUS
370
    50
100
AcDbLine
 10
120.4695238986
 20
154.3990875159
 30
0.0
 11
120.8397342988
 21
154.0526763737
 31
0.0
  0
LINE
  5
31A
330
A
100
AcDbEntity
  8
1
  6
CONTINUOUS
370
    50
100
AcDbLine
 10
120.8397342988
 20
154.0526763737
 30
0.0
 11
121.2969467967
 21
153.933311229
 31
0.0
  0
LINE
  5
31B
330
A
100
AcDbEntity
  8
1
  6
CONTINUOUS
370
    50
100
AcDbLine
 10
121.2969467967
 20
153.933311229
 30
0.0
 11
121.7964062473
 21
154.0526763737
 31
0.0
  0
LINE
  5
31C
330
A
100
AcDbEntity
  8
1
  6
CONTINUOUS
370
    50
100
AcDbLine
 10
121.7964062473
 20
154.0526763737
 30
0.0
 11
122.2892220797
 21
154.3990875159
 31
0.0
  0
LINE
  5
31D
330
A
100
AcDbEntity
  8
1
  6
CONTINUOUS
370
    50
100
AcDbLine
 10
122.2892220797
 20
154.3990875159
 30
0.0
 11
122.7271540465
 21
154.9386355192
 31
0.0
  0
LINE
  5
31E
330
A
100
AcDbEntity
  8
1
  6
CONTINUOUS
370
    50
100
AcDbLine
 10
122.7271540465
 20
154.9386355192
 30
0.0
 11
123.0673343156
 21
155.6185056659
 31
0.0
  0
LINE
  5
31F
330
A
100
AcDbEntity
  8
1
  6
CONTINUOUS
370
    50
100
AcDbLine
 10
123.0673343156
 20
155.6185056659
 30
0.0
 11
123.2764636721
 21
156.3721475292
 31
0.0
  0
LINE
  5
320
330
A
100
AcDbEntity
  8
1
  6
CONTINUOUS
370
    50
100
AcDbLine
 10
113.7775125774
 20
159.098241778
 30
0.0
 11
113.5683832209
 21
158.3445999148
 31
0.0
  0
LINE
  5
321
330
A
100
AcDbEntity
  8
1
  6
CONTINUOUS
370
    50
100
AcDbLine
 10
113.5683832209
 20
158.3445999148
 30
0.0
 11
113.2282029518
 21
157.6647297681
 31
0.0
  0
LINE
  5
322
330
A
100
AcDbEntity
  8
1
  6
CONTINUOUS
370
    50
100
AcDbLine
 10
113.2282029518
 20
157.6647297681
 30
0.0
 11
112.790270985
 21
157.1251817647
 31
0.0
  0
LINE
  5
323
330
A
100
AcDbEntity
  8
1
  6
CONTINUOUS
370
    50
100
AcDbLine
 10
112.790270985
 20
157.1251817647
 30
0.0
 11
112.2974551526
 21
156.7787706226
 31
0.0
  0
LINE
  5
324
330
A
100
AcDbEntity
  8
1
  6
CONTINUOUS
370
    50
100
AcDbLine
 10
112.2974551526
 20
156.7787706226
 30
0.0
 11
111.797995702
 21
156.6594054779
 31
0.0
  0
LINE
  5
325
330
A
100
AcDbEntity
  8
1
  6
CONTINUOUS
370
    50
100
AcDbLine
 10
111.797995702
 20
156.6594054779
 30
0.0
 11
111.3407832042
 21
156.7787706226
 31
0.0
  0
LINE
  5
326
330
A
100
AcDbEntity
  8
1
  6
CONTINUOUS
370
    50
100
AcDbLine
 10
111.3407832042
 20
156.7787706226
 30
0.0
 11
110.9705728039
 21
157.1251817647
 31
0.0
  0
LINE
  5
327
330
A
100
AcDbEntity
  8
1
  6
CONTINUOUS
370
    50
100
AcDbLine
 10
110.9705728039
 20
157.1251817647
 30
0.0
 11
110.7236032747
 21
157.6647297681
 31
0.0
  0
LINE
  5
328
330
A
100
AcDbEntity
  8
1
  6
CONTINUOUS
370
    50
100
AcDbLine
 10
110.7236032747
 20
157.6647297681
 30
0.0
 11
110.6240497147
 21
158.3445999148
 31
0.0
  0
LINE
  5
329
330
A
100
AcDbEntity
  8
1
  6
CONTINUOUS
370
    50
100
AcDbLine
 10
110.6240497147
 20
158.3445999148
 30
0.0
 11
110.68165712
 21
159.098241778
 31
0.0
  0
LINE
  5
32A
330
A
100
AcDbEntity
  8
1
  6
CONTINUOUS
370
    50
100
AcDbLine
 10
110.68165712
 20
159.098241778
 30
0.0
 11
110.8907864765
 21
159.8518836413
 31
0.0
  0
LINE
  5
32B
330
A
100
AcDbEntity
  8
1
  6
CONTINUOUS
370
    50
100
AcDbLine
 10
110.8907864765
 20
159.8518836413
 30
0.0
 11
111.2309667456
 21
160.531753788
 31
0.0
  0
LINE
  5
32C
330
A
100
AcDbEntity
  8
1
  6
CONTINUOUS
370
    50
100
AcDbLine
 10
111.2309667456
 20
160.531753788
 30
0.0
 11
111.6688987124
 21
161.0713017913
 31
0.0
  0
LINE
  5
32D
330
A
100
AcDbEntity
  8
1
  6
CONTINUOUS
370
    50
100
AcDbLine
 10
111.6688987124
 20
161.0713017913
 30
0.0
 11
112.1617145447
 21
161.4177129334
 31
0.0
  0
LINE
  5
32E
330
A
100
AcDbEntity
  8
1
  6
CONTINUOUS
370
    50
100
AcDbLine
 10
112.1617145447
 20
161.4177129334
 30
0.0
 11
112.6611739953
 21
161.5370780781
 31
0.0
  0
LINE
  5
32F
330
A
100
AcDbEntity
  8
1
  6
CONTINUOUS
370
    50
100
AcDbLine
 10
112.6611739953
 20
161.5370780781
 30
0.0
 11
113.1183864932
 21
161.4177129334
 31
0.0
  0
LINE
  5
330
330
A
100
AcDbEntity
  8
1
  6
CONTINUOUS
370
    50
100
AcDbLine
 10
113.1183864932
 20
161.4177129334
 30
0.0
 11
113.4885968935
 21
161.0713017913
 31
0.0
  0
LINE
  5
331
330
A
100
AcDbEntity
  8
1
  6
CONTINUOUS
370
    50
100
AcDbLine
 10
113.4885968935
 20
161.0713017913
 30
0.0
 11
113.7355664227
 21
160.531753788
 31
0.0
  0
LINE
  5
332
330
A
100
AcDbEntity
  8
1
  6
CONTINUOUS
370
    50
100
AcDbLine
 10
113.7355664227
 20
160.531753788
 30
0.0
 11
113.8351199827
 21
159.8518836413
 31
0.0
  0
LINE
  5
333
330
A
100
AcDbEntity
  8
1
  6
CONTINUOUS
370
    50
100
AcDbLine
 10
113.8351199827
 20
159.8518836413
 30
0.0
 11
113.7775125774
 21
159.098241778
 31
0.0
  0
LINE
  5
334
330
A
100
AcDbEntity
  8
1
  6
CONTINUOUS
370
    50
100
AcDbLine
 10
123.2764636721
 20
156.3721475292
 30
0.0
 11
123.3340710774
 21
157.1257893924
 31
0.0
  0
LINE
  5
335
330
A
100
AcDbEntity
  8
1
  6
CONTINUOUS
370
    50
100
AcDbLine
 10
123.3340710774
 20
157.1257893924
 30
0.0
 11
123.2345175174
 21
157.8056595391
 31
0.0
  0
LINE
  5
336
330
A
100
AcDbEntity
  8
1
  6
CONTINUOUS
370
    50
100
AcDbLine
 10
123.2345175174
 20
157.8056595391
 30
0.0
 11
122.9875479881
 21
158.3452075425
 31
0.0
  0
LINE
  5
337
330
A
100
AcDbEntity
  8
1
  6
CONTINUOUS
370
    50
100
AcDbLine
 10
122.9875479881
 20
158.3452075425
 30
0.0
 11
122.6173375879
 21
158.6916186846
 31
0.0
  0
LINE
  5
338
330
A
100
AcDbEntity
  8
1
  6
CONTINUOUS
370
    50
100
AcDbLine
 10
122.6173375879
 20
158.6916186846
 30
0.0
 11
122.16012509
 21
158.8109838293
 31
0.0
  0
LINE
  5
339
330
A
100
AcDbEntity
  8
1
  6
CONTINUOUS
370
    50
100
AcDbLine
 10
122.16012509
 20
158.8109838293
 30
0.0
 11
121.6606656394
 21
158.6916186846
 31
0.0
  0
LINE
  5
33A
330
A
100
AcDbEntity
  8
1
  6
CONTINUOUS
370
    50
100
AcDbLine
 10
121.6606656394
 20
158.6916186846
 30
0.0
 11
121.1678498071
 21
158.3452075425
 31
0.0
  0
LINE
  5
33B
330
A
100
AcDbEntity
  8
1
  6
CONTINUOUS
370
    50
100
AcDbLine
 10
121.1678498071
 20
158.3452075425
 30
0.0
 11
120.7299178402
 21
157.8056595391
 31
0.0
  0
LINE
  5
33C
330
A
100
AcDbEntity
  8
1
  6
CONTINUOUS
370
    50
100
AcDbLine
 10
120.7299178402
 20
157.8056595391
 30
0.0
 11
120.3897375711
 21
157.1257893924
 31
0.0
  0
LINE
  5
33D
330
A
100
AcDbEntity
  8
1
  6
CONTINUOUS
370
    50
100
AcDbLine
 10
120.3897375711
 20
157.1257893924
 30
0.0
 11
120.1806082147
 21
156.3721475292
 31
0.0
  0
LINE
  5
33E
330
A
100
AcDbEntity
  8
1
  6
CONTINUOUS
370
    50
100
AcDbLine
 10
120.1806082147
 20
156.3721475292
 30
0.0
 11
120.1230008093
 21
155.6185056659
 31
0.0
  0
LINE
  5
33F
330
A
100
AcDbEntity
  8
1
  6
CONTINUOUS
370
    50
100
AcDbLine
 10
120.1230008093
 20
155.6185056659
 30
0.0
 11
120.2225543693
 21
154.9386355192
 31
0.0
  0
LINE
  5
340
330
A
100
AcDbEntity
  8
1
  6
CONTINUOUS
370
    50
100
AcDbLine
 10
120.2225543693
 20
154.9386355192
 30
0.0
 11
120.4695238986
 21
154.3990875159
 31
0.0
  0
LINE
  5
341
330
A
100
AcDbEntity
  8
1
  6
CONTINUOUS
370
    50
100
AcDbLine
 10
120.4695238986
 20
154.3990875159
 30
0.0
 11
120.8397342988
 21
154.0526763737
 31
0.0
  0
LINE
  5
342
330
A
100
AcDbEntity
  8
1
  6
CONTINUOUS
370
    50
100
AcDbLine
 10
120.8397342988
 20
154.0526763737
 30
0.0
 11
121.2969467967
 21
153.933311229
 31
0.0
  0
LINE
  5
343
330
A
100
AcDbEntity
  8
1
  6
CONTINUOUS
370
    50
100
AcDbLine
 10
121.2969467967
 20
153.933311229
 30
0.0
 11
121.7964062473
 21
154.0526763737
 31
0.0
  0
LINE
  5
344
330
A
100
AcDbEntity
  8
1
  6
CONTINUOUS
370
    50
100
AcDbLine
 10
121.7964062473
 20
154.0526763737
 30
0.0
 11
122.2892220797
 21
154.3990875159
 31
0.0
  0
LINE
  5
345
330
A
100
AcDbEntity
  8
1
  6
CONTINUOUS
370
    50
100
AcDbLine
 10
122.2892220797
 20
154.3990875159
 30
0.0
 11
122.7271540465
 21
154.9386355192
 31
0.0
  0
LINE
  5
346
330
A
100
AcDbEntity
  8
1
  6
CONTINUOUS
370
    50
100
AcDbLine
 10
122.7271540465
 20
154.9386355192
 30
0.0
 11
123.0673343156
 21
155.6185056659
 31
0.0
  0
LINE
  5
347
330
A
100
AcDbEntity
  8
1
  6
CONTINUOUS
370
    50
100
AcDbLine
 10
123.0673343156
 20
155.6185056659
 30
0.0
 11
123.2764636721
 21
156.3721475292
 31
0.0
  0
LINE
  5
348
330
A
100
AcDbEntity
  8
1
  6
CONTINUOUS
370
    50
100
AcDbLine
 10
113.7851730218
 20
159.0960433149
 30
0.0
 11
113.5760436654
 21
158.3424014517
 31
0.0
  0
LINE
  5
349
330
A
100
AcDbEntity
  8
1
  6
CONTINUOUS
370
    50
100
AcDbLine
 10
113.5760436654
 20
158.3424014517
 30
0.0
 11
113.2358633963
 21
157.662531305
 31
0.0
  0
LINE
  5
34A
330
A
100
AcDbEntity
  8
1
  6
CONTINUOUS
370
    50
100
AcDbLine
 10
113.2358633963
 20
157.662531305
 30
0.0
 11
112.7979314294
 21
157.1229833016
 31
0.0
  0
LINE
  5
34B
330
A
100
AcDbEntity
  8
1
  6
CONTINUOUS
370
    50
100
AcDbLine
 10
112.7979314294
 20
157.1229833016
 30
0.0
 11
112.3051155971
 21
156.7765721595
 31
0.0
  0
LINE
  5
34C
330
A
100
AcDbEntity
  8
1
  6
CONTINUOUS
370
    50
100
AcDbLine
 10
112.3051155971
 20
156.7765721595
 30
0.0
 11
111.8056561465
 21
156.6572070148
 31
0.0
  0
LINE
  5
34D
330
A
100
AcDbEntity
  8
1
  6
CONTINUOUS
370
    50
100
AcDbLine
 10
111.8056561465
 20
156.6572070148
 30
0.0
 11
111.3484436486
 21
156.7765721595
 31
0.0
  0
LINE
  5
34E
330
A
100
AcDbEntity
  8
1
  6
CONTINUOUS
370
    50
100
AcDbLine
 10
111.3484436486
 20
156.7765721595
 30
0.0
 11
110.9782332483
 21
157.1229833016
 31
0.0
  0
LINE
  5
34F
330
A
100
AcDbEntity
  8
1
  6
CONTINUOUS
370
    50
100
AcDbLine
 10
110.9782332483
 20
157.1229833016
 30
0.0
 11
110.7312637191
 21
157.662531305
 31
0.0
  0
LINE
  5
350
330
A
100
AcDbEntity
  8
1
  6
CONTINUOUS
370
    50
100
AcDbLine
 10
110.7312637191
 20
157.662531305
 30
0.0
 11
110.6317101591
 21
158.3424014517
 31
0.0
  0
LINE
  5
351
330
A
100
AcDbEntity
  8
1
  6
CONTINUOUS
370
    50
100
AcDbLine
 10
110.6317101591
 20
158.3424014517
 30
0.0
 11
110.6893175644
 21
159.0960433149
 31
0.0
  0
LINE
  5
352
330
A
100
AcDbEntity
  8
1
  6
CONTINUOUS
370
    50
100
AcDbLine
 10
110.6893175644
 20
159.0960433149
 30
0.0
 11
110.8984469209
 21
159.8496851782
 31
0.0
  0
LINE
  5
353
330
A
100
AcDbEntity
  8
1
  6
CONTINUOUS
370
    50
100
AcDbLine
 10
110.8984469209
 20
159.8496851782
 30
0.0
 11
111.23862719
 21
160.5295553249
 31
0.0
  0
LINE
  5
354
330
A
100
AcDbEntity
  8
1
  6
CONTINUOUS
370
    50
100
AcDbLine
 10
111.23862719
 20
160.5295553249
 30
0.0
 11
111.6765591568
 21
161.0691033282
 31
0.0
  0
LINE
  5
355
330
A
100
AcDbEntity
  8
1
  6
CONTINUOUS
370
    50
100
AcDbLine
 10
111.6765591568
 20
161.0691033282
 30
0.0
 11
112.1693749892
 21
161.4155144703
 31
0.0
  0
LINE
  5
356
330
A
100
AcDbEntity
  8
1
  6
CONTINUOUS
370
    50
100
AcDbLine
 10
112.1693749892
 20
161.4155144703
 30
0.0
 11
112.6688344398
 21
161.534879615
 31
0.0
  0
LINE
  5
357
330
A
100
AcDbEntity
  8
1
  6
CONTINUOUS
370
    50
100
AcDbLine
 10
112.6688344398
 20
161.534879615
 30
0.0
 11
113.1260469376
 21
161.4155144703
 31
0.0
  0
LINE
  5
358
330
A
100
AcDbEntity
  8
1
  6
CONTINUOUS
370
    50
100
AcDbLine
 10
113.1260469376
 20
161.4155144703
 30
0.0
 11
113.4962573379
 21
161.0691033282
 31
0.0
  0
LINE
  5
359
330
A
100
AcDbEntity
  8
1
  6
CONTINUOUS
370
    50
100
AcDbLine
 10
113.4962573379
 20
161.0691033282
 30
0.0
 11
113.7432268672
 21
160.5295553249
 31
0.0
  0
LINE
  5
35A
330
A
100
AcDbEntity
  8
1
  6
CONTINUOUS
370
    50
100
AcDbLine
 10
113.7432268672
 20
160.5295553249
 30
0.0
 11
113.8427804272
 21
159.8496851782
 31
0.0
  0
LINE
  5
35B
330
A
100
AcDbEntity
  8
1
  6
CONTINUOUS
370
    50
100
AcDbLine
 10
113.8427804272
 20
159.8496851782
 30
0.0
 11
113.7851730218
 21
159.0960433149
 31
0.0
  0
LINE
  5
35C
330
A
100
AcDbEntity
  8
1
  6
CONTINUOUS
370
    50
100
AcDbLine
 10
147.1844834236
 20
178.0155329167
 30
0.0
 11
115.3244834236
 21
178.0155329167
 31
0.0
  0
LINE
  5
35D
330
A
100
AcDbEntity
  8
1
  6
CONTINUOUS
370
    50
100
AcDbLine
 10
115.3244834236
 20
162.0155329167
 30
0.0
 11
147.1844834236
 21
162.0155329167
 31
0.0
  0
LINE
  5
35E
330
A
100
AcDbEntity
  8
1
  6
CONTINUOUS
370
    50
100
AcDbLine
 10
147.1844834236
 20
178.0155329167
 30
0.0
 11
147.1844834236
 21
177.8939949408
 31
0.0
  0
LINE
  5
35F
330
A
100
AcDbEntity
  8
1
  6
CONTINUOUS
370
    50
100
AcDbLine
 10
147.1844834236
 20
177.8939949408
 30
0.0
 11
147.1844834236
 21
162.0155329167
 31
0.0
  0
LINE
  5
360
330
A
100
AcDbEntity
  8
1
  6
CONTINUOUS
370
    50
100
AcDbLine
 10
147.1844834236
 20
177.5155329167
 30
0.0
 11
147.1844834236
 21
177.4835392389
 31
0.0
  0
LINE
  5
361
330
A
100
AcDbEntity
  8
1
  6
CONTINUOUS
370
    50
100
AcDbLine
 10
147.1844834236
 20
177.4835392389
 30
0.0
 11
147.1844834236
 21
170.0155329167
 31
0.0
  0
ENDSEC
  0
SECTION
  2
OBJECTS
  0
DICTIONARY
  5
19
330
0
100
AcDbDictionary
281
     1
  3
ACAD_GROUP
350
1A
  3
ACAD_LAYOUT
350
386
  3
ACAD_MATERIAL
350
39A
  3
ACAD_MLEADERSTYLE
350
3A2
  3
ACAD_MLINESTYLE
350
1B
  3
ACAD_SCALELIST
350
364
  3
ACAD_VISUALSTYLE
350
389
  3
ACDB_RECOMPOSE_DATA
350
3CF
  3
AcDbVariableDictionary
350
3A0
  0
DICTIONARY
  5
3A6
330
7
100
AcDbDictionary
280
     1
281
     1
  3
ACAD_XREC_ROUNDTRIP
360
3A7
  0
DICTIONARY
  5
1A
102
{ACAD_REACTORS
330
19
102
}
330
19
100
AcDbDictionary
281
     1
  0
DICTIONARY
  5
386
102
{ACAD_REACTORS
330
19
102
}
330
19
100
AcDbDictionary
281
     1
  3
Layout1
350
388
  3
Model
350
387
  0
DICTIONARY
  5
39A
102
{ACAD_REACTORS
330
19
102
}
330
19
100
AcDbDictionary
281
     1
  3
ByBlock
350
39C
  3
ByLayer
350
39B
  3
Global
350
39D
  0
DICTIONARY
  5
3A2
102
{ACAD_REACTORS
330
19
102
}
330
19
100
AcDbDictionary
281
     1
  0
DICTIONARY
  5
1B
102
{ACAD_REACTORS
330
19
102
}
330
19
100
AcDbDictionary
281
     1
  3
STANDARD
350
1C
  0
DICTIONARY
  5
364
102
{ACAD_REACTORS
330
19
102
}
330
19
100
AcDbDictionary
281
     1
  3
A0
350
365
  3
A1
350
366
  3
A2
350
367
  3
A3
350
368
  3
A4
350
369
  3
A5
350
36A
  3
A6
350
36B
  3
A7
350
36C
  3
A8
350
36D
  3
A9
350
36E
  3
B0
350
36F
  3
B1
350
370
  3
B2
350
371
  3
B3
350
372
  3
B4
350
373
  3
B5
350
374
  3
B6
350
375
  3
B7
350
376
  3
B8
350
377
  3
B9
350
378
  3
C0
350
379
  3
C1
350
37A
  3
C2
350
37B
  3
C3
350
37C
  3
C4
350
37D
  3
C5
350
37E
  3
C6
350
37F
  3
C7
350
380
  3
C8
350
381
  3
C9
350
382
  3
D0
350
383
  3
D1
350
384
  3
D2
350
385
  0
DICTIONARY
  5
389
102
{ACAD_REACTORS
330
19
102
}
330
19
100
AcDbDictionary
281
     1
  3
2dWireframe
350
38E
  3
3D Hidden
350
390
  3
3dWireframe
350
38F
  3
Basic
350
391
  3
Brighten
350
395
  3
ColorChange
350
399
  3
Conceptual
350
393
  3
Dim
350
394
  3
Facepattern
350
398
  3
Flat
350
38A
  3
FlatWithEdges
350
38B
  3
Gouraud
350
38C
  3
GouraudWithEdges
350
38D
  3
Linepattern
350
397
  3
Realistic
350
392
  3
Thicken
350
396
  0
XRECORD
  5
3CF
102
{ACAD_REACTORS
330
19
102
}
330
19
100
AcDbXrecord
280
     1
  0
DICTIONARY
  5
3A0
102
{ACAD_REACTORS
330
19
102
}
330
19
100
AcDbDictionary
281
     1
  3
CANNOSCALE
350
3A8
  3
DIMASSOC
350
3A4
  3
HIDETEXT
350
3A5
  3
MSLTSCALE
350
3A3
  0
XRECORD
  5
3A7
102
{ACAD_REACTORS
330
3A6
102
}
330
3A6
100
AcDbXrecord
280
     1
102
VTR_0.000_0.000_1.000_1.000_VISUALSTYLE
340
38E
102
VTR_0.000_0.000_1.000_1.000_GRIDDISPLAY
 70
     3
102
VTR_0.000_0.000_1.000_1.000_GRIDMAJOR
 70
     5
102
VTR_0.000_0.000_1.000_1.000_DEFAULTLIGHTING
280
     1
102
VTR_0.000_0.000_1.000_1.000_DEFAULTLIGHTINGTYPE
 70
     1
102
VTR_0.000_0.000_1.000_1.000_BRIGHTNESS
141
0.0
102
VTR_0.000_0.000_1.000_1.000_CONTRAST
142
0.0
  0
LAYOUT
  5
388
102
{ACAD_REACTORS
330
386
102
}
330
386
100
AcDbPlotSettings
  1

  2
none_device
  4

  6

 40
0.0
 41
0.0
 42
0.0
 43
0.0
 44
0.0
 45
0.0
 46
0.0
 47
0.0
 48
0.0
 49
0.0
140
0.0
141
0.0
142
1.0
143
1.0
 70
   688
 72
     0
 73
     0
 74
     5
  7

 75
    16
147
1.0
148
0.0
149
0.0
100
AcDbLayout
  1
Layout1
 70
     1
 71
     1
 10
0.0
 20
0.0
 11
12.0
 21
9.0
 12
0.0
 22
0.0
 32
0.0
 14
1.000000000000000E+20
 24
1.000000000000000E+20
 34
1.000000000000000E+20
 15
-1.000000000000000E+20
 25
-1.000000000000000E+20
 35
-1.000000000000000E+20
146
0.0
 13
0.0
 23
0.0
 33
0.0
 16
1.0
 26
0.0
 36
0.0
 17
0.0
 27
1.0
 37
0.0
 76
     0
330
B
  0
LAYOUT
  5
387
102
{ACAD_REACTORS
330
386
102
}
330
386
100
AcDbPlotSettings
  1

  2
none_device
  4

  6

 40
0.0
 41
0.0
 42
0.0
 43
0.0
 44
0.0
 45
0.0
 46
0.0
 47
0.0
 48
0.0
 49
0.0
140
0.0
141
0.0
142
1.0
143
1.0
 70
  1712
 72
     0
 73
     0
 74
     0
  7

 75
     0
147
1.0
148
2667.54428576817
149
0.0
100
AcDbLayout
  1
Model
 70
     1
 71
     0
 10
0.0
 20
0.0
 11
0.0
 21
0.0
 12
0.0
 22
0.0
 32
0.0
 14
0.0
 24
0.0
 34
0.0
 15
210.0
 25
297.0
 35
0.0
146
0.0
 13
0.0
 23
0.0
 33
0.0
 16
1.0
 26
0.0
 36
0.0
 17
0.0
 27
1.0
 37
0.0
 76
     0
330
A
331
15
  0
MATERIAL
  5
39C
102
{ACAD_REACTORS
330
39A
102
}
102
{ACAD_XDICTIONARY
360
3CB
102
}
330
39A
100
AcDbMaterial
  1
ByBlock
  0
MATERIAL
  5
39B
102
{ACAD_REACTORS
330
39A
102
}
102
{ACAD_XDICTIONARY
360
3C9
102
}
330
39A
100
AcDbMaterial
  1
ByLayer
  0
MATERIAL
  5
39D
102
{ACAD_REACTORS
330
39A
102
}
102
{ACAD_XDICTIONARY
360
3CD
102
}
330
39A
100
AcDbMaterial
  1
Global
  0
MLINESTYLE
  5
1C
102
{ACAD_REACTORS
330
1B
102
}
330
1B
100
AcDbMlineStyle
  2
STANDARD
 70
     0
  3

 62
     0
 51
90.0
 52
90.0
 71
     2
 49
0.5
 62
   256
  6
BYLAYER
 49
-0.5
 62
   256
  6
BYLAYER
  0
SCALE
  5
365
102
{ACAD_REACTORS
330
364
102
}
330
364
100
AcDbScale
 70
     0
300
1:1
140
1.0
141
1.0
290
     1
  0
SCALE
  5
366
102
{ACAD_REACTORS
330
364
102
}
330
364
100
AcDbScale
 70
     0
300
1:2
140
1.0
141
2.0
290
     0
  0
SCALE
  5
367
102
{ACAD_REACTORS
330
364
102
}
330
364
100
AcDbScale
 70
     0
300
1:4
140
1.0
141
4.0
290
     0
  0
SCALE
  5
368
102
{ACAD_REACTORS
330
364
102
}
330
364
100
AcDbScale
 70
     0
300
1:5
140
1.0
141
5.0
290
     0
  0
SCALE
  5
369
102
{ACAD_REACTORS
330
364
102
}
330
364
100
AcDbScale
 70
     0
300
1:8
140
1.0
141
8.0
290
     0
  0
SCALE
  5
36A
102
{ACAD_REACTORS
330
364
102
}
330
364
100
AcDbScale
 70
     0
300
1:10
140
1.0
141
10.0
290
     0
  0
SCALE
  5
36B
102
{ACAD_REACTORS
330
364
102
}
330
364
100
AcDbScale
 70
     0
300
1:16
140
1.0
141
16.0
290
     0
  0
SCALE
  5
36C
102
{ACAD_REACTORS
330
364
102
}
330
364
100
AcDbScale
 70
     0
300
1:20
140
1.0
141
20.0
290
     0
  0
SCALE
  5
36D
102
{ACAD_REACTORS
330
364
102
}
330
364
100
AcDbScale
 70
     0
300
1:30
140
1.0
141
30.0
290
     0
  0
SCALE
  5
36E
102
{ACAD_REACTORS
330
364
102
}
330
364
100
AcDbScale
 70
     0
300
1:40
140
1.0
141
40.0
290
     0
  0
SCALE
  5
36F
102
{ACAD_REACTORS
330
364
102
}
330
364
100
AcDbScale
 70
     0
300
1:50
140
1.0
141
50.0
290
     0
  0
SCALE
  5
370
102
{ACAD_REACTORS
330
364
102
}
330
364
100
AcDbScale
 70
     0
300
1:100
140
1.0
141
100.0
290
     0
  0
SCALE
  5
371
102
{ACAD_REACTORS
330
364
102
}
330
364
100
AcDbScale
 70
     0
300
2:1
140
2.0
141
1.0
290
     0
  0
SCALE
  5
372
102
{ACAD_REACTORS
330
364
102
}
330
364
100
AcDbScale
 70
     0
300
4:1
140
4.0
141
1.0
290
     0
  0
SCALE
  5
373
102
{ACAD_REACTORS
330
364
102
}
330
364
100
AcDbScale
 70
     0
300
8:1
140
8.0
141
1.0
290
     0
  0
SCALE
  5
374
102
{ACAD_REACTORS
330
364
102
}
330
364
100
AcDbScale
 70
     0
300
10:1
140
10.0
141
1.0
290
     0
  0
SCALE
  5
375
102
{ACAD_REACTORS
330
364
102
}
330
364
100
AcDbScale
 70
     0
300
100:1
140
100.0
141
1.0
290
     0
  0
SCALE
  5
376
102
{ACAD_REACTORS
330
364
102
}
330
364
100
AcDbScale
 70
     0
300
1/128" = 1'-0"
140
0.0078125
141
12.0
290
     0
  0
SCALE
  5
377
102
{ACAD_REACTORS
330
364
102
}
330
364
100
AcDbScale
 70
     0
300
1/64" = 1'-0"
140
0.015625
141
12.0
290
     0
  0
SCALE
  5
378
102
{ACAD_REACTORS
330
364
102
}
330
364
100
AcDbScale
 70
     0
300
1/32" = 1'-0"
140
0.03125
141
12.0
290
     0
  0
SCALE
  5
379
102
{ACAD_REACTORS
330
364
102
}
330
364
100
AcDbScale
 70
     0
300
1/16" = 1'-0"
140
0.0625
141
12.0
290
     0
  0
SCALE
  5
37A
102
{ACAD_REACTORS
330
364
102
}
330
364
100
AcDbScale
 70
     0
300
3/32" = 1'-0"
140
0.09375
141
12.0
290
     0
  0
SCALE
  5
37B
102
{ACAD_REACTORS
330
364
102
}
330
364
100
AcDbScale
 70
     0
300
1/8" = 1'-0"
140
0.125
141
12.0
290
     0
  0
SCALE
  5
37C
102
{ACAD_REACTORS
330
364
102
}
330
364
100
AcDbScale
 70
     0
300
3/16" = 1'-0"
140
0.1875
141
12.0
290
     0
  0
SCALE
  5
37D
102
{ACAD_REACTORS
330
364
102
}
330
364
100
AcDbScale
 70
     0
300
1/4" = 1'-0"
140
0.25
141
12.0
290
     0
  0
SCALE
  5
37E
102
{ACAD_REACTORS
330
364
102
}
330
364
100
AcDbScale
 70
     0
300
3/8" = 1'-0"
140
0.375
141
12.0
290
     0
  0
SCALE
  5
37F
102
{ACAD_REACTORS
330
364
102
}
330
364
100
AcDbScale
 70
     0
300
1/2" = 1'-0"
140
0.5
141
12.0
290
     0
  0
SCALE
  5
380
102
{ACAD_REACTORS
330
364
102
}
330
364
100
AcDbScale
 70
     0
300
3/4" = 1'-0"
140
0.75
141
12.0
290
     0
  0
SCALE
  5
381
102
{ACAD_REACTORS
330
364
102
}
330
364
100
AcDbScale
 70
     0
300
1" = 1'-0"
140
1.0
141
12.0
290
     0
  0
SCALE
  5
382
102
{ACAD_REACTORS
330
364
102
}
330
364
100
AcDbScale
 70
     0
300
1-1/2" = 1'-0"
140
1.5
141
12.0
290
     0
  0
SCALE
  5
383
102
{ACAD_REACTORS
330
364
102
}
330
364
100
AcDbScale
 70
     0
300
3" = 1'-0"
140
3.0
141
12.0
290
     0
  0
SCALE
  5
384
102
{ACAD_REACTORS
330
364
102
}
330
364
100
AcDbScale
 70
     0
300
6" = 1'-0"
140
6.0
141
12.0
290
     0
  0
SCALE
  5
385
102
{ACAD_REACTORS
330
364
102
}
330
364
100
AcDbScale
 70
     0
300
1'-0" = 1'-0"
140
12.0
141
12.0
290
     0
  0
VISUALSTYLE
  5
38E
102
{ACAD_REACTORS
330
389
102
}
102
{ACAD_XDICTIONARY
360
3B1
102
}
330
389
100
AcDbVisualStyle
  2
2dWireframe
 70
     4
 71
     0
 72
     2
 73
     0
 90
        0
 40
-0.6
 41
-30.0
 62
     5
 63
     7
 74
     1
 91
        4
 64
     7
 65
   257
 75
     1
175
     1
 42
1.0
 92
        0
 66
   257
 43
1.0
 76
     1
 77
     6
 78
     2
 67
     7
 79
     5
170
     0
171
     0
290
     0
174
     0
 93
        1
 44
0.0
173
     0
291
     0
 45
0.0
1001
ACAD
1000
AcDbSavedByObjectVersion
1070
     0
  0
VISUALSTYLE
  5
390
102
{ACAD_REACTORS
330
389
102
}
102
{ACAD_XDICTIONARY
360
3B5
102
}
330
389
100
AcDbVisualStyle
  2
3D Hidden
 70
     6
 71
     1
 72
     2
 73
     2
 90
        0
 40
-0.6
 41
-30.0
 62
     5
 63
     7
 74
     2
 91
        2
 64
     7
 65
   257
 75
     2
175
     1
 42
40.0
 92
        0
 66
   257
 43
1.0
 76
     1
 77
     6
 78
     2
 67
     7
 79
     3
170
     0
171
     0
290
     0
174
     0
 93
        1
 44
0.0
173
     0
291
     0
 45
0.0
1001
ACAD
1000
AcDbSavedByObjectVersion
1070
     0
  0
VISUALSTYLE
  5
38F
102
{ACAD_REACTORS
330
389
102
}
102
{ACAD_XDICTIONARY
360
3B3
102
}
330
389
100
AcDbVisualStyle
  2
3dWireframe
 70
     5
 71
     0
 72
     2
 73
     0
 90
        0
 40
-0.6
 41
-30.0
 62
     5
 63
     7
 74
     1
 91
        4
 64
     7
 65
   257
 75
     1
175
     1
 42
1.0
 92
        0
 66
   257
 43
1.0
 76
     1
 77
     6
 78
     2
 67
     7
 79
     5
170
     0
171
     0
290
     0
174
     0
 93
        1
 44
0.0
173
     0
291
     0
 45
0.0
1001
ACAD
1000
AcDbSavedByObjectVersion
1070
     0
  0
VISUALSTYLE
  5
391
102
{ACAD_REACTORS
330
389
102
}
102
{ACAD_XDICTIONARY
360
3B7
102
}
330
389
100
AcDbVisualStyle
  2
Basic
 70
     7
 71
     1
 72
     0
 73
     1
 90
        0
 40
-0.6
 41
-30.0
 62
     5
 63
     7
 74
     0
 91
        4
 64
     7
 65
   257
 75
     1
175
     1
 42
1.0
 92
        8
 66
     7
 43
1.0
 76
     1
 77
     6
 78
     2
 67
     7
 79
     5
170
     0
171
     0
290
     0
174
     0
 93
        1
 44
0.0
173
     0
291
     1
 45
0.0
1001
ACAD
1000
AcDbSavedByObjectVersion
1070
     0
  0
VISUALSTYLE
  5
395
102
{ACAD_REACTORS
330
389
102
}
102
{ACAD_XDICTIONARY
360
3BF
102
}
330
389
100
AcDbVisualStyle
  2
Brighten
 70
    12
 71
     2
 72
     2
 73
     0
 90
        0
 40
-0.6
 41
-30.0
 62
     5
 63
     7
 74
     1
 91
        4
 64
     7
 65
   257
 75
     1
175
     1
 42
1.0
 92
        8
 66
     7
 43
1.0
 76
     1
 77
     6
 78
     2
 67
     7
 79
     5
170
     0
171
     0
290
     0
174
     0
 93
        1
 44
50.0
173
     0
291
     1
 45
0.0
1001
ACAD
1000
AcDbSavedByObjectVersion
1070
     0
  0
VISUALSTYLE
  5
399
102
{ACAD_REACTORS
330
389
102
}
102
{ACAD_XDICTIONARY
360
3C7
102
}
330
389
100
AcDbVisualStyle
  2
ColorChange
 70
    16
 71
     2
 72
     2
 73
     3
 90
        0
 40
-0.6
 41
-30.0
 62
     5
 63
     8
 74
     1
 91
        4
 64
     7
 65
   257
 75
     1
175
     1
 42
1.0
 92
        8
 66
     8
 43
1.0
 76
     1
 77
     6
 78
     2
 67
     7
 79
     5
170
     0
171
     0
290
     0
174
     0
 93
        1
 44
0.0
173
     0
291
     1
 45
0.0
1001
ACAD
1000
AcDbSavedByObjectVersion
1070
     0
  0
VISUALSTYLE
  5
393
102
{ACAD_REACTORS
330
389
102
}
102
{ACAD_XDICTIONARY
360
3BB
102
}
330
389
100
AcDbVisualStyle
  2
Conceptual
 70
     9
 71
     3
 72
     2
 73
     0
 90
        0
 40
-0.6
 41
-30.0
 62
     5
 63
     7
 74
     2
 91
        2
 64
     7
 65
   257
 75
     1
175
     1
 42
40.0
 92
        8
 66
     7
 43
1.0
 76
     1
 77
     6
 78
     2
 67
     7
 79
     3
170
     0
171
     0
290
     0
174
     0
 93
        1
 44
0.0
173
     0
291
     0
 45
0.0
1001
ACAD
1000
AcDbSavedByObjectVersion
1070
     0
  0
VISUALSTYLE
  5
394
102
{ACAD_REACTORS
330
389
102
}
102
{ACAD_XDICTIONARY
360
3BD
102
}
330
389
100
AcDbVisualStyle
  2
Dim
 70
    11
 71
     2
 72
     2
 73
     0
 90
        0
 40
-0.6
 41
-30.0
 62
     5
 63
     7
 74
     1
 91
        4
 64
     7
 65
   257
 75
     1
175
     1
 42
1.0
 92
        8
 66
     7
 43
1.0
 76
     1
 77
     6
 78
     2
 67
     7
 79
     5
170
     0
171
     0
290
     0
174
     0
 93
        1
 44
-50.0
173
     0
291
     1
 45
0.0
1001
ACAD
1000
AcDbSavedByObjectVersion
1070
     0
  0
VISUALSTYLE
  5
398
102
{ACAD_REACTORS
330
389
102
}
102
{ACAD_XDICTIONARY
360
3C5
102
}
330
389
100
AcDbVisualStyle
  2
Facepattern
 70
    15
 71
     2
 72
     2
 73
     0
 90
        0
 40
-0.6
 41
-30.0
 62
     5
 63
     7
 74
     1
 91
        4
 64
     7
 65
   257
 75
     1
175
     1
 42
1.0
 92
        8
 66
     7
 43
1.0
 76
     1
 77
     6
 78
     2
 67
     7
 79
     5
170
     0
171
     0
290
     0
174
     0
 93
        1
 44
0.0
173
     0
291
     1
 45
0.0
1001
ACAD
1000
AcDbSavedByObjectVersion
1070
     0
  0
VISUALSTYLE
  5
38A
102
{ACAD_REACTORS
330
389
102
}
102
{ACAD_XDICTIONARY
360
3A9
102
}
330
389
100
AcDbVisualStyle
  2
Flat
 70
     0
 71
     2
 72
     1
 73
     1
 90
        2
 40
-0.6
 41
30.0
 62
     5
 63
     7
 74
     0
 91
        4
 64
     7
 65
   257
 75
     1
175
     1
 42
1.0
 92
        8
 66
     7
 43
1.0
 76
     1
 77
     6
 78
     2
 67
     7
 79
     5
170
     0
171
     0
290
     0
174
     0
 93
       13
 44
0.0
173
     0
291
     1
 45
0.0
1001
ACAD
1000
AcDbSavedByObjectVersion
1070
     0
  0
VISUALSTYLE
  5
38B
102
{ACAD_REACTORS
330
389
102
}
102
{ACAD_XDICTIONARY
360
3AB
102
}
330
389
100
AcDbVisualStyle
  2
FlatWithEdges
 70
     1
 71
     2
 72
     1
 73
     1
 90
        2
 40
-0.6
 41
30.0
 62
     5
 63
     7
 74
     1
 91
        4
 64
     7
 65
   257
 75
     1
175
     1
 42
1.0
 92
        0
 66
   257
 43
1.0
 76
     1
 77
     6
 78
     2
 67
     7
 79
     5
170
     0
171
     0
290
     0
174
     0
 93
       13
 44
0.0
173
     0
291
     1
 45
0.0
1001
ACAD
1000
AcDbSavedByObjectVersion
1070
     0
  0
VISUALSTYLE
  5
38C
102
{ACAD_REACTORS
330
389
102
}
102
{ACAD_XDICTIONARY
360
3AD
102
}
330
389
100
AcDbVisualStyle
  2
Gouraud
 70
     2
 71
     2
 72
     2
 73
     1
 90
        2
 40
-0.6
 41
30.0
 62
     5
 63
     7
 74
     0
 91
        4
 64
     7
 65
   257
 75
     1
175
     1
 42
1.0
 92
        0
 66
     7
 43
1.0
 76
     1
 77
     6
 78
     2
 67
     7
 79
     5
170
     0
171
     0
290
     0
174
     0
 93
       13
 44
0.0
173
     0
291
     1
 45
0.0
1001
ACAD
1000
AcDbSavedByObjectVersion
1070
     0
  0
VISUALSTYLE
  5
38D
102
{ACAD_REACTORS
330
389
102
}
102
{ACAD_XDICTIONARY
360
3AF
102
}
330
389
100
AcDbVisualStyle
  2
GouraudWithEdges
 70
     3
 71
     2
 72
     2
 73
     1
 90
        2
 40
-0.6
 41
30.0
 62
     5
 63
     7
 74
     1
 91
        4
 64
     7
 65
   257
 75
     1
175
     1
 42
1.0
 92
        0
 66
   257
 43
1.0
 76
     1
 77
     6
 78
     2
 67
     7
 79
     5
170
     0
171
     0
290
     0
174
     0
 93
       13
 44
0.0
173
     0
291
     1
 45
0.0
1001
ACAD
1000
AcDbSavedByObjectVersion
1070
     0
  0
VISUALSTYLE
  5
397
102
{ACAD_REACTORS
330
389
102
}
102
{ACAD_XDICTIONARY
360
3C3
102
}
330
389
100
AcDbVisualStyle
  2
Linepattern
 70
    14
 71
     2
 72
     2
 73
     0
 90
        0
 40
-0.6
 41
-30.0
 62
     5
 63
     7
 74
     1
 91
        4
 64
     7
 65
   257
 75
     7
175
     7
 42
1.0
 92
        8
 66
     7
 43
1.0
 76
     1
 77
     6
 78
     2
 67
     7
 79
     5
170
     0
171
     0
290
     0
174
     0
 93
        1
 44
0.0
173
     0
291
     1
 45
0.0
1001
ACAD
1000
AcDbSavedByObjectVersion
1070
     0
  0
VISUALSTYLE
  5
392
102
{ACAD_REACTORS
330
389
102
}
102
{ACAD_XDICTIONARY
360
3B9
102
}
330
389
100
AcDbVisualStyle
  2
Realistic
 70
     8
 71
     2
 72
     2
 73
     0
 90
        0
 40
-0.6
 41
-30.0
 62
     5
 63
     7
 74
     1
 91
        0
 64
     7
 65
   257
 75
     1
175
     1
 42
1.0
 92
        8
 66
     8
 43
1.0
 76
     1
 77
     6
 78
     2
 67
     7
 79
     5
170
     0
171
     0
290
     0
174
     0
 93
       13
 44
0.0
173
     0
291
     0
 45
0.0
1001
ACAD
1000
AcDbSavedByObjectVersion
1070
     0
  0
VISUALSTYLE
  5
396
102
{ACAD_REACTORS
330
389
102
}
102
{ACAD_XDICTIONARY
360
3C1
102
}
330
389
100
AcDbVisualStyle
  2
Thicken
 70
    13
 71
     2
 72
     2
 73
     0
 90
        0
 40
-0.6
 41
-30.0
 62
     5
 63
     7
 74
     1
 91
        4
 64
     7
 65
   257
 75
     1
175
     1
 42
1.0
 92
       12
 66
     7
 43
1.0
 76
     1
 77
     6
 78
     2
 67
     7
 79
     5
170
     0
171
     0
290
     0
174
     0
 93
        1
 44
0.0
173
     0
291
     1
 45
0.0
1001
ACAD
1000
AcDbSavedByObjectVersion
1070
     0
  0
DICTIONARYVAR
  5
3A8
102
{ACAD_REACTORS
330
3A0
102
}
330
3A0
100
DictionaryVariables
280
     0
  1
1:1
  0
DICTIONARYVAR
  5
3A4
102
{ACAD_REACTORS
330
3A0
102
}
330
3A0
100
DictionaryVariables
280
     0
  1
2
  0
DICTIONARYVAR
  5
3A5
102
{ACAD_REACTORS
330
3A0
102
}
330
3A0
100
DictionaryVariables
280
     0
  1
1
  0
DICTIONARYVAR
  5
3A3
102
{ACAD_REACTORS
330
3A0
102
}
330
3A0
100
DictionaryVariables
280
     0
  1
0
  0
DICTIONARY
  5
3CB
330
39C
100
AcDbDictionary
280
     1
281
     1
  3
ACAD_XREC_ROUNDTRIP
360
3CC
  0
DICTIONARY
  5
3C9
330
39B
100
AcDbDictionary
280
     1
281
     1
  3
ACAD_XREC_ROUNDTRIP
360
3CA
  0
DICTIONARY
  5
3CD
330
39D
100
AcDbDictionary
280
     1
281
     1
  3
ACAD_XREC_ROUNDTRIP
360
3CE
  0
DICTIONARY
  5
3B1
330
38E
100
AcDbDictionary
280
     1
281
     1
  3
ACAD_XREC_ROUNDTRIP
360
3B2
  0
DICTIONARY
  5
3B5
330
390
100
AcDbDictionary
280
     1
281
     1
  3
ACAD_XREC_ROUNDTRIP
360
3B6
  0
DICTIONARY
  5
3B3
330
38F
100
AcDbDictionary
280
     1
281
     1
  3
ACAD_XREC_ROUNDTRIP
360
3B4
  0
DICTIONARY
  5
3B7
330
391
100
AcDbDictionary
280
     1
281
     1
  3
ACAD_XREC_ROUNDTRIP
360
3B8
  0
DICTIONARY
  5
3BF
330
395
100
AcDbDictionary
280
     1
281
     1
  3
ACAD_XREC_ROUNDTRIP
360
3C0
  0
DICTIONARY
  5
3C7
330
399
100
AcDbDictionary
280
     1
281
     1
  3
ACAD_XREC_ROUNDTRIP
360
3C8
  0
DICTIONARY
  5
3BB
330
393
100
AcDbDictionary
280
     1
281
     1
  3
ACAD_XREC_ROUNDTRIP
360
3BC
  0
DICTIONARY
  5
3BD
330
394
100
AcDbDictionary
280
     1
281
     1
  3
ACAD_XREC_ROUNDTRIP
360
3BE
  0
DICTIONARY
  5
3C5
330
398
100
AcDbDictionary
280
     1
281
     1
  3
ACAD_XREC_ROUNDTRIP
360
3C6
  0
DICTIONARY
  5
3A9
330
38A
100
AcDbDictionary
280
     1
281
     1
  3
ACAD_XREC_ROUNDTRIP
360
3AA
  0
DICTIONARY
  5
3AB
330
38B
100
AcDbDictionary
280
     1
281
     1
  3
ACAD_XREC_ROUNDTRIP
360
3AC
  0
DICTIONARY
  5
3AD
330
38C
100
AcDbDictionary
280
     1
281
     1
  3
ACAD_XREC_ROUNDTRIP
360
3AE
  0
DICTIONARY
  5
3AF
330
38D
100
AcDbDictionary
280
     1
281
     1
  3
ACAD_XREC_ROUNDTRIP
360
3B0
  0
DICTIONARY
  5
3C3
330
397
100
AcDbDictionary
280
     1
281
     1
  3
ACAD_XREC_ROUNDTRIP
360
3C4
  0
DICTIONARY
  5
3B9
330
392
100
AcDbDictionary
280
     1
281
     1
  3
ACAD_XREC_ROUNDTRIP
360
3BA
  0
DICTIONARY
  5
3C1
330
396
100
AcDbDictionary
280
     1
281
     1
  3
ACAD_XREC_ROUNDTRIP
360
3C2
  0
XRECORD
  5
3CC
102
{ACAD_REACTORS
330
3CB
102
}
330
3CB
100
AcDbXrecord
280
     1
102
MATERIAL
148
0.0
149
0.0
149
0.0
 93
        0
 94
      127
282
     0
 72
     1
 77
     1
171
     1
175
     1
179
     1
273
     0
  0
XRECORD
  5
3CA
102
{ACAD_REACTORS
330
3C9
102
}
330
3C9
100
AcDbXrecord
280
     1
102
MATERIAL
148
0.0
149
0.0
149
0.0
 93
        0
 94
      127
282
     0
 72
     1
 77
     1
171
     1
175
     1
179
     1
273
     0
  0
XRECORD
  5
3CE
102
{ACAD_REACTORS
330
3CD
102
}
330
3CD
100
AcDbXrecord
280
     1
102
MATERIAL
148
0.0
149
0.0
149
0.0
 93
        0
 94
      127
282
     0
 72
     1
 77
     1
171
     1
175
     1
179
     1
273
     0
  0
XRECORD
  5
3B2
102
{ACAD_REACTORS
330
3B1
102
}
330
3B1
100
AcDbXrecord
280
     1
102
RTVSPropertyOp0
 70
     1
102
RTVSPropertyOp1
 70
     1
102
RTVSPropertyOp2
 70
     1
102
RTVSPropertyOp3
 70
     1
102
RTVSPropertyOp4
 70
     1
102
RTVSPropertyOp5
 70
     1
102
RTVSPropertyOp6
 70
     1
102
RTVSPropertyOp7
 70
     1
102
RTVSPropertyOp8
 70
     1
102
RTVSPropertyOp9
 70
     1
102
RTVSPropertyOp10
 70
     1
102
RTVSPropertyOp11
 70
     1
102
RTVSPropertyOp12
 70
     1
102
RTVSPropertyOp13
 70
     1
102
RTVSPropertyOp14
 70
     1
102
RTVSPropertyOp15
 70
     1
102
RTVSPropertyOp16
 70
     1
102
RTVSPropertyOp17
 70
     1
102
RTVSPropertyOp18
 70
     1
102
RTVSPropertyOp19
 70
     1
102
RTVSPropertyOp20
 70
     1
102
RTVSPropertyOp21
 70
     1
102
RTVSPropertyOp22
 70
     1
102
RTVSPropertyOp23
 70
     1
102
RTVSPropertyOp24
 70
     1
102
RTVSPropertyOp25
 70
     1
102
RTVSPropertyOp26
 70
     1
102
RTVSPropertyOp27
 70
     1
102
RTVSPropertyOp28
 70
     1
102
RTVSPropertyOp29
 70
     1
102
RTVSPropertyOp30
 70
     1
102
RTVSPropertyOp31
 70
     1
102
RTVSPropertyOp32
 70
     1
  0
XRECORD
  5
3B6
102
{ACAD_REACTORS
330
3B5
102
}
330
3B5
100
AcDbXrecord
280
     1
102
RTVSPropertyOp0
 70
     1
102
RTVSPropertyOp1
 70
     1
102
RTVSPropertyOp2
 70
     1
102
RTVSPropertyOp3
 70
     1
102
RTVSPropertyOp4
 70
     1
102
RTVSPropertyOp5
 70
     1
102
RTVSPropertyOp6
 70
     1
102
RTVSPropertyOp7
 70
     1
102
RTVSPropertyOp8
 70
     1
102
RTVSPropertyOp9
 70
     1
102
RTVSPropertyOp10
 70
     1
102
RTVSPropertyOp11
 70
     1
102
RTVSPropertyOp12
 70
     1
102
RTVSPropertyOp13
 70
     1
102
RTVSPropertyOp14
 70
     1
102
RTVSPropertyOp15
 70
     1
102
RTVSPropertyOp16
 70
     1
102
RTVSPropertyOp17
 70
     1
102
RTVSPropertyOp18
 70
     1
102
RTVSPropertyOp19
 70
     1
102
RTVSPropertyOp20
 70
     1
102
RTVSPropertyOp21
 70
     1
102
RTVSPropertyOp22
 70
     1
102
RTVSPropertyOp23
 70
     1
102
RTVSPropertyOp24
 70
     1
102
RTVSPropertyOp25
 70
     1
102
RTVSPropertyOp26
 70
     1
102
RTVSPropertyOp27
 70
     1
102
RTVSPropertyOp28
 70
     1
102
RTVSPropertyOp29
 70
     1
102
RTVSPropertyOp30
 70
     1
102
RTVSPropertyOp31
 70
     1
102
RTVSPropertyOp32
 70
     1
  0
XRECORD
  5
3B4
102
{ACAD_REACTORS
330
3B3
102
}
330
3B3
100
AcDbXrecord
280
     1
102
RTVSPropertyOp0
 70
     1
102
RTVSPropertyOp1
 70
     1
102
RTVSPropertyOp2
 70
     1
102
RTVSPropertyOp3
 70
     1
102
RTVSPropertyOp4
 70
     1
102
RTVSPropertyOp5
 70
     1
102
RTVSPropertyOp6
 70
     1
102
RTVSPropertyOp7
 70
     1
102
RTVSPropertyOp8
 70
     1
102
RTVSPropertyOp9
 70
     1
102
RTVSPropertyOp10
 70
     1
102
RTVSPropertyOp11
 70
     1
102
RTVSPropertyOp12
 70
     1
102
RTVSPropertyOp13
 70
     1
102
RTVSPropertyOp14
 70
     1
102
RTVSPropertyOp15
 70
     1
102
RTVSPropertyOp16
 70
     1
102
RTVSPropertyOp17
 70
     1
102
RTVSPropertyOp18
 70
     1
102
RTVSPropertyOp19
 70
     1
102
RTVSPropertyOp20
 70
     1
102
RTVSPropertyOp21
 70
     1
102
RTVSPropertyOp22
 70
     1
102
RTVSPropertyOp23
 70
     1
102
RTVSPropertyOp24
 70
     1
102
RTVSPropertyOp25
 70
     1
102
RTVSPropertyOp26
 70
     1
102
RTVSPropertyOp27
 70
     1
102
RTVSPropertyOp28
 70
     1
102
RTVSPropertyOp29
 70
     1
102
RTVSPropertyOp30
 70
     1
102
RTVSPropertyOp31
 70
     1
102
RTVSPropertyOp32
 70
     1
  0
XRECORD
  5
3B8
102
{ACAD_REACTORS
330
3B7
102
}
330
3B7
100
AcDbXrecord
280
     1
102
RTVSPropertyOp0
 70
     1
102
RTVSPropertyOp1
 70
     1
102
RTVSPropertyOp2
 70
     1
102
RTVSPropertyOp3
 70
     1
102
RTVSPropertyOp4
 70
     1
102
RTVSPropertyOp5
 70
     1
102
RTVSPropertyOp6
 70
     1
102
RTVSPropertyOp7
 70
     1
102
RTVSPropertyOp8
 70
     1
102
RTVSPropertyOp9
 70
     1
102
RTVSPropertyOp10
 70
     1
102
RTVSPropertyOp11
 70
     1
102
RTVSPropertyOp12
 70
     1
102
RTVSPropertyOp13
 70
     1
102
RTVSPropertyOp14
 70
     1
102
RTVSPropertyOp15
 70
     1
102
RTVSPropertyOp16
 70
     1
102
RTVSPropertyOp17
 70
     1
102
RTVSPropertyOp18
 70
     1
102
RTVSPropertyOp19
 70
     1
102
RTVSPropertyOp20
 70
     1
102
RTVSPropertyOp21
 70
     1
102
RTVSPropertyOp22
 70
     1
102
RTVSPropertyOp23
 70
     1
102
RTVSPropertyOp24
 70
     1
102
RTVSPropertyOp25
 70
     1
102
RTVSPropertyOp26
 70
     1
102
RTVSPropertyOp27
 70
     1
102
RTVSPropertyOp28
 70
     1
102
RTVSPropertyOp29
 70
     1
102
RTVSPropertyOp30
 70
     1
102
RTVSPropertyOp31
 70
     1
102
RTVSPropertyOp32
 70
     1
  0
XRECORD
  5
3C0
102
{ACAD_REACTORS
330
3BF
102
}
330
3BF
100
AcDbXrecord
280
     1
102
RTVSPropertyOp0
 70
     1
102
RTVSPropertyOp1
 70
     1
102
RTVSPropertyOp2
 70
     1
102
RTVSPropertyOp3
 70
     1
102
RTVSPropertyOp4
 70
     1
102
RTVSPropertyOp5
 70
     1
102
RTVSPropertyOp6
 70
     1
102
RTVSPropertyOp7
 70
     1
102
RTVSPropertyOp8
 70
     1
102
RTVSPropertyOp9
 70
     1
102
RTVSPropertyOp10
 70
     1
102
RTVSPropertyOp11
 70
     1
102
RTVSPropertyOp12
 70
     1
102
RTVSPropertyOp13
 70
     1
102
RTVSPropertyOp14
 70
     1
102
RTVSPropertyOp15
 70
     1
102
RTVSPropertyOp16
 70
     1
102
RTVSPropertyOp17
 70
     1
102
RTVSPropertyOp18
 70
     1
102
RTVSPropertyOp19
 70
     1
102
RTVSPropertyOp20
 70
     1
102
RTVSPropertyOp21
 70
     1
102
RTVSPropertyOp22
 70
     1
102
RTVSPropertyOp23
 70
     1
102
RTVSPropertyOp24
 70
     1
102
RTVSPropertyOp25
 70
     1
102
RTVSPropertyOp26
 70
     1
102
RTVSPropertyOp27
 70
     1
102
RTVSPropertyOp28
 70
     1
102
RTVSPropertyOp29
 70
     1
102
RTVSPropertyOp30
 70
     1
102
RTVSPropertyOp31
 70
     1
102
RTVSPropertyOp32
 70
     1
  0
XRECORD
  5
3C8
102
{ACAD_REACTORS
330
3C7
102
}
330
3C7
100
AcDbXrecord
280
     1
102
RTVSPropertyOp0
 70
     1
102
RTVSPropertyOp1
 70
     1
102
RTVSPropertyOp2
 70
     1
102
RTVSPropertyOp3
 70
     1
102
RTVSPropertyOp4
 70
     1
102
RTVSPropertyOp5
 70
     1
102
RTVSPropertyOp6
 70
     1
102
RTVSPropertyOp7
 70
     1
102
RTVSPropertyOp8
 70
     1
102
RTVSPropertyOp9
 70
     1
102
RTVSPropertyOp10
 70
     1
102
RTVSPropertyOp11
 70
     1
102
RTVSPropertyOp12
 70
     1
102
RTVSPropertyOp13
 70
     1
102
RTVSPropertyOp14
 70
     1
102
RTVSPropertyOp15
 70
     1
102
RTVSPropertyOp16
 70
     1
102
RTVSPropertyOp17
 70
     1
102
RTVSPropertyOp18
 70
     1
102
RTVSPropertyOp19
 70
     1
102
RTVSPropertyOp20
 70
     1
102
RTVSPropertyOp21
 70
     1
102
RTVSPropertyOp22
 70
     1
102
RTVSPropertyOp23
 70
     1
102
RTVSPropertyOp24
 70
     1
102
RTVSPropertyOp25
 70
     1
102
RTVSPropertyOp26
 70
     1
102
RTVSPropertyOp27
 70
     1
102
RTVSPropertyOp28
 70
     1
102
RTVSPropertyOp29
 70
     1
102
RTVSPropertyOp30
 70
     1
102
RTVSPropertyOp31
 70
     1
102
RTVSPropertyOp32
 70
     1
  0
XRECORD
  5
3BC
102
{ACAD_REACTORS
330
3BB
102
}
330
3BB
100
AcDbXrecord
280
     1
102
RTVSPropertyOp0
 70
     1
102
RTVSPropertyOp1
 70
     1
102
RTVSPropertyOp2
 70
     1
102
RTVSPropertyOp3
 70
     1
102
RTVSPropertyOp4
 70
     1
102
RTVSPropertyOp5
 70
     1
102
RTVSPropertyOp6
 70
     1
102
RTVSPropertyOp7
 70
     1
102
RTVSPropertyOp8
 70
     1
102
RTVSPropertyOp9
 70
     1
102
RTVSPropertyOp10
 70
     1
102
RTVSPropertyOp11
 70
     1
102
RTVSPropertyOp12
 70
     1
102
RTVSPropertyOp13
 70
     1
102
RTVSPropertyOp14
 70
     1
102
RTVSPropertyOp15
 70
     1
102
RTVSPropertyOp16
 70
     1
102
RTVSPropertyOp17
 70
     1
102
RTVSPropertyOp18
 70
     1
102
RTVSPropertyOp19
 70
     1
102
RTVSPropertyOp20
 70
     1
102
RTVSPropertyOp21
 70
     1
102
RTVSPropertyOp22
 70
     1
102
RTVSPropertyOp23
 70
     1
102
RTVSPropertyOp24
 70
     1
102
RTVSPropertyOp25
 70
     1
102
RTVSPropertyOp26
 70
     1
102
RTVSPropertyOp27
 70
     1
102
RTVSPropertyOp28
 70
     1
102
RTVSPropertyOp29
 70
     1
102
RTVSPropertyOp30
 70
     1
102
RTVSPropertyOp31
 70
     1
102
RTVSPropertyOp32
 70
     1
  0
XRECORD
  5
3BE
102
{ACAD_REACTORS
330
3BD
102
}
330
3BD
100
AcDbXrecord
280
     1
102
RTVSPropertyOp0
 70
     1
102
RTVSPropertyOp1
 70
     1
102
RTVSPropertyOp2
 70
     1
102
RTVSPropertyOp3
 70
     1
102
RTVSPropertyOp4
 70
     1
102
RTVSPropertyOp5
 70
     1
102
RTVSPropertyOp6
 70
     1
102
RTVSPropertyOp7
 70
     1
102
RTVSPropertyOp8
 70
     1
102
RTVSPropertyOp9
 70
     1
102
RTVSPropertyOp10
 70
     1
102
RTVSPropertyOp11
 70
     1
102
RTVSPropertyOp12
 70
     1
102
RTVSPropertyOp13
 70
     1
102
RTVSPropertyOp14
 70
     1
102
RTVSPropertyOp15
 70
     1
102
RTVSPropertyOp16
 70
     1
102
RTVSPropertyOp17
 70
     1
102
RTVSPropertyOp18
 70
     1
102
RTVSPropertyOp19
 70
     1
102
RTVSPropertyOp20
 70
     1
102
RTVSPropertyOp21
 70
     1
102
RTVSPropertyOp22
 70
     1
102
RTVSPropertyOp23
 70
     1
102
RTVSPropertyOp24
 70
     1
102
RTVSPropertyOp25
 70
     1
102
RTVSPropertyOp26
 70
     1
102
RTVSPropertyOp27
 70
     1
102
RTVSPropertyOp28
 70
     1
102
RTVSPropertyOp29
 70
     1
102
RTVSPropertyOp30
 70
     1
102
RTVSPropertyOp31
 70
     1
102
RTVSPropertyOp32
 70
     1
  0
XRECORD
  5
3C6
102
{ACAD_REACTORS
330
3C5
102
}
330
3C5
100
AcDbXrecord
280
     1
102
RTVSPropertyOp0
 70
     1
102
RTVSPropertyOp1
 70
     1
102
RTVSPropertyOp2
 70
     1
102
RTVSPropertyOp3
 70
     1
102
RTVSPropertyOp4
 70
     1
102
RTVSPropertyOp5
 70
     1
102
RTVSPropertyOp6
 70
     1
102
RTVSPropertyOp7
 70
     1
102
RTVSPropertyOp8
 70
     1
102
RTVSPropertyOp9
 70
     1
102
RTVSPropertyOp10
 70
     1
102
RTVSPropertyOp11
 70
     1
102
RTVSPropertyOp12
 70
     1
102
RTVSPropertyOp13
 70
     1
102
RTVSPropertyOp14
 70
     1
102
RTVSPropertyOp15
 70
     1
102
RTVSPropertyOp16
 70
     1
102
RTVSPropertyOp17
 70
     1
102
RTVSPropertyOp18
 70
     1
102
RTVSPropertyOp19
 70
     1
102
RTVSPropertyOp20
 70
     1
102
RTVSPropertyOp21
 70
     1
102
RTVSPropertyOp22
 70
     1
102
RTVSPropertyOp23
 70
     1
102
RTVSPropertyOp24
 70
     1
102
RTVSPropertyOp25
 70
     1
102
RTVSPropertyOp26
 70
     1
102
RTVSPropertyOp27
 70
     1
102
RTVSPropertyOp28
 70
     1
102
RTVSPropertyOp29
 70
     1
102
RTVSPropertyOp30
 70
     1
102
RTVSPropertyOp31
 70
     1
102
RTVSPropertyOp32
 70
     1
  0
XRECORD
  5
3AA
102
{ACAD_REACTORS
330
3A9
102
}
330
3A9
100
AcDbXrecord
280
     1
102
RTVSPropertyOp0
 70
     1
102
RTVSPropertyOp1
 70
     1
102
RTVSPropertyOp2
 70
     1
102
RTVSPropertyOp3
 70
     1
102
RTVSPropertyOp4
 70
     1
102
RTVSPropertyOp5
 70
     1
102
RTVSPropertyOp6
 70
     1
102
RTVSPropertyOp7
 70
     1
102
RTVSPropertyOp8
 70
     1
102
RTVSPropertyOp9
 70
     1
102
RTVSPropertyOp10
 70
     1
102
RTVSPropertyOp11
 70
     1
102
RTVSPropertyOp12
 70
     1
102
RTVSPropertyOp13
 70
     1
102
RTVSPropertyOp14
 70
     1
102
RTVSPropertyOp15
 70
     1
102
RTVSPropertyOp16
 70
     1
102
RTVSPropertyOp17
 70
     1
102
RTVSPropertyOp18
 70
     1
102
RTVSPropertyOp19
 70
     1
102
RTVSPropertyOp20
 70
     1
102
RTVSPropertyOp21
 70
     1
102
RTVSPropertyOp22
 70
     1
102
RTVSPropertyOp23
 70
     1
102
RTVSPropertyOp24
 70
     1
102
RTVSPropertyOp25
 70
     1
102
RTVSPropertyOp26
 70
     1
102
RTVSPropertyOp27
 70
     1
102
RTVSPropertyOp28
 70
     1
102
RTVSPropertyOp29
 70
     1
102
RTVSPropertyOp30
 70
     1
102
RTVSPropertyOp31
 70
     1
102
RTVSPropertyOp32
 70
     1
  0
XRECORD
  5
3AC
102
{ACAD_REACTORS
330
3AB
102
}
330
3AB
100
AcDbXrecord
280
     1
102
RTVSPropertyOp0
 70
     1
102
RTVSPropertyOp1
 70
     1
102
RTVSPropertyOp2
 70
     1
102
RTVSPropertyOp3
 70
     1
102
RTVSPropertyOp4
 70
     1
102
RTVSPropertyOp5
 70
     1
102
RTVSPropertyOp6
 70
     1
102
RTVSPropertyOp7
 70
     1
102
RTVSPropertyOp8
 70
     1
102
RTVSPropertyOp9
 70
     1
102
RTVSPropertyOp10
 70
     1
102
RTVSPropertyOp11
 70
     1
102
RTVSPropertyOp12
 70
     1
102
RTVSPropertyOp13
 70
     1
102
RTVSPropertyOp14
 70
     1
102
RTVSPropertyOp15
 70
     1
102
RTVSPropertyOp16
 70
     1
102
RTVSPropertyOp17
 70
     1
102
RTVSPropertyOp18
 70
     1
102
RTVSPropertyOp19
 70
     1
102
RTVSPropertyOp20
 70
     1
102
RTVSPropertyOp21
 70
     1
102
RTVSPropertyOp22
 70
     1
102
RTVSPropertyOp23
 70
     1
102
RTVSPropertyOp24
 70
     1
102
RTVSPropertyOp25
 70
     1
102
RTVSPropertyOp26
 70
     1
102
RTVSPropertyOp27
 70
     1
102
RTVSPropertyOp28
 70
     1
102
RTVSPropertyOp29
 70
     1
102
RTVSPropertyOp30
 70
     1
102
RTVSPropertyOp31
 70
     1
102
RTVSPropertyOp32
 70
     1
  0
XRECORD
  5
3AE
102
{ACAD_REACTORS
330
3AD
102
}
330
3AD
100
AcDbXrecord
280
     1
102
RTVSPropertyOp0
 70
     1
102
RTVSPropertyOp1
 70
     1
102
RTVSPropertyOp2
 70
     1
102
RTVSPropertyOp3
 70
     1
102
RTVSPropertyOp4
 70
     1
102
RTVSPropertyOp5
 70
     1
102
RTVSPropertyOp6
 70
     1
102
RTVSPropertyOp7
 70
     1
102
RTVSPropertyOp8
 70
     1
102
RTVSPropertyOp9
 70
     1
102
RTVSPropertyOp10
 70
     1
102
RTVSPropertyOp11
 70
     1
102
RTVSPropertyOp12
 70
     1
102
RTVSPropertyOp13
 70
     1
102
RTVSPropertyOp14
 70
     1
102
RTVSPropertyOp15
 70
     1
102
RTVSPropertyOp16
 70
     1
102
RTVSPropertyOp17
 70
     1
102
RTVSPropertyOp18
 70
     1
102
RTVSPropertyOp19
 70
     1
102
RTVSPropertyOp20
 70
     1
102
RTVSPropertyOp21
 70
     1
102
RTVSPropertyOp22
 70
     1
102
RTVSPropertyOp23
 70
     1
102
RTVSPropertyOp24
 70
     1
102
RTVSPropertyOp25
 70
     1
102
RTVSPropertyOp26
 70
     1
102
RTVSPropertyOp27
 70
     1
102
RTVSPropertyOp28
 70
     1
102
RTVSPropertyOp29
 70
     1
102
RTVSPropertyOp30
 70
     1
102
RTVSPropertyOp31
 70
     1
102
RTVSPropertyOp32
 70
     1
  0
XRECORD
  5
3B0
102
{ACAD_REACTORS
330
3AF
102
}
330
3AF
100
AcDbXrecord
280
     1
102
RTVSPropertyOp0
 70
     1
102
RTVSPropertyOp1
 70
     1
102
RTVSPropertyOp2
 70
     1
102
RTVSPropertyOp3
 70
     1
102
RTVSPropertyOp4
 70
     1
102
RTVSPropertyOp5
 70
     1
102
RTVSPropertyOp6
 70
     1
102
RTVSPropertyOp7
 70
     1
102
RTVSPropertyOp8
 70
     1
102
RTVSPropertyOp9
 70
     1
102
RTVSPropertyOp10
 70
     1
102
RTVSPropertyOp11
 70
     1
102
RTVSPropertyOp12
 70
     1
102
RTVSPropertyOp13
 70
     1
102
RTVSPropertyOp14
 70
     1
102
RTVSPropertyOp15
 70
     1
102
RTVSPropertyOp16
 70
     1
102
RTVSPropertyOp17
 70
     1
102
RTVSPropertyOp18
 70
     1
102
RTVSPropertyOp19
 70
     1
102
RTVSPropertyOp20
 70
     1
102
RTVSPropertyOp21
 70
     1
102
RTVSPropertyOp22
 70
     1
102
RTVSPropertyOp23
 70
     1
102
RTVSPropertyOp24
 70
     1
102
RTVSPropertyOp25
 70
     1
102
RTVSPropertyOp26
 70
     1
102
RTVSPropertyOp27
 70
     1
102
RTVSPropertyOp28
 70
     1
102
RTVSPropertyOp29
 70
     1
102
RTVSPropertyOp30
 70
     1
102
RTVSPropertyOp31
 70
     1
102
RTVSPropertyOp32
 70
     1
  0
XRECORD
  5
3C4
102
{ACAD_REACTORS
330
3C3
102
}
330
3C3
100
AcDbXrecord
280
     1
102
RTVSPropertyOp0
 70
     1
102
RTVSPropertyOp1
 70
     1
102
RTVSPropertyOp2
 70
     1
102
RTVSPropertyOp3
 70
     1
102
RTVSPropertyOp4
 70
     1
102
RTVSPropertyOp5
 70
     1
102
RTVSPropertyOp6
 70
     1
102
RTVSPropertyOp7
 70
     1
102
RTVSPropertyOp8
 70
     1
102
RTVSPropertyOp9
 70
     1
102
RTVSPropertyOp10
 70
     1
102
RTVSPropertyOp11
 70
     1
102
RTVSPropertyOp12
 70
     1
102
RTVSPropertyOp13
 70
     1
102
RTVSPropertyOp14
 70
     1
102
RTVSPropertyOp15
 70
     1
102
RTVSPropertyOp16
 70
     1
102
RTVSPropertyOp17
 70
     1
102
RTVSPropertyOp18
 70
     1
102
RTVSPropertyOp19
 70
     1
102
RTVSPropertyOp20
 70
     1
102
RTVSPropertyOp21
 70
     1
102
RTVSPropertyOp22
 70
     1
102
RTVSPropertyOp23
 70
     1
102
RTVSPropertyOp24
 70
     1
102
RTVSPropertyOp25
 70
     1
102
RTVSPropertyOp26
 70
     1
102
RTVSPropertyOp27
 70
     1
102
RTVSPropertyOp28
 70
     1
102
RTVSPropertyOp29
 70
     1
102
RTVSPropertyOp30
 70
     1
102
RTVSPropertyOp31
 70
     1
102
RTVSPropertyOp32
 70
     1
  0
XRECORD
  5
3BA
102
{ACAD_REACTORS
330
3B9
102
}
330
3B9
100
AcDbXrecord
280
     1
102
RTVSPropertyOp0
 70
     1
102
RTVSPropertyOp1
 70
     1
102
RTVSPropertyOp2
 70
     1
102
RTVSPropertyOp3
 70
     1
102
RTVSPropertyOp4
 70
     1
102
RTVSPropertyOp5
 70
     1
102
RTVSPropertyOp6
 70
     1
102
RTVSPropertyOp7
 70
     1
102
RTVSPropertyOp8
 70
     1
102
RTVSPropertyOp9
 70
     1
102
RTVSPropertyOp10
 70
     1
102
RTVSPropertyOp11
 70
     1
102
RTVSPropertyOp12
 70
     1
102
RTVSPropertyOp13
 70
     1
102
RTVSPropertyOp14
 70
     1
102
RTVSPropertyOp15
 70
     1
102
RTVSPropertyOp16
 70
     1
102
RTVSPropertyOp17
 70
     1
102
RTVSPropertyOp18
 70
     1
102
RTVSPropertyOp19
 70
     1
102
RTVSPropertyOp20
 70
     1
102
RTVSPropertyOp21
 70
     1
102
RTVSPropertyOp22
 70
     1
102
RTVSPropertyOp23
 70
     1
102
RTVSPropertyOp24
 70
     1
102
RTVSPropertyOp25
 70
     1
102
RTVSPropertyOp26
 70
     1
102
RTVSPropertyOp27
 70
     1
102
RTVSPropertyOp28
 70
     1
102
RTVSPropertyOp29
 70
     1
102
RTVSPropertyOp30
 70
     1
102
RTVSPropertyOp31
 70
     1
102
RTVSPropertyOp32
 70
     1
  0
XRECORD
  5
3C2
102
{ACAD_REACTORS
330
3C1
102
}
330
3C1
100
AcDbXrecord
280
     1
102
RTVSPropertyOp0
 70
     1
102
RTVSPropertyOp1
 70
     1
102
RTVSPropertyOp2
 70
     1
102
RTVSPropertyOp3
 70
     1
102
RTVSPropertyOp4
 70
     1
102
RTVSPropertyOp5
 70
     1
102
RTVSPropertyOp6
 70
     1
102
RTVSPropertyOp7
 70
     1
102
RTVSPropertyOp8
 70
     1
102
RTVSPropertyOp9
 70
     1
102
RTVSPropertyOp10
 70
     1
102
RTVSPropertyOp11
 70
     1
102
RTVSPropertyOp12
 70
     1
102
RTVSPropertyOp13
 70
     1
102
RTVSPropertyOp14
 70
     1
102
RTVSPropertyOp15
 70
     1
102
RTVSPropertyOp16
 70
     1
102
RTVSPropertyOp17
 70
     1
102
RTVSPropertyOp18
 70
     1
102
RTVSPropertyOp19
 70
     1
102
RTVSPropertyOp20
 70
     1
102
RTVSPropertyOp21
 70
     1
102
RTVSPropertyOp22
 70
     1
102
RTVSPropertyOp23
 70
     1
102
RTVSPropertyOp24
 70
     1
102
RTVSPropertyOp25
 70
     1
102
RTVSPropertyOp26
 70
     1
102
RTVSPropertyOp27
 70
     1
102
RTVSPropertyOp28
 70
     1
102
RTVSPropertyOp29
 70
     1
102
RTVSPropertyOp30
 70
     1
102
RTVSPropertyOp31
 70
     1
102
RTVSPropertyOp32
 70
     1
  0
ENDSEC
  0
EOF
