  0
SECTION
  2
HEADER
  9
$ACADVER
  1
AC1015
  9
$ACADMAINTVER
 70
     6
  9
$DWGCODEPAGE
  3
ANSI_1252
  9
$INSBASE
 10
0.0
 20
0.0
 30
0.0
  9
$EXTMIN
 10
0.0
 20
0.0
 30
0.0
  9
$EXTMAX
 10
210.0
 20
297.0
 30
0.0
  9
$LIMMIN
 10
0.0
 20
0.0
  9
$LIMMAX
 10
0.0
 20
0.0
  9
$ORTHOMODE
 70
     0
  9
$REGENMODE
 70
     1
  9
$FILLMODE
 70
     1
  9
$QTEXTMODE
 70
     0
  9
$MIRRTEXT
 70
     1
  9
$LTSCALE
 40
1.0
  9
$ATTMODE
 70
     1
  9
$TEXTSIZE
 40
0.0
  9
$TRACEWID
 40
0.05
  9
$TEXTSTYLE
  7
STANDARD
  9
$CLAYER
  8
0
  9
$CELTYPE
  6
CONTINUOUS
  9
$CECOLOR
 62
   256
  9
$CELTSCALE
 40
1.0
  9
$DISPSILH
 70
     0
  9
$DIMSCALE
 40
1.0
  9
$DIMASZ
 40
0.0
  9
$DIMEXO
 40
0.0
  9
$DIMDLI
 40
0.38
  9
$DIMRND
 40
0.0
  9
$DIMDLE
 40
1000.0
  9
$DIMEXE
 40
0.18
  9
$DIMTP
 40
0.0
  9
$DIMTM
 40
0.0
  9
$DIMTXT
 40
3.5
  9
$DIMCEN
 40
0.09
  9
$DIMTSZ
 40
0.0
  9
$DIMTOL
 70
     0
  9
$DIMLIM
 70
     0
  9
$DIMTIH
 70
     1
  9
$DIMTOH
 70
     1
  9
$DIMSE1
 70
     0
  9
$DIMSE2
 70
     0
  9
$DIMTAD
 70
     1
  9
$DIMZIN
 70
     0
  9
$DIMBLK
  1

  9
$DIMASO
 70
     1
  9
$DIMSHO
 70
     1
  9
$DIMPOST
  1

  9
$DIMAPOST
  1

  9
$DIMALT
 70
     0
  9
$DIMALTD
 70
     2
  9
$DIMALTF
 40
0.0394
  9
$DIMLFAC
 40
1.0
  9
$DIMTOFL
 70
     0
  9
$DIMTVP
 40
0.0
  9
$DIMTIX
 70
     0
  9
$DIMSOXD
 70
     0
  9
$DIMSAH
 70
     0
  9
$DIMBLK1
  1

  9
$DIMBLK2
  1

  9
$DIMSTYLE
  2
STANDARD
  9
$DIMCLRD
 70
     0
  9
$DIMCLRE
 70
     0
  9
$DIMCLRT
 70
     0
  9
$DIMTFAC
 40
1.0
  9
$DIMGAP
 40
0.0
  9
$DIMJUST
 70
     0
  9
$DIMSD1
 70
     0
  9
$DIMSD2
 70
     0
  9
$DIMTOLJ
 70
     1
  9
$DIMTZIN
 70
     0
  9
$DIMALTZ
 70
     0
  9
$DIMALTTZ
 70
     0
  9
$DIMUPT
 70
     0
  9
$DIMDEC
 70
     4
  9
$DIMTDEC
 70
     4
  9
$DIMALTU
 70
     2
  9
$DIMALTTD
 70
     2
  9
$DIMTXSTY
  7
STANDARD
  9
$DIMAUNIT
 70
     0
  9
$DIMADEC
 70
     0
  9
$DIMALTRND
 40
0.0
  9
$DIMAZIN
 70
     0
  9
$DIMDSEP
 70
    46
  9
$DIMATFIT
 70
     3
  9
$DIMFRAC
 70
     0
  9
$DIMLDRBLK
  1

  9
$DIMLUNIT
 70
     2
  9
$DIMLWD
 70
    -2
  9
$DIMLWE
 70
    -2
  9
$DIMTMOVE
 70
     2
  9
$LUNITS
 70
     2
  9
$LUPREC
 70
     2
  9
$SKETCHINC
 40
0.1
  9
$FILLETRAD
 40
0.0
  9
$AUNITS
 70
     0
  9
$AUPREC
 70
     2
  9
$MENU
  1
acad
  9
$ELEVATION
 40
0.0
  9
$PELEVATION
 40
0.0
  9
$THICKNESS
 40
0.0
  9
$LIMCHECK
 70
     0
  9
$CHAMFERA
 40
0.0
  9
$CHAMFERB
 40
0.0
  9
$CHAMFERC
 40
0.0
  9
$CHAMFERD
 40
0.0
  9
$SKPOLY
 70
     0
  9
$TDCREATE
 40
2447893.0
  9
$TDUCREATE
 40
2447892.916666667
  9
$TDUPDATE
 40
2458327.548792627
  9
$TDUUPDATE
 40
2458327.465459294
  9
$TDINDWG
 40
0.0
  9
$TDUSRTIMER
 40
0.0
  9
$USRTIMER
 70
     1
  9
$ANGBASE
 50
0.0
  9
$ANGDIR
 70
     0
  9
$PDMODE
 70
     0
  9
$PDSIZE
 40
-1.0
  9
$PLINEWID
 40
0.0
  9
$SPLFRAME
 70
     0
  9
$SPLINETYPE
 70
     6
  9
$SPLINESEGS
 70
     8
  9
$HANDSEED
  5
3D4
  9
$SURFTAB1
 70
     6
  9
$SURFTAB2
 70
     6
  9
$SURFTYPE
 70
     6
  9
$SURFU
 70
     6
  9
$SURFV
 70
     6
  9
$UCSBASE
  2

  9
$UCSNAME
  2

  9
$UCSORG
 10
0.0
 20
0.0
 30
0.0
  9
$UCSXDIR
 10
1.0
 20
0.0
 30
0.0
  9
$UCSYDIR
 10
0.0
 20
1.0
 30
0.0
  9
$UCSORTHOREF
  2

  9
$UCSORTHOVIEW
 70
     0
  9
$UCSORGTOP
 10
0.0
 20
0.0
 30
0.0
  9
$UCSORGBOTTOM
 10
0.0
 20
0.0
 30
0.0
  9
$UCSORGLEFT
 10
0.0
 20
0.0
 30
0.0
  9
$UCSORGRIGHT
 10
0.0
 20
0.0
 30
0.0
  9
$UCSORGFRONT
 10
0.0
 20
0.0
 30
0.0
  9
$UCSORGBACK
 10
0.0
 20
0.0
 30
0.0
  9
$PUCSBASE
  2

  9
$PUCSNAME
  2

  9
$PUCSORG
 10
0.0
 20
0.0
 30
0.0
  9
$PUCSXDIR
 10
1.0
 20
0.0
 30
0.0
  9
$PUCSYDIR
 10
0.0
 20
1.0
 30
0.0
  9
$PUCSORTHOREF
  2

  9
$PUCSORTHOVIEW
 70
     0
  9
$PUCSORGTOP
 10
0.0
 20
0.0
 30
0.0
  9
$PUCSORGBOTTOM
 10
0.0
 20
0.0
 30
0.0
  9
$PUCSORGLEFT
 10
0.0
 20
0.0
 30
0.0
  9
$PUCSORGRIGHT
 10
0.0
 20
0.0
 30
0.0
  9
$PUCSORGFRONT
 10
0.0
 20
0.0
 30
0.0
  9
$PUCSORGBACK
 10
0.0
 20
0.0
 30
0.0
  9
$USERI1
 70
     0
  9
$USERI2
 70
     0
  9
$USERI3
 70
     0
  9
$USERI4
 70
     0
  9
$USERI5
 70
     0
  9
$USERR1
 40
0.0
  9
$USERR2
 40
0.0
  9
$USERR3
 40
0.0
  9
$USERR4
 40
0.0
  9
$USERR5
 40
0.0
  9
$WORLDVIEW
 70
     1
  9
$SHADEDGE
 70
     3
  9
$SHADEDIF
 70
    70
  9
$TILEMODE
 70
     1
  9
$MAXACTVP
 70
    16
  9
$PINSBASE
 10
0.0
 20
0.0
 30
0.0
  9
$PLIMCHECK
 70
     0
  9
$PEXTMIN
 10
1.000000000000000E+20
 20
1.000000000000000E+20
 30
1.000000000000000E+20
  9
$PEXTMAX
 10
-1.000000000000000E+20
 20
-1.000000000000000E+20
 30
-1.000000000000000E+20
  9
$PLIMMIN
 10
0.0
 20
0.0
  9
$PLIMMAX
 10
12.0
 20
9.0
  9
$UNITMODE
 70
     0
  9
$VISRETAIN
 70
     0
  9
$PLINEGEN
 70
     1
  9
$PSLTSCALE
 70
     1
  9
$TREEDEPTH
 70
  3020
  9
$CMLSTYLE
  2
STANDARD
  9
$CMLJUST
 70
     0
  9
$CMLSCALE
 40
1.0
  9
$PROXYGRAPHICS
 70
     1
  9
$MEASUREMENT
 70
     0
  9
$CELWEIGHT
370
    -1
  9
$ENDCAPS
280
     0
  9
$JOINSTYLE
280
     0
  9
$LWDISPLAY
290
     0
  9
$INSUNITS
 70
     0
  9
$HYPERLINKBASE
  1

  9
$STYLESHEET
  1

  9
$XEDIT
290
     1
  9
$CEPSNTYPE
380
     0
  9
$PSTYLEMODE
290
     1
  9
$FINGERPRINTGUID
  2
{2C57A708-0F93-47FD-BAB7-9BA6F84F4EF5}
  9
$VERSIONGUID
  2
{FAEB1C32-E019-11D5-929B-00C0DF256EC4}
  9
$EXTNAMES
290
     1
  9
$PSVPSCALE
 40
0.0
  9
$OLESTARTUP
290
     0
  0
ENDSEC
  0
SECTION
  2
CLASSES
  0
CLASS
  1
LWPOLYLINE
  2
AcDbPolyline
  3
ObjectDBX Classes
 90
        0
280
     0
281
     1
  0
CLASS
  1
IMAGE
  2
AcDbRasterImage
  3
ISM
 90
      127
280
     0
281
     1
  0
CLASS
  1
OLE2FRAME
  2
AcDbOle2Frame
  3
ObjectDBX Classes
 90
        0
280
     0
281
     1
  0
CLASS
  1
HATCH
  2
AcDbHatch
  3
ObjectDBX Classes
 90
        0
280
     0
281
     1
  0
CLASS
  1
DICTIONARYVAR
  2
AcDbDictionaryVar
  3
ObjectDBX Classes
 90
        0
280
     0
281
     0
  0
CLASS
  1
RASTERVARIABLES
  2
AcDbRasterVariables
  3
ISM
 90
        0
280
     0
281
     0
  0
CLASS
  1
IMAGEDEF
  2
AcDbRasterImageDef
  3
ISM
 90
        0
280
     0
281
     0
  0
CLASS
  1
IMAGEDEF_REACTOR
  2
AcDbRasterImageDefReactor
  3
ISM
 90
        1
280
     0
281
     0
  0
CLASS
  1
IDBUFFER
  2
AcDbIdBuffer
  3
ObjectDBX Classes
 90
        0
280
     0
281
     0
  0
CLASS
  1
SPATIAL_FILTER
  2
AcDbSpatialFilter
  3
ObjectDBX Classes
 90
        0
280
     0
281
     0
  0
CLASS
  1
XRECORD
  2
AcDbXrecord
  3
ObjectDBX Classes
 90
        0
280
     0
281
     0
  0
CLASS
  1
SORTENTSTABLE
  2
AcDbSortentsTable
  3
ObjectDBX Classes
 90
        0
280
     0
281
     0
  0
CLASS
  1
LAYER_INDEX
  2
AcDbLayerIndex
  3
ObjectDBX Classes
 90
        0
280
     0
281
     0
  0
CLASS
  1
SPATIAL_INDEX
  2
AcDbSpatialIndex
  3
AutoCAD 2000
 90
        0
280
     0
281
     0
  0
CLASS
  1
OBJECT_PTR
  2
CAseDLPNTableRecord
  3
ASE-LPNTableRecord
 90
        1
280
     0
281
     0
  0
CLASS
  1
LAYOUT
  2
AcDbLayout
  3
ObjectDBX Classes
 90
        0
280
     0
281
     0
  0
CLASS
  1
PLOTSETTINGS
  2
AcDbPlotSettings
  3
ObjectDBX Classes
 90
        0
280
     0
281
     0
  0
CLASS
  1
ACDBDICTIONARYWDFLT
  2
AcDbDictionaryWithDefault
  3
ObjectDBX Classes
 90
        0
280
     0
281
     0
  0
CLASS
  1
ACDBPLACEHOLDER
  2
AcDbPlaceHolder
  3
ObjectDBX Classes
 90
        0
280
     0
281
     0
  0
CLASS
  1
VBA_PROJECT
  2
AcDbVbaProject
  3
ObjectDBX Classes
 90
        0
280
     0
281
     0
  0
CLASS
  1
WIPEOUT
  2
AcDbWipeout
  3
WipeOut|AutoCAD Express Tool|expresstools@autodesk.com
 90
      127
280
     0
281
     1
  0
CLASS
  1
WIPEOUTVARIABLES
  2
AcDbWipeoutVariables
  3
WipeOut|AutoCAD Express Tool|expresstools@autodesk.com
 90
        0
280
     0
281
     0
  0
CLASS
  1
RTEXT
  2
RText
  3
RText|AutoCAD Express Tool|expresstools@autodesk.com
 90
        0
280
     0
281
     1
  0
CLASS
  1
ARCALIGNEDTEXT
  2
AcDbArcAlignedText
  3
ATEXT|AutoCAD Express Tool|expresstools@autodesk.com
 90
        0
280
     0
281
     1
  0
CLASS
  1
SCALE
  2
AcDbScale
  3
ObjectDBX Classes
 90
     1153
280
     0
281
     0
  0
CLASS
  1
VISUALSTYLE
  2
AcDbVisualStyle
  3
ObjectDBX Classes
 90
     4095
280
     0
281
     0
  0
CLASS
  1
MATERIAL
  2
AcDbMaterial
  3
ObjectDBX Classes
 90
     1153
280
     0
281
     0
  0
ENDSEC
  0
SECTION
  2
TABLES
  0
TABLE
  2
VPORT
  5
7
102
{ACAD_XDICTIONARY
360
399
102
}
330
0
100
AcDbSymbolTable
 70
     1
  0
VPORT
  5
15
330
7
100
AcDbSymbolTableRecord
100
AcDbViewportTableRecord
  2
*ACTIVE
 70
     0
 10
0.0
 20
0.0
 11
1.0
 21
1.0
 12
105.0
 22
148.5
 13
0.0
 23
0.0
 14
1.0
 24
1.0
 15
0.0
 25
0.0
 16
0.0
 26
0.0
 36
1.0
 17
0.0
 27
0.0
 37
0.0
 40
297.0
 41
1.4142857143
 42
50.0
 43
0.0
 44
0.0
 50
0.0
 51
0.0
 71
     0
 72
  2000
 73
     1
 74
     1
 75
     0
 76
     0
 77
     0
 78
     0
281
     0
 65
     1
110
0.0
120
0.0
130
0.0
111
1.0
121
0.0
131
0.0
112
0.0
122
1.0
132
0.0
 79
     0
146
0.0
  0
ENDTAB
  0
TABLE
  2
LTYPE
  5
4
330
0
100
AcDbSymbolTable
 70
     6
  0
LTYPE
  5
11
330
4
100
AcDbSymbolTableRecord
100
AcDbLinetypeTableRecord
  2
BYBLOCK
 70
     0
  3

 72
    65
 73
     0
 40
0.0
  0
LTYPE
  5
12
330
4
100
AcDbSymbolTableRecord
100
AcDbLinetypeTableRecord
  2
BYLAYER
 70
     0
  3

 72
    65
 73
     0
 40
0.0
  0
LTYPE
  5
13
330
4
100
AcDbSymbolTableRecord
100
AcDbLinetypeTableRecord
  2
CONTINUOUS
 70
     0
  3
Solid line
 72
    65
 73
     0
 40
0.0
  0
LTYPE
  5
1D
330
4
100
AcDbSymbolTableRecord
100
AcDbLinetypeTableRecord
  2
HIDDEN
 70
     0
  3
Hidden __ __ __ __ __ __ __ __ __ __ __ __ __ __
 72
    65
 73
     2
 40
1.905
 49
1.27
 74
     0
 49
-0.635
 74
     0
  0
LTYPE
  5
1E
330
4
100
AcDbSymbolTableRecord
100
AcDbLinetypeTableRecord
  2
PHANTOM
 70
     0
  3
Phantom ______  __  __  ______  __  __  ______
 72
    65
 73
     6
 40
12.7
 49
6.35
 74
     0
 49
-1.27
 74
     0
 49
1.27
 74
     0
 49
-1.27
 74
     0
 49
1.27
 74
     0
 49
-1.27
 74
     0
  0
LTYPE
  5
1F
330
4
100
AcDbSymbolTableRecord
100
AcDbLinetypeTableRecord
  2
CENTER
 70
     0
  3
Center ____ _ ____ _ ____ _ ____ _ ____ _ ____
 72
    65
 73
     4
 40
10.16
 49
6.35
 74
     0
 49
-1.27
 74
     0
 49
1.27
 74
     0
 49
-1.27
 74
     0
  0
LTYPE
  5
20
330
4
100
AcDbSymbolTableRecord
100
AcDbLinetypeTableRecord
  2
CENTERX2
 70
     0
  3
Center (2x) ________  __  ________  __  _____
 72
    65
 73
     4
 40
20.32
 49
12.7
 74
     0
 49
-2.54
 74
     0
 49
2.54
 74
     0
 49
-2.54
 74
     0
  0
LTYPE
  5
21
330
4
100
AcDbSymbolTableRecord
100
AcDbLinetypeTableRecord
  2
DOT2
 70
     0
  3
Dot (.5x) ........................................
 72
    65
 73
     2
 40
0.635
 49
0.0
 74
     0
 49
-0.635
 74
     0
  0
LTYPE
  5
3C3
330
5
100
AcDbSymbolTableRecord
100
AcDbLinetypeTableRecord
  2
DASH
 70
     0
  3
DASH _ _ _ _ _
 72
    65
 73
     2
 40
0.75
 49
0.40
 74
     0
 49
-0.35
 74
     0
  0
LTYPE
  5
3C4
330
5
100
AcDbSymbolTableRecord
100
AcDbLinetypeTableRecord
  2
LONGDASH_DASH
 70
     0
  3
LONGDASH_DASH __ . __ . __
 72
    65
 73
     4
 40
0.85
 49
0.40
 74
     0
 49
-0.20
 74
     0
 49
0.05
 74
     0
 49
-0.20
 74
     0
  0
LTYPE
  5
3C5
330
5
100
AcDbSymbolTableRecord
100
AcDbLinetypeTableRecord
  2
LONGDASH_DASH_DASH
 70
     0
  3
LONGDASH_DASH_DASH __ . . __ . . __
 72
    65
 73
     6
 40
1.10
 49
0.40
 74
     0
 49
-0.20
 74
     0
 49
0.05
 74
     0
 49
-0.20
 74
     0
 49
0.05
 74
     0
 49
-0.20
 74
     0
  0
ENDTAB
  0
TABLE
  2
LAYER
  5
2
330
0
100
AcDbSymbolTable
 70
     8
  0
LAYER
  5
23
330
2
100
AcDbSymbolTableRecord
100
AcDbLayerTableRecord
  2
DEFPOINTS
 70
     0
 62
     7
  6
CONTINUOUS
290
     0
370
    -3
390
0
  0
LAYER
  5
3C6
330
2
100
AcDbSymbolTableRecord
100
AcDbLayerTableRecord
  2
0
 70
     0
 62
     -1
  6
CONTINUOUS
370
    -3
390
F
  0
LAYER
  5
3C7
330
2
100
AcDbSymbolTableRecord
100
AcDbLayerTableRecord
  2
1
 70
     0
 62
     4
  6
CONTINUOUS
370
    50
390
F
  0
LAYER
  5
3C8
330
2
100
AcDbSymbolTableRecord
100
AcDbLayerTableRecord
  2
2
 70
     0
 62
     7
  6
CONTINUOUS
370
    25
390
F
  0
LAYER
  5
3C9
330
2
100
AcDbSymbolTableRecord
100
AcDbLayerTableRecord
  2
3
 70
     0
 62
     1
  6
DASH
370
    35
390
F
  0
LAYER
  5
3CA
330
2
100
AcDbSymbolTableRecord
100
AcDbLayerTableRecord
  2
4
 70
     0
 62
     2
  6
LONGDASH_DASH
370
    25
390
F
  0
LAYER
  5
3CB
330
2
100
AcDbSymbolTableRecord
100
AcDbLayerTableRecord
  2
6
 70
     0
 62
     5
  6
CONTINUOUS
370
    -3
390
F
  0
LAYER
  5
3CC
330
2
100
AcDbSymbolTableRecord
100
AcDbLayerTableRecord
  2
CUT
 70
     0
 62
     1
  6
CONTINUOUS
370
    25
390
F
  0
LAYER
  5
3CD
330
2
100
AcDbSymbolTableRecord
100
AcDbLayerTableRecord
  2
NOCUT
 70
     0
 62
     7
  6
CONTINUOUS
370
    25
390
F
  0
LAYER
  5
3CE
330
2
100
AcDbSymbolTableRecord
100
AcDbLayerTableRecord
  2
SK1
 70
     0
 62
     4
  6
CONTINUOUS
370
    50
390
F
  0
LAYER
  5
3CF
330
2
100
AcDbSymbolTableRecord
100
AcDbLayerTableRecord
  2
SK2
 70
     0
 62
     7
  6
CONTINUOUS
370
    25
390
F
  0
LAYER
  5
3D0
330
2
100
AcDbSymbolTableRecord
100
AcDbLayerTableRecord
  2
SK3
 70
     0
 62
     1
  6
DASH
370
    35
390
F
  0
LAYER
  5
3D1
330
2
100
AcDbSymbolTableRecord
100
AcDbLayerTableRecord
  2
SK4
 70
     0
 62
     2
  6
LONGDASH_DASH
370
    25
390
F
  0
LAYER
  5
3D2
330
2
100
AcDbSymbolTableRecord
100
AcDbLayerTableRecord
  2
SK6
 70
     0
 62
     5
  6
CONTINUOUS
370
    -3
390
F
  0
LAYER
  5
3D3
330
2
100
AcDbSymbolTableRecord
100
AcDbLayerTableRecord
  2
INFTOTAL
 70
     0
 62
     9
  6
CONTINUOUS
370
    18
390
F
  0
ENDTAB
  0
TABLE
  2
STYLE
  5
3
330
0
100
AcDbSymbolTable
 70
     2
  0
STYLE
  5
17
330
3
100
AcDbSymbolTableRecord
100
AcDbTextStyleTableRecord
  2
STANDARD
 70
     0
 40
0.0
 41
1.0
 50
0.0
 71
     0
 42
0.2
  3
txt
  4

  0
STYLE
  5
391
330
3
100
AcDbSymbolTableRecord
100
AcDbTextStyleTableRecord
  2
BMG_Text
 70
     0
 40
3.5
 41
1.0
 50
0.0
 71
     0
 42
0.0
  3
monos.ttf
  4

1001
ACAD
1000
Monospac821 BT
1071
       49
  0
ENDTAB
  0
TABLE
  2
VIEW
  5
5
330
0
100
AcDbSymbolTable
 70
     0
  0
ENDTAB
  0
TABLE
  2
UCS
  5
6
330
0
100
AcDbSymbolTable
 70
     0
  0
ENDTAB
  0
TABLE
  2
APPID
  5
8
330
0
100
AcDbSymbolTable
 70
     1
  0
APPID
  5
16
330
8
100
AcDbSymbolTableRecord
100
AcDbRegAppTableRecord
  2
ACAD
 70
     0
  0
ENDTAB
  0
TABLE
  2
DIMSTYLE
  5
9
330
0
100
AcDbSymbolTable
 70
     1
100
AcDbDimStyleTable
  0
DIMSTYLE
105
18
330
9
100
AcDbSymbolTableRecord
100
AcDbDimStyleTableRecord
  2
STANDARD
 70
     0
178
     0
340
17
  0
ENDTAB
  0
TABLE
  2
BLOCK_RECORD
  5
1
330
0
100
AcDbSymbolTable
 70
     0
  0
BLOCK_RECORD
  5
A
330
1
100
AcDbSymbolTableRecord
100
AcDbBlockTableRecord
  2
*MODEL_SPACE
340
37A
  0
BLOCK_RECORD
  5
B
330
1
100
AcDbSymbolTableRecord
100
AcDbBlockTableRecord
  2
*PAPER_SPACE
340
37B
  0
ENDTAB
  0
ENDSEC
  0
SECTION
  2
BLOCKS
  0
BLOCK
  5
D
330
A
100
AcDbEntity
  8
0
100
AcDbBlockBegin
  2
*MODEL_SPACE
 70
     0
 10
0.0
 20
0.0
 30
0.0
  3
*MODEL_SPACE
  1

  0
ENDBLK
  5
E
330
A
100
AcDbEntity
  8
0
100
AcDbBlockEnd
  0
BLOCK
  5
F
330
B
100
AcDbEntity
 67
     1
  8
0
100
AcDbBlockBegin
  2
*PAPER_SPACE
 70
     0
 10
0.0
 20
0.0
 30
0.0
  3
*PAPER_SPACE
  1

  0
ENDBLK
  5
10
330
B
100
AcDbEntity
 67
     1
  8
0
100
AcDbBlockEnd
  0
ENDSEC
  0
SECTION
  2
ENTITIES
  0
ARC
  5
29
330
A
100
AcDbEntity
  8
1
  6
CONTINUOUS
370
    50
100
AcDbCircle
 10
77.2064970982
 20
139.888984292
 30
0.0
 40
0.5
100
AcDbArc
 50
66.4218215218
 51
90.0
  0
ARC
  5
2A
330
A
100
AcDbEntity
  8
1
  6
CONTINUOUS
370
    50
100
AcDbCircle
 10
77.2064970982
 20
210.138984292
 30
0.0
 40
0.5
100
AcDbArc
 50
270.0
 51
293.5781784782001
  0
LINE
  5
2B
330
A
100
AcDbEntity
  8
1
  6
CONTINUOUS
370
    50
100
AcDbLine
 10
75.9064970982
 20
209.938984292
 30
0.0
 11
-23.8401628377
 21
195.3925963847
 31
0.0
  0
LINE
  5
2C
330
A
100
AcDbEntity
  8
1
  6
CONTINUOUS
370
    50
100
AcDbLine
 10
-23.8401628377
 20
154.6353721994
 30
0.0
 11
75.9064970982
 21
140.088984292
 31
0.0
  0
LINE
  5
2D
330
A
100
AcDbEntity
  8
1
  6
CONTINUOUS
370
    50
100
AcDbLine
 10
75.9064970982
 20
140.088984292
 30
0.0
 11
76.4493873748
 21
140.3421381856
 31
0.0
  0
LINE
  5
2E
330
A
100
AcDbEntity
  8
1
  6
CONTINUOUS
370
    50
100
AcDbLine
 10
76.4493873748
 20
209.6858303985
 30
0.0
 11
75.9064970982
 21
209.938984292
 31
0.0
  0
LINE
  5
2F
330
A
100
AcDbEntity
  8
1
  6
CONTINUOUS
370
    50
100
AcDbLine
 10
76.6606965057
 20
140.388984292
 30
0.0
 11
77.2064970982
 21
140.388984292
 31
0.0
  0
LINE
  5
30
330
A
100
AcDbEntity
  8
1
  6
CONTINUOUS
370
    50
100
AcDbLine
 10
77.2064970982
 20
209.638984292
 30
0.0
 11
76.6606965057
 21
209.638984292
 31
0.0
  0
ARC
  5
31
330
A
100
AcDbEntity
  8
1
  6
CONTINUOUS
370
    50
100
AcDbCircle
 10
99.9564970982
 20
148.063984292
 30
0.0
 40
5.0
100
AcDbArc
 50
81.890385544
 51
180.0
  0
ARC
  5
32
330
A
100
AcDbEntity
  8
1
  6
CONTINUOUS
370
    50
100
AcDbCircle
 10
99.9564970982
 20
201.963984292
 30
0.0
 40
5.0
100
AcDbArc
 50
180.0
 51
278.109614456
  0
LINE
  5
33
330
A
100
AcDbEntity
  8
1
  6
CONTINUOUS
370
    50
100
AcDbLine
 10
100.6618338972
 20
153.013984292
 30
0.0
 11
119.9314492346
 21
153.013984292
 31
0.0
  0
LINE
  5
34
330
A
100
AcDbEntity
  8
1
  6
CONTINUOUS
370
    50
100
AcDbLine
 10
119.9314492346
 20
197.013984292
 30
0.0
 11
100.6618338972
 21
197.013984292
 31
0.0
  0
LINE
  5
35
330
A
100
AcDbEntity
  8
1
  6
CONTINUOUS
370
    50
100
AcDbLine
 10
119.9314492346
 20
153.013984292
 30
0.0
 11
191.4347805216
 21
158.0139842923
 31
0.0
  0
LINE
  5
36
330
A
100
AcDbEntity
  8
1
  6
CONTINUOUS
370
    50
100
AcDbLine
 10
191.4347805216
 20
192.013984292
 30
0.0
 11
119.9314492346
 21
197.013984292
 31
0.0
  0
ARC
  5
37
330
A
100
AcDbEntity
  8
1
  6
CONTINUOUS
370
    50
100
AcDbCircle
 10
-23.4435029018
 20
156.8513258657
 30
0.0
 40
2.25
100
AcDbArc
 50
180.0
 51
258.0
  0
ARC
  5
38
330
A
100
AcDbEntity
  8
1
  6
CONTINUOUS
370
    50
100
AcDbCircle
 10
-23.4435029018
 20
193.1766427184
 30
0.0
 40
2.25
100
AcDbArc
 50
102.0
 51
180.0
  0
LINE
  5
39
330
A
100
AcDbEntity
  8
1
  6
CONTINUOUS
370
    50
100
AcDbLine
 10
191.4347805216
 20
158.0139842923
 30
0.0
 11
234.8733689942
 21
161.4326753469
 31
0.0
  0
LINE
  5
3A
330
A
100
AcDbEntity
  8
1
  6
CONTINUOUS
370
    50
100
AcDbLine
 10
234.8733689942
 20
188.5952932372
 30
0.0
 11
191.4347805216
 21
192.013984292
 31
0.0
  0
ARC
  5
3B
330
A
100
AcDbEntity
  8
1
  6
CONTINUOUS
370
    50
100
AcDbCircle
 10
233.9064970982
 20
163.1834348212
 30
0.0
 40
2.0
100
AcDbArc
 50
298.9100507072
 51
0.0
  0
ARC
  5
3C
330
A
100
AcDbEntity
  8
1
  6
CONTINUOUS
370
    50
100
AcDbCircle
 10
233.9064970982
 20
186.8445337629
 30
0.0
 40
2.0
100
AcDbArc
 50
0.0
 51
61.08994929280001
  0
LINE
  5
3D
330
A
100
AcDbEntity
  8
1
  6
CONTINUOUS
370
    50
100
AcDbLine
 10
94.4564970982
 20
128.2546469898
 30
0.0
 11
94.4564970982
 21
204.863984292
 31
0.0
  0
LINE
  5
3E
330
A
100
AcDbEntity
  8
1
  6
CONTINUOUS
370
    50
100
AcDbLine
 10
94.4564970982
 20
204.863984292
 30
0.0
 11
94.9564970982
 21
204.863984292
 31
0.0
  0
LINE
  5
3F
330
A
100
AcDbEntity
  8
1
  6
CONTINUOUS
370
    50
100
AcDbLine
 10
94.9564970982
 20
204.863984292
 30
0.0
 11
94.9564970982
 21
128.6582303002
 31
0.0
  0
LINE
  5
40
330
A
100
AcDbEntity
  8
1
  6
CONTINUOUS
370
    50
100
AcDbLine
 10
94.9564970982
 20
128.6582303002
 30
0.0
 11
94.4564970982
 21
128.2546469898
 31
0.0
  0
LINE
  5
41
330
A
100
AcDbEntity
  8
1
  6
CONTINUOUS
370
    50
100
AcDbLine
 10
83.7733355907
 20
128.2546469898
 30
0.0
 11
83.7733355907
 21
204.863984292
 31
0.0
  0
LINE
  5
42
330
A
100
AcDbEntity
  8
1
  6
CONTINUOUS
370
    50
100
AcDbLine
 10
78.756497096
 20
128.2546469898
 30
0.0
 11
83.7733355907
 21
128.2546469898
 31
0.0
  0
LINE
  5
43
330
A
100
AcDbEntity
  8
1
  6
CONTINUOUS
370
    50
100
AcDbLine
 10
77.9064970982
 20
128.5121227702
 30
0.0
 11
78.756497096
 21
128.2546469898
 31
0.0
  0
LINE
  5
44
330
A
100
AcDbEntity
  8
1
  6
CONTINUOUS
370
    50
100
AcDbLine
 10
77.9064970982
 20
204.863984292
 30
0.0
 11
77.9064970982
 21
128.5121227702
 31
0.0
  0
LINE
  5
45
330
A
100
AcDbEntity
  8
1
  6
CONTINUOUS
370
    50
100
AcDbLine
 10
83.7733355907
 20
204.863984292
 30
0.0
 11
77.9064970982
 21
204.863984292
 31
0.0
  0
LINE
  5
46
330
A
100
AcDbEntity
  8
1
  6
CONTINUOUS
370
    50
100
AcDbLine
 10
77.4064970982
 20
129.1975230035
 30
0.0
 11
77.4064970982
 21
204.863984292
 31
0.0
  0
LINE
  5
47
330
A
100
AcDbEntity
  8
1
  6
CONTINUOUS
370
    50
100
AcDbLine
 10
77.4064970982
 20
204.863984292
 30
0.0
 11
77.9064970982
 21
204.863984292
 31
0.0
  0
LINE
  5
48
330
A
100
AcDbEntity
  8
1
  6
CONTINUOUS
370
    50
100
AcDbLine
 10
77.9064970982
 20
128.5121227702
 30
0.0
 11
77.4064970982
 21
129.1975230035
 31
0.0
  0
LINE
  5
49
330
A
100
AcDbEntity
  8
1
  6
CONTINUOUS
370
    50
100
AcDbLine
 10
90.2396586056
 20
204.863984292
 30
0.0
 11
90.2396586056
 21
128.2546469898
 31
0.0
  0
LINE
  5
4A
330
A
100
AcDbEntity
  8
1
  6
CONTINUOUS
370
    50
100
AcDbLine
 10
94.4564970982
 20
204.863984292
 30
0.0
 11
90.2396586056
 21
204.863984292
 31
0.0
  0
LINE
  5
4B
330
A
100
AcDbEntity
  8
1
  6
CONTINUOUS
370
    50
100
AcDbLine
 10
90.2396586056
 20
128.2546469898
 30
0.0
 11
94.4564970982
 21
128.2546469898
 31
0.0
  0
LINE
  5
4C
330
A
100
AcDbEntity
  8
1
  6
CONTINUOUS
370
    50
100
AcDbLine
 10
85.0814970982
 20
204.863984292
 30
0.0
 11
83.7733355907
 21
204.863984292
 31
0.0
  0
LINE
  5
4D
330
A
100
AcDbEntity
  8
1
  6
CONTINUOUS
370
    50
100
AcDbLine
 10
85.0814970982
 20
130.3672088134
 30
0.0
 11
85.0814970982
 21
204.863984292
 31
0.0
  0
LWPOLYLINE
  5
4E
330
A
100
AcDbEntity
  8
1
  6
CONTINUOUS
370
    50
100
AcDbPolyline
 90
        3
 70
   128
 43
0.0
 10
84.3802550047
 20
129.104646992
 10
84.4275671691
 20
129.1897493016
 10
85.0814970982
 20
130.3672088134
  0
LINE
  5
53
330
A
100
AcDbEntity
  8
1
  6
CONTINUOUS
370
    50
100
AcDbLine
 10
83.7733355907
 20
128.2546469898
 30
0.0
 11
84.3802550047
 21
129.104646992
 31
0.0
  0
LINE
  5
54
330
A
100
AcDbEntity
  8
1
  6
CONTINUOUS
370
    50
100
AcDbLine
 10
88.9314970982
 20
204.863984292
 30
0.0
 11
88.9314970982
 21
130.3672088134
 31
0.0
  0
LINE
  5
55
330
A
100
AcDbEntity
  8
1
  6
CONTINUOUS
370
    50
100
AcDbLine
 10
90.2396586056
 20
204.863984292
 30
0.0
 11
88.9314970982
 21
204.863984292
 31
0.0
  0
LINE
  5
56
330
A
100
AcDbEntity
  8
1
  6
CONTINUOUS
370
    50
100
AcDbLine
 10
89.6327391916
 20
129.104646992
 30
0.0
 11
90.2396586056
 21
128.2546469898
 31
0.0
  0
LINE
  5
57
330
A
100
AcDbEntity
  8
1
  6
CONTINUOUS
370
    50
100
AcDbLine
 10
88.9314970982
 20
130.3672088134
 30
0.0
 11
89.6327391916
 21
129.104646992
 31
0.0
  0
ARC
  5
58
330
A
100
AcDbEntity
  8
1
  6
CONTINUOUS
370
    50
100
AcDbCircle
 10
85.5929786155
 20
130.8547765715
 30
0.0
 40
0.5115703146
100
AcDbArc
 50
91.28603577260002
 51
181.0675571359
  0
LINE
  5
59
330
A
100
AcDbEntity
  8
1
  6
CONTINUOUS
370
    50
100
AcDbLine
 10
85.0814970982
 20
204.863984292
 30
0.0
 11
85.5814970982
 21
204.863984292
 31
0.0
  0
LINE
  5
5A
330
A
100
AcDbEntity
  8
1
  6
CONTINUOUS
370
    50
100
AcDbLine
 10
85.5814970982
 20
204.863984292
 30
0.0
 11
85.5814970982
 21
131.3662180262
 31
0.0
  0
ARC
  5
5B
330
A
100
AcDbEntity
  8
1
  6
CONTINUOUS
370
    50
100
AcDbCircle
 10
88.4216041722
 20
130.8563012113
 30
0.0
 40
0.5100127724
100
AcDbArc
 50
358.7578664212
 51
88.8885406704
  0
LINE
  5
5C
330
A
100
AcDbEntity
  8
1
  6
CONTINUOUS
370
    50
100
AcDbLine
 10
88.4314970982
 20
204.863984292
 30
0.0
 11
88.4314970982
 21
131.3662180262
 31
0.0
  0
LINE
  5
5D
330
A
100
AcDbEntity
  8
1
  6
CONTINUOUS
370
    50
100
AcDbLine
 10
88.4314970982
 20
204.863984292
 30
0.0
 11
88.9314970982
 21
204.863984292
 31
0.0
  0
LINE
  5
5E
330
A
100
AcDbEntity
  8
1
  6
CONTINUOUS
370
    50
100
AcDbLine
 10
88.4314970982
 20
131.3662180262
 30
0.0
 11
85.5814970982
 21
131.3662180262
 31
0.0
  0
LINE
  5
5F
330
A
100
AcDbEntity
  8
1
  6
CONTINUOUS
370
    50
100
AcDbLine
 10
85.5814970982
 20
204.863984292
 30
0.0
 11
88.4314970982
 21
204.863984292
 31
0.0
  0
LINE
  5
60
330
A
100
AcDbEntity
  8
1
  6
CONTINUOUS
370
    50
100
AcDbLine
 10
-23.8401628377
 20
195.3925963847
 30
0.0
 11
-23.8401628377
 21
154.6353721994
 31
0.0
  0
LINE
  5
61
330
A
100
AcDbEntity
  8
1
  6
CONTINUOUS
370
    50
100
AcDbLine
 10
75.9064970982
 20
140.088984292
 30
0.0
 11
75.9064970982
 21
209.938984292
 31
0.0
  0
LINE
  5
62
330
A
100
AcDbEntity
  8
1
  6
CONTINUOUS
370
    50
100
AcDbLine
 10
83.7733355907
 20
213.5250622437
 30
0.0
 11
85.0814970982
 21
210.6150314767
 31
0.0
  0
LINE
  5
63
330
A
100
AcDbEntity
  8
1
  6
CONTINUOUS
370
    50
100
AcDbLine
 10
85.0814970982
 20
210.013662862
 30
0.0
 11
85.0814970982
 21
210.6150314767
 31
0.0
  0
ARC
  5
64
330
A
100
AcDbEntity
  8
1
  6
CONTINUOUS
370
    50
100
AcDbCircle
 10
85.6782426435
 20
209.9465316435
 30
0.0
 40
0.6005096556
100
AcDbArc
 50
173.5814650335
 51
260.7289175414
  0
LINE
  5
65
330
A
100
AcDbEntity
  8
1
  6
CONTINUOUS
370
    50
100
AcDbLine
 10
88.4314970982
 20
209.3538663536
 30
0.0
 11
85.5814970982
 21
209.3538663536
 31
0.0
  0
ARC
  5
66
330
A
100
AcDbEntity
  8
1
  6
CONTINUOUS
370
    50
100
AcDbCircle
 10
88.3664231756
 20
209.9225305899
 30
0.0
 40
0.5723754267
100
AcDbArc
 50
276.5281284860999
 51
9.1614889389
  0
LINE
  5
67
330
A
100
AcDbEntity
  8
1
  6
CONTINUOUS
370
    50
100
AcDbLine
 10
88.9314970982
 20
210.6150314767
 30
0.0
 11
88.9314970982
 21
210.013662862
 31
0.0
  0
LWPOLYLINE
  5
68
330
A
100
AcDbEntity
  8
1
  6
CONTINUOUS
370
    50
100
AcDbPolyline
 90
        3
 70
   128
 43
0.0
 10
88.9314970982
 20
210.6150314767
 10
89.0197966485
 20
210.8143868897
 10
90.2396586056
 20
213.5250622437
  0
LINE
  5
6D
330
A
100
AcDbEntity
  8
1
  6
CONTINUOUS
370
    50
100
AcDbLine
 10
90.2396586056
 20
213.5250622437
 30
0.0
 11
94.4564970982
 21
213.5250622437
 31
0.0
  0
LINE
  5
6E
330
A
100
AcDbEntity
  8
1
  6
CONTINUOUS
370
    50
100
AcDbLine
 10
94.9564970982
 20
212.8904694114
 30
0.0
 11
94.4564970982
 21
213.5250622437
 31
0.0
  0
LINE
  5
6F
330
A
100
AcDbEntity
  8
1
  6
CONTINUOUS
370
    50
100
AcDbLine
 10
77.9064970982
 20
213.5250622437
 30
0.0
 11
77.4064970982
 21
212.8904694114
 31
0.0
  0
LINE
  5
70
330
A
100
AcDbEntity
  8
1
  6
CONTINUOUS
370
    50
100
AcDbLine
 10
77.9064970982
 20
213.5250622437
 30
0.0
 11
83.7733355907
 21
213.5250622437
 31
0.0
  0
LINE
  5
71
330
A
100
AcDbEntity
  8
1
  6
CONTINUOUS
370
    50
100
AcDbLine
 10
77.4064970982
 20
212.8904694114
 30
0.0
 11
77.4064970982
 21
204.863984292
 31
0.0
  0
LINE
  5
72
330
A
100
AcDbEntity
  8
1
  6
CONTINUOUS
370
    50
100
AcDbLine
 10
94.9564970982
 20
212.8904694114
 30
0.0
 11
94.9564970982
 21
204.863984292
 31
0.0
  0
LINE
  5
73
330
A
100
AcDbEntity
  8
1
  6
CONTINUOUS
370
    50
100
AcDbLine
 10
88.4314970982
 20
218.6617505579
 30
0.0
 11
88.4314970982
 21
209.3538663536
 31
0.0
  0
ARC
  5
74
330
A
100
AcDbEntity
  8
1
  6
CONTINUOUS
370
    50
100
AcDbCircle
 10
88.4239378865
 20
219.1694276063
 30
0.0
 40
0.5077333229
100
AcDbArc
 50
270.8530598843001
 51
1.5005330241
  0
LINE
  5
75
330
A
100
AcDbEntity
  8
1
  6
CONTINUOUS
370
    50
100
AcDbLine
 10
85.5814970982
 20
218.6617505579
 30
0.0
 11
85.5814970982
 21
209.3538663536
 31
0.0
  0
LINE
  5
76
330
A
100
AcDbEntity
  8
1
  6
CONTINUOUS
370
    50
100
AcDbLine
 10
88.4314970982
 20
218.6617505579
 30
0.0
 11
85.5814970982
 21
218.6617505579
 31
0.0
  0
ARC
  5
77
330
A
100
AcDbEntity
  8
1
  6
CONTINUOUS
370
    50
100
AcDbCircle
 10
85.5907342715
 20
219.1710380186
 30
0.0
 40
0.5093712232
100
AcDbArc
 50
178.6854922074
 51
268.9609148841
  0
LINE
  5
78
330
A
100
AcDbEntity
  8
1
  6
CONTINUOUS
370
    50
100
AcDbLine
 10
88.9314970982
 20
219.6607597707
 30
0.0
 11
88.9314970982
 21
210.6150314767
 31
0.0
  0
LINE
  5
79
330
A
100
AcDbEntity
  8
1
  6
CONTINUOUS
370
    50
100
AcDbLine
 10
88.9314970982
 20
219.6607597707
 30
0.0
 11
89.6327391916
 21
220.923321592
 31
0.0
  0
LINE
  5
7A
330
A
100
AcDbEntity
  8
1
  6
CONTINUOUS
370
    50
100
AcDbLine
 10
90.2396586056
 20
221.7733215942
 30
0.0
 11
89.6327391916
 21
220.923321592
 31
0.0
  0
LINE
  5
7B
330
A
100
AcDbEntity
  8
1
  6
CONTINUOUS
370
    50
100
AcDbLine
 10
90.2396586056
 20
221.7733215942
 30
0.0
 11
90.2396586056
 21
213.5250622437
 31
0.0
  0
LINE
  5
7C
330
A
100
AcDbEntity
  8
1
  6
CONTINUOUS
370
    50
100
AcDbLine
 10
85.0814970982
 20
210.6150314767
 30
0.0
 11
85.0814970982
 21
219.6607597707
 31
0.0
  0
LINE
  5
7D
330
A
100
AcDbEntity
  8
1
  6
CONTINUOUS
370
    50
100
AcDbLine
 10
83.7733355907
 20
213.5250622437
 30
0.0
 11
83.7733355907
 21
221.7733215942
 31
0.0
  0
LINE
  5
7E
330
A
100
AcDbEntity
  8
1
  6
CONTINUOUS
370
    50
100
AcDbLine
 10
84.3802550047
 20
220.923321592
 30
0.0
 11
83.7733355907
 21
221.7733215942
 31
0.0
  0
LINE
  5
7F
330
A
100
AcDbEntity
  8
1
  6
CONTINUOUS
370
    50
100
AcDbLine
 10
84.3802550047
 20
220.923321592
 30
0.0
 11
85.0814970982
 21
219.6607597707
 31
0.0
  0
LINE
  5
80
330
A
100
AcDbEntity
  8
1
  6
CONTINUOUS
370
    50
100
AcDbLine
 10
94.4564970982
 20
213.5250622437
 30
0.0
 11
94.4564970982
 21
221.7733215942
 31
0.0
  0
LINE
  5
81
330
A
100
AcDbEntity
  8
1
  6
CONTINUOUS
370
    50
100
AcDbLine
 10
94.4564970982
 20
221.7733215942
 30
0.0
 11
94.9564970982
 21
221.3697382839
 31
0.0
  0
LINE
  5
82
330
A
100
AcDbEntity
  8
1
  6
CONTINUOUS
370
    50
100
AcDbLine
 10
94.9564970982
 20
221.3697382839
 30
0.0
 11
94.9564970982
 21
212.8904694114
 31
0.0
  0
LINE
  5
83
330
A
100
AcDbEntity
  8
1
  6
CONTINUOUS
370
    50
100
AcDbLine
 10
77.4064970982
 20
220.8304455805
 30
0.0
 11
77.9064970982
 21
221.5158458139
 31
0.0
  0
LINE
  5
84
330
A
100
AcDbEntity
  8
1
  6
CONTINUOUS
370
    50
100
AcDbLine
 10
77.9064970982
 20
221.5158458139
 30
0.0
 11
77.9064970982
 21
213.5250622437
 31
0.0
  0
LINE
  5
85
330
A
100
AcDbEntity
  8
1
  6
CONTINUOUS
370
    50
100
AcDbLine
 10
77.4064970982
 20
212.8904694114
 30
0.0
 11
77.4064970982
 21
220.8304455805
 31
0.0
  0
LINE
  5
86
330
A
100
AcDbEntity
  8
1
  6
CONTINUOUS
370
    50
100
AcDbLine
 10
94.4564970982
 20
221.7733215942
 30
0.0
 11
90.2396586056
 21
221.7733215942
 31
0.0
  0
LINE
  5
87
330
A
100
AcDbEntity
  8
1
  6
CONTINUOUS
370
    50
100
AcDbLine
 10
83.7733355907
 20
221.7733215942
 30
0.0
 11
78.756497096
 21
221.7733215942
 31
0.0
  0
LINE
  5
88
330
A
100
AcDbEntity
  8
1
  6
CONTINUOUS
370
    50
100
AcDbLine
 10
77.9064970982
 20
221.5158458139
 30
0.0
 11
78.756497096
 21
221.7733215942
 31
0.0
  0
LINE
  5
89
330
A
100
AcDbEntity
  8
1
  6
CONTINUOUS
370
    50
100
AcDbLine
 10
100.6618338972
 20
153.013984292
 30
0.0
 11
100.6618338972
 21
197.013984292
 31
0.0
  0
LINE
  5
8A
330
A
100
AcDbEntity
  8
1
  6
CONTINUOUS
370
    50
100
AcDbLine
 10
119.9314492346
 20
153.013984292
 30
0.0
 11
119.9314492346
 21
197.013984292
 31
0.0
  0
LINE
  5
8B
330
A
100
AcDbEntity
  8
1
  6
CONTINUOUS
370
    50
100
AcDbLine
 10
191.4347805216
 20
158.0139842923
 30
0.0
 11
191.4347805216
 21
192.013984292
 31
0.0
  0
LINE
  5
8C
330
A
100
AcDbEntity
  8
1
  6
CONTINUOUS
370
    50
100
AcDbLine
 10
-25.6935029018
 20
156.8513258839
 30
0.0
 11
-25.6935029018
 21
193.1766427184
 31
0.0
  0
LINE
  5
8D
330
A
100
AcDbEntity
  8
1
  6
CONTINUOUS
370
    50
100
AcDbLine
 10
234.8733689942
 20
188.5952932372
 30
0.0
 11
234.8733689942
 21
161.4326753469
 31
0.0
  0
LINE
  5
8E
330
A
100
AcDbEntity
  8
1
  6
CONTINUOUS
370
    50
100
AcDbLine
 10
235.9064970982
 20
163.1834348406
 30
0.0
 11
235.9064970982
 21
186.8445337629
 31
0.0
  0
LINE
  5
8F
330
A
100
AcDbEntity
  8
1
  6
CONTINUOUS
370
    50
100
AcDbLine
 10
77.2064970982
 20
140.388984292
 30
0.0
 11
77.2064970982
 21
209.638984292
 31
0.0
  0
LINE
  5
90
330
A
100
AcDbEntity
  8
1
  6
CONTINUOUS
370
    50
100
AcDbLine
 10
76.4493873748
 20
140.3421381856
 30
0.0
 11
76.4493873748
 21
209.6858303985
 31
0.0
  0
LINE
  5
91
330
A
100
AcDbEntity
  8
1
  6
CONTINUOUS
370
    50
100
AcDbLine
 10
76.6606965057
 20
140.388984292
 30
0.0
 11
76.6606965057
 21
209.638984292
 31
0.0
  0
LINE
  5
92
330
A
100
AcDbEntity
  8
1
  6
CONTINUOUS
370
    50
100
AcDbLine
 10
-23.9113042062
 20
154.650493764
 30
0.0
 11
-23.9113042062
 21
195.3774748201
 31
0.0
  0
LWPOLYLINE
  5
93
330
A
100
AcDbEntity
  8
1
  6
CONTINUOUS
370
    50
100
AcDbPolyline
 90
       23
 70
   128
 43
0.0
 10
94.1290497077
 20
161.3486142735
 10
93.9373832581
 20
160.6340307035
 10
93.6308244296
 20
159.9773384445
 10
93.2342087955
 20
159.4317387979
 10
92.7796677956
 20
159.0414330022
 10
92.3040256385
 20
158.8380413118
 10
91.845816023
 20
158.8380413118
 10
91.4421603671
 20
159.0414330022
 10
91.1257604514
 20
159.4317387979
 10
90.9222491153
 20
159.9773384445
 10
90.848113637
 20
160.6340307035
 10
90.909360032
 20
161.3486142735
 10
91.1010264817
 20
162.0631978435
 10
91.4075853101
 20
162.7198901024
 10
91.8042009443
 20
163.265489749
 10
92.2587419441
 20
163.6557955447
 10
92.7343841012
 20
163.8591872351
 10
93.1925937167
 20
163.8591872351
 10
93.5962493726
 20
163.6557955447
 10
93.9126492884
 20
163.265489749
 10
94.1161606244
 20
162.7198901024
 10
94.1902961027
 20
162.0631978435
 10
94.1290497077
 20
161.3486142735
  0
LWPOLYLINE
  5
AC
330
A
100
AcDbEntity
  8
1
  6
CONTINUOUS
370
    50
100
AcDbPolyline
 90
       26
 70
   128
 43
0.0
 10
86.0205844412
 20
162.7836653517
 10
86.0259240822
 20
162.2691631818
 10
86.0203374699
 20
161.8155577223
 10
86.0028204829
 20
161.4671720242
 10
85.9631039642
 20
161.2156276612
 10
85.8571573974
 20
161.0990625143
 10
85.7358060552
 20
161.1127624608
 10
85.5677793044
 20
161.1588269286
 10
85.3265549158
 20
161.2281014523
 10
84.9174185622
 20
161.3533281877
 10
84.0770770927
 20
161.7209191771
 10
83.4785216776
 20
162.1867474162
 10
83.1851855419
 20
162.6152625743
 10
83.0739169011
 20
163.0292050999
 10
83.118726965
 20
163.4528195322
 10
83.2976632709
 20
163.8238657221
 10
83.7330461258
 20
164.2680772632
 10
84.5434176635
 20
164.6732815451
 10
85.0722864536
 20
164.7807747804
 10
85.3883026229
 20
164.7743219681
 10
85.6016365611
 20
164.706658231
 10
85.7490254161
 20
164.5827986941
 10
85.8921952236
 20
164.2649336024
 10
85.9832453473
 20
163.6293160244
 10
86.0139951002
 20
163.0336647448
 10
86.0205844412
 20
162.7836653517
  0
LWPOLYLINE
  5
C8
330
A
100
AcDbEntity
  8
1
  6
CONTINUOUS
370
    50
100
AcDbPolyline
 90
       21
 70
   128
 43
0.0
 10
93.4364419404
 20
161.4585374287
 10
93.260773281
 20
160.8254782635
 10
92.9750218549
 20
160.2543873403
 10
92.6071590028
 20
159.8011670175
 10
92.1931937036
 20
159.5101816581
 10
91.7736477651
 20
159.4099149366
 10
91.3895892669
 20
159.5101816581
 10
91.0786125307
 20
159.8011670175
 10
90.8711581261
 20
160.2543873403
 10
90.7875331357
 20
160.8254782635
 10
90.8359233562
 20
161.4585374287
 10
91.0115920156
 20
162.0915965938
 10
91.2973434417
 20
162.662687517
 10
91.6652062938
 20
163.1159078398
 10
92.079171593
 20
163.4068931992
 10
92.4987175315
 20
163.5071599208
 10
92.8827760297
 20
163.4068931992
 10
93.1937527659
 20
163.1159078398
 10
93.4012071705
 20
162.662687517
 10
93.4848321609
 20
162.0915965938
 10
93.4364419404
 20
161.4585374287
  0
LWPOLYLINE
  5
DF
330
A
100
AcDbEntity
  8
1
  6
CONTINUOUS
370
    50
100
AcDbPolyline
 90
       21
 70
   128
 43
0.0
 10
84.2515690674
 20
164.0944946903
 10
84.075900408
 20
163.4614355252
 10
83.7901489819
 20
162.8903446019
 10
83.4222861298
 20
162.4371242791
 10
83.0083208306
 20
162.1461389197
 10
82.5887748921
 20
162.0458721982
 10
82.2047163939
 20
162.1461389197
 10
81.8937396577
 20
162.4371242791
 10
81.6862852531
 20
162.8903446019
 10
81.6026602627
 20
163.4614355252
 10
81.6510504832
 20
164.0944946903
 10
81.8267191426
 20
164.7275538554
 10
82.1124705687
 20
165.2986447786
 10
82.4803334208
 20
165.7518651014
 10
82.89429872
 20
166.0428504608
 10
83.3138446585
 20
166.1431171824
 10
83.6979031567
 20
166.0428504608
 10
84.0088798929
 20
165.7518651014
 10
84.2163342975
 20
165.2986447786
 10
84.2999592879
 20
164.7275538554
 10
84.2515690674
 20
164.0944946903
  0
LINE
  5
F6
330
A
100
AcDbEntity
  8
1
  6
CONTINUOUS
370
    50
100
AcDbLine
 10
77.6596509917
 20
139.713984292
 30
0.0
 11
77.6596509917
 21
211.2566433234
 31
0.0
  0
LINE
  5
F7
330
A
100
AcDbEntity
  8
1
  6
CONTINUOUS
370
    50
100
AcDbLine
 10
77.7064970982
 20
139.713984292
 30
0.0
 11
77.7064970982
 21
211.0453341925
 31
0.0
  0
LWPOLYLINE
  5
F8
330
A
100
AcDbEntity
  8
1
  6
CONTINUOUS
370
    50
100
AcDbPolyline
 90
       23
 70
   128
 43
0.0
 10
84.4915770596
 20
164.0966931534
 10
84.3072823964
 20
163.4095935668
 10
84.0125142922
 20
162.7781587024
 10
83.6311531055
 20
162.2535436576
 10
83.1940944518
 20
161.8782496234
 10
82.7367462238
 20
161.6826806903
 10
82.2961600551
 20
161.6826806903
 10
81.9080296167
 20
161.8782496234
 10
81.6037989285
 20
162.2535436576
 10
81.4081149515
 20
162.7781587024
 10
81.3368308377
 20
163.4095935668
 10
81.3957216022
 20
164.0966931534
 10
81.5800162653
 20
164.7837927399
 10
81.8747843696
 20
165.4152276043
 10
82.2561455563
 20
165.9398426491
 10
82.69320421
 20
166.3151366834
 10
83.150552438
 20
166.5107056165
 10
83.5911386067
 20
166.5107056165
 10
83.9792690451
 20
166.3151366834
 10
84.2834997333
 20
165.9398426491
 10
84.4791837103
 20
165.4152276043
 10
84.550467824
 20
164.7837927399
 10
84.4915770596
 20
164.0966931534
  0
LWPOLYLINE
  5
111
330
A
100
AcDbEntity
  8
1
  6
CONTINUOUS
370
    50
100
AcDbPolyline
 90
       23
 70
   128
 43
0.0
 10
84.499237504
 20
164.0944946903
 10
84.3149428409
 20
163.4073951037
 10
84.0201747366
 20
162.7759602393
 10
83.6388135499
 20
162.2513451945
 10
83.2017548962
 20
161.8760511603
 10
82.7444066682
 20
161.6804822272
 10
82.3038204995
 20
161.6804822272
 10
81.9156900611
 20
161.8760511603
 10
81.6114593729
 20
162.2513451945
 10
81.4157753959
 20
162.7759602393
 10
81.3444912822
 20
163.4073951037
 10
81.4033820466
 20
164.0944946903
 10
81.5876767098
 20
164.7815942768
 10
81.882444814
 20
165.4130291412
 10
82.2638060007
 20
165.937644186
 10
82.7008646544
 20
166.3129382203
 10
83.1582128824
 20
166.5085071534
 10
83.5987990511
 20
166.5085071534
 10
83.9869294895
 20
166.3129382203
 10
84.2911601777
 20
165.937644186
 10
84.4868441547
 20
165.4130291412
 10
84.5581282685
 20
164.7815942768
 10
84.499237504
 20
164.0944946903
  0
LWPOLYLINE
  5
12A
330
A
100
AcDbEntity
  8
1
  6
CONTINUOUS
370
    50
100
AcDbPolyline
 90
       21
 70
   128
 43
0.0
 10
84.243908623
 20
164.0966931534
 10
84.0682399636
 20
163.4636339883
 10
83.7824885375
 20
162.892543065
 10
83.4146256854
 20
162.4393227422
 10
83.0006603862
 20
162.1483373828
 10
82.5811144477
 20
162.0480706613
 10
82.1970559495
 20
162.1483373828
 10
81.8860792133
 20
162.4393227422
 10
81.6786248087
 20
162.892543065
 10
81.5949998183
 20
163.4636339883
 10
81.6433900388
 20
164.0966931534
 10
81.8190586982
 20
164.7297523185
 10
82.1048101243
 20
165.3008432418
 10
82.4726729764
 20
165.7540635645
 10
82.8866382756
 20
166.0450489239
 10
83.3061842141
 20
166.1453156455
 10
83.6902427123
 20
166.0450489239
 10
84.0012194485
 20
165.7540635645
 10
84.2086738531
 20
165.3008432418
 10
84.2922988435
 20
164.7297523185
 10
84.243908623
 20
164.0966931534
  0
LWPOLYLINE
  5
141
330
A
100
AcDbEntity
  8
1
  6
CONTINUOUS
370
    50
100
AcDbPolyline
 90
       21
 70
   128
 43
0.0
 10
60.5451807945
 20
170.8979667882
 10
60.0986902983
 20
170.3828942082
 10
59.2169815429
 20
169.8910261509
 10
57.6321192042
 20
169.5404642283
 10
55.9606998265
 20
169.6589674544
 10
55.1006492671
 20
169.9907834242
 10
54.5430698631
 20
170.4325164368
 10
54.2471032773
 20
170.9083071866
 10
54.149807059
 20
171.4627936955
 10
54.2543697587
 20
171.9660810312
 10
54.5189655292
 20
172.4208571414
 10
55.0676797854
 20
172.9139183425
 10
56.0007731721
 20
173.3216598224
 10
57.4567898594
 20
173.4602405343
 10
58.9379582882
 20
173.158672584
 10
59.860696668
 20
172.6897137787
 10
60.3683144973
 20
172.2262551729
 10
60.6081612534
 20
171.8179505312
 10
60.6831367825
 20
171.4399222825
 10
60.619916455
 20
171.0645896099
 10
60.5451807945
 20
170.8979667882
  0
LINE
  5
158
330
A
100
AcDbEntity
  8
1
  6
CONTINUOUS
370
    50
100
AcDbLine
 10
77.4064970982
 20
138.963984292
 30
0.0
 11
79.6064970982
 21
138.963984292
 31
0.0
  0
LINE
  5
159
330
A
100
AcDbEntity
  8
1
  6
CONTINUOUS
370
    50
100
AcDbLine
 10
79.6064970982
 20
213.263984292
 30
0.0
 11
77.4064970982
 21
213.263984292
 31
0.0
  0
LINE
  5
15A
330
A
100
AcDbEntity
  8
1
  6
CONTINUOUS
370
    50
100
AcDbLine
 10
-24.9330314091
 20
162.0835603748
 30
0.0
 11
-24.9330314091
 21
187.9444082092
 31
0.0
  0
LINE
  5
15B
330
A
100
AcDbEntity
  8
1
  6
CONTINUOUS
370
    50
100
AcDbLine
 10
79.2958369264
 20
139.713984292
 30
0.0
 11
77.4064970982
 21
139.713984292
 31
0.0
  0
LINE
  5
15C
330
A
100
AcDbEntity
  8
1
  6
CONTINUOUS
370
    50
100
AcDbLine
 10
77.4064970982
 20
212.513984292
 30
0.0
 11
79.2958369264
 21
212.513984292
 31
0.0
  0
LINE
  5
15D
330
A
100
AcDbEntity
  8
1
  6
CONTINUOUS
370
    50
100
AcDbLine
 10
78.756497096
 20
128.2546469898
 30
0.0
 11
79.6064970982
 21
129.104646992
 31
0.0
  0
LINE
  5
15E
330
A
100
AcDbEntity
  8
1
  6
CONTINUOUS
370
    50
100
AcDbLine
 10
78.756497096
 20
221.7733215942
 30
0.0
 11
79.6064970982
 21
220.923321592
 31
0.0
  0
LINE
  5
15F
330
A
100
AcDbEntity
  8
1
  6
CONTINUOUS
370
    50
100
AcDbLine
 10
-24.4330314091
 20
162.3722355094
 30
0.0
 11
-24.4330314091
 21
187.6557330746
 31
0.0
  0
LINE
  5
160
330
A
100
AcDbEntity
  8
1
  6
CONTINUOUS
370
    50
100
AcDbLine
 10
89.6327391916
 20
129.104646992
 30
0.0
 11
94.9564970982
 21
129.104646992
 31
0.0
  0
LINE
  5
161
330
A
100
AcDbEntity
  8
1
  6
CONTINUOUS
370
    50
100
AcDbLine
 10
79.6064970982
 20
129.104646992
 30
0.0
 11
84.3802550047
 21
129.104646992
 31
0.0
  0
LINE
  5
162
330
A
100
AcDbEntity
  8
1
  6
CONTINUOUS
370
    50
100
AcDbLine
 10
79.6064970982
 20
129.104646992
 30
0.0
 11
79.6064970982
 21
138.963984292
 31
0.0
  0
LINE
  5
163
330
A
100
AcDbEntity
  8
1
  6
CONTINUOUS
370
    50
100
AcDbLine
 10
79.6064970982
 20
138.963984292
 30
0.0
 11
94.9564970982
 21
138.963984292
 31
0.0
  0
LINE
  5
164
330
A
100
AcDbEntity
  8
1
  6
CONTINUOUS
370
    50
100
AcDbLine
 10
94.9564970982
 20
139.713984292
 30
0.0
 11
79.2958369264
 21
139.713984292
 31
0.0
  0
LINE
  5
165
330
A
100
AcDbEntity
  8
1
  6
CONTINUOUS
370
    50
100
AcDbLine
 10
79.6064970982
 20
138.963984292
 30
0.0
 11
79.2958369264
 21
139.713984292
 31
0.0
  0
LINE
  5
166
330
A
100
AcDbEntity
  8
1
  6
CONTINUOUS
370
    50
100
AcDbLine
 10
89.6327391916
 20
220.923321592
 30
0.0
 11
94.9564970982
 21
220.923321592
 31
0.0
  0
LINE
  5
167
330
A
100
AcDbEntity
  8
1
  6
CONTINUOUS
370
    50
100
AcDbLine
 10
79.6064970982
 20
220.923321592
 30
0.0
 11
84.3802550047
 21
220.923321592
 31
0.0
  0
LINE
  5
168
330
A
100
AcDbEntity
  8
1
  6
CONTINUOUS
370
    50
100
AcDbLine
 10
79.6064970982
 20
220.923321592
 30
0.0
 11
79.6064970982
 21
213.263984292
 31
0.0
  0
LINE
  5
169
330
A
100
AcDbEntity
  8
1
  6
CONTINUOUS
370
    50
100
AcDbLine
 10
94.9564970982
 20
213.263984292
 30
0.0
 11
79.6064970982
 21
213.263984292
 31
0.0
  0
LINE
  5
16A
330
A
100
AcDbEntity
  8
1
  6
CONTINUOUS
370
    50
100
AcDbLine
 10
79.2958369264
 20
212.513984292
 30
0.0
 11
94.9564970982
 21
212.513984292
 31
0.0
  0
LINE
  5
16B
330
A
100
AcDbEntity
  8
1
  6
CONTINUOUS
370
    50
100
AcDbLine
 10
79.6064970982
 20
213.263984292
 30
0.0
 11
79.2958369264
 21
212.513984292
 31
0.0
  0
LINE
  5
16C
330
A
100
AcDbEntity
  8
1
  6
CONTINUOUS
370
    50
100
AcDbLine
 10
-13.9935029018
 20
187.663984292
 30
0.0
 11
-13.9935029018
 21
162.363984292
 31
0.0
  0
LINE
  5
16D
330
A
100
AcDbEntity
  8
1
  6
CONTINUOUS
370
    50
100
AcDbLine
 10
-16.7037914701
 20
187.663984292
 30
0.0
 11
-16.7037914701
 21
162.363984292
 31
0.0
  0
LINE
  5
16E
330
A
100
AcDbEntity
  8
1
  6
CONTINUOUS
370
    50
100
AcDbLine
 10
-12.7882842149
 20
185.576484292
 30
0.0
 11
-12.7882842149
 21
164.451484292
 31
0.0
  0
LINE
  5
16F
330
A
100
AcDbEntity
  8
1
  6
CONTINUOUS
370
    50
100
AcDbLine
 10
-16.9635990913
 20
187.513984292
 30
0.0
 11
-16.9635990913
 21
162.513984292
 31
0.0
  0
LINE
  5
170
330
A
100
AcDbEntity
  8
1
  6
CONTINUOUS
370
    50
100
AcDbLine
 10
-23.6935029018
 20
187.513984292
 30
0.0
 11
-23.6935029018
 21
162.5396668827
 31
0.0
  0
LINE
  5
171
330
A
100
AcDbEntity
  8
1
  6
CONTINUOUS
370
    50
100
AcDbLine
 10
23.3164970982
 20
187.013984292
 30
0.0
 11
23.3164970982
 21
163.013984292
 31
0.0
  0
LINE
  5
172
330
A
100
AcDbEntity
  8
1
  6
CONTINUOUS
370
    50
100
AcDbLine
 10
23.3064970982
 20
187.013984292
 30
0.0
 11
23.3064970982
 21
163.013984292
 31
0.0
  0
LINE
  5
173
330
A
100
AcDbEntity
  8
1
  6
CONTINUOUS
370
    50
100
AcDbLine
 10
38.3064970982
 20
185.576484292
 30
0.0
 11
38.3064970982
 21
164.451484292
 31
0.0
  0
LINE
  5
174
330
A
100
AcDbEntity
  8
1
  6
CONTINUOUS
370
    50
100
AcDbLine
 10
38.3292452378
 20
185.513984292
 30
0.0
 11
38.3292452378
 21
164.513984292
 31
0.0
  0
LINE
  5
175
330
A
100
AcDbEntity
  8
1
  6
CONTINUOUS
370
    50
100
AcDbLine
 10
86.9045733095
 20
169.013984292
 30
0.0
 11
86.9045733095
 21
181.013984292
 31
0.0
  0
LINE
  5
176
330
A
100
AcDbEntity
  8
1
  6
CONTINUOUS
370
    50
100
AcDbLine
 10
84.3064970982
 20
185.513984292
 30
0.0
 11
84.3064970982
 21
164.513984292
 31
0.0
  0
LWPOLYLINE
  5
177
330
A
100
AcDbEntity
  8
1
  6
CONTINUOUS
370
    50
100
AcDbPolyline
 90
       21
 70
   128
 43
0.0
 10
60.5451807945
 20
179.1300017959
 10
60.0986902983
 20
179.6450743758
 10
59.2169815429
 20
180.1369424332
 10
57.6321192042
 20
180.4875043558
 10
55.9606998265
 20
180.3690011296
 10
55.1006492671
 20
180.0371851599
 10
54.5430698631
 20
179.5954521473
 10
54.2471032773
 20
179.1196613974
 10
54.149807059
 20
178.5651748886
 10
54.2543697587
 20
178.0618875529
 10
54.5189655292
 20
177.6071114427
 10
55.0676797854
 20
177.1140502416
 10
56.0007731721
 20
176.7063087617
 10
57.4567898594
 20
176.5677280497
 10
58.9379582882
 20
176.8692960001
 10
59.860696668
 20
177.3382548054
 10
60.3683144973
 20
177.8017134112
 10
60.6081612534
 20
178.2100180529
 10
60.6831367825
 20
178.5880463016
 10
60.619916455
 20
178.9633789742
 10
60.5451807945
 20
179.1300017959
  0
LINE
  5
18E
330
A
100
AcDbEntity
  8
1
  6
CONTINUOUS
370
    50
100
AcDbLine
 10
234.8432750738
 20
168.013984292
 30
0.0
 11
234.8432750738
 21
182.013984292
 31
0.0
  0
LINE
  5
18F
330
A
100
AcDbEntity
  8
1
  6
CONTINUOUS
370
    50
100
AcDbLine
 10
189.4064970982
 20
182.213984292
 30
0.0
 11
189.4064970982
 21
167.8399223745
 31
0.0
  0
LINE
  5
190
330
A
100
AcDbEntity
  8
1
  6
CONTINUOUS
370
    50
100
AcDbLine
 10
188.9064970982
 20
181.713984292
 30
0.0
 11
188.9064970982
 21
168.313984292
 31
0.0
  0
LINE
  5
191
330
A
100
AcDbEntity
  8
1
  6
CONTINUOUS
370
    50
100
AcDbLine
 10
198.7910270482
 20
167.813984292
 30
0.0
 11
198.7910270482
 21
182.213984292
 31
0.0
  0
LINE
  5
192
330
A
100
AcDbEntity
  8
1
  6
CONTINUOUS
370
    50
100
AcDbLine
 10
198.906497102
 20
182.013984292
 30
0.0
 11
198.906497102
 21
168.013984292
 31
0.0
  0
LINE
  5
193
330
A
100
AcDbEntity
  8
1
  6
CONTINUOUS
370
    50
100
AcDbLine
 10
164.3064970982
 20
169.013984292
 30
0.0
 11
164.3064970982
 21
181.013984292
 31
0.0
  0
LINE
  5
194
330
A
100
AcDbEntity
  8
1
  6
CONTINUOUS
370
    50
100
AcDbLine
 10
165.172522502
 20
170.513984292
 30
0.0
 11
165.172522502
 21
179.513984292
 31
0.0
  0
LINE
  5
195
330
A
100
AcDbEntity
  8
1
  6
CONTINUOUS
370
    50
100
AcDbLine
 10
82.0064970982
 20
212.313984292
 30
0.0
 11
92.0064970982
 21
212.313984292
 31
0.0
  0
LINE
  5
196
330
A
100
AcDbEntity
  8
1
  6
CONTINUOUS
370
    50
100
AcDbLine
 10
82.3064976643
 20
207.813984292
 30
0.0
 11
91.7064970982
 21
207.813984292
 31
0.0
  0
LINE
  5
197
330
A
100
AcDbEntity
  8
1
  6
CONTINUOUS
370
    50
100
AcDbLine
 10
92.0064970982
 20
208.113984292
 30
0.0
 11
82.0321504812
 21
208.113984292
 31
0.0
  0
LINE
  5
198
330
A
100
AcDbEntity
  8
1
  6
CONTINUOUS
370
    50
100
AcDbLine
 10
85.9064970982
 20
207.413984292
 30
0.0
 11
88.1064970982
 21
207.413984292
 31
0.0
  0
LINE
  5
199
330
A
100
AcDbEntity
  8
1
  6
CONTINUOUS
370
    50
100
AcDbLine
 10
85.7564970982
 20
204.003984292
 30
0.0
 11
88.2564970982
 21
204.003984292
 31
0.0
  0
LINE
  5
19A
330
A
100
AcDbEntity
  8
1
  6
CONTINUOUS
370
    50
100
AcDbLine
 10
85.7564970982
 20
204.013984292
 30
0.0
 11
88.2564970982
 21
204.013984292
 31
0.0
  0
LINE
  5
19B
330
A
100
AcDbEntity
  8
1
  6
CONTINUOUS
370
    50
100
AcDbLine
 10
85.9064970982
 20
201.413984292
 30
0.0
 11
88.1064970982
 21
201.413984292
 31
0.0
  0
LWPOLYLINE
  5
19C
330
A
100
AcDbEntity
  8
1
  6
CONTINUOUS
370
    50
100
AcDbPolyline
 90
       21
 70
   128
 43
0.0
 10
84.243908623
 20
185.9312754307
 10
84.0682399636
 20
186.5643345958
 10
83.7824885375
 20
187.1354255191
 10
83.4146256854
 20
187.5886458419
 10
83.0006603862
 20
187.8796312012
 10
82.5811144477
 20
187.9798979228
 10
82.1970559495
 20
187.8796312012
 10
81.8860792133
 20
187.5886458419
 10
81.6786248087
 20
187.1354255191
 10
81.5949998183
 20
186.5643345958
 10
81.6433900388
 20
185.9312754307
 10
81.8190586982
 20
185.2982162656
 10
82.1048101243
 20
184.7271253423
 10
82.4726729764
 20
184.2739050195
 10
82.8866382756
 20
183.9829196602
 10
83.3061842141
 20
183.8826529386
 10
83.6902427123
 20
183.9829196602
 10
84.0012194485
 20
184.2739050195
 10
84.2086738531
 20
184.7271253423
 10
84.2922988435
 20
185.2982162656
 10
84.243908623
 20
185.9312754307
  0
LINE
  5
1B3
330
A
100
AcDbEntity
  8
1
  6
CONTINUOUS
370
    50
100
AcDbLine
 10
88.4314970982
 20
131.3662180262
 30
0.0
 11
88.4314970982
 21
218.6617505579
 31
0.0
  0
LINE
  5
1B4
330
A
100
AcDbEntity
  8
1
  6
CONTINUOUS
370
    50
100
AcDbLine
 10
88.9314970982
 20
204.863984292
 30
0.0
 11
88.9314970982
 21
210.013662862
 31
0.0
  0
LINE
  5
1B5
330
A
100
AcDbEntity
  8
1
  6
CONTINUOUS
370
    50
100
AcDbLine
 10
85.5814970982
 20
131.3662180262
 30
0.0
 11
85.5814970982
 21
218.6617505579
 31
0.0
  0
LINE
  5
1B6
330
A
100
AcDbEntity
  8
1
  6
CONTINUOUS
370
    50
100
AcDbLine
 10
85.0814970982
 20
204.863984292
 30
0.0
 11
85.0814970982
 21
210.013662862
 31
0.0
  0
LINE
  5
1B7
330
A
100
AcDbEntity
  8
1
  6
CONTINUOUS
370
    50
100
AcDbLine
 10
83.7733355907
 20
213.5250622437
 30
0.0
 11
83.7733355907
 21
204.863984292
 31
0.0
  0
LINE
  5
1B8
330
A
100
AcDbEntity
  8
1
  6
CONTINUOUS
370
    50
100
AcDbLine
 10
94.4564970982
 20
213.5250622437
 30
0.0
 11
94.4564970982
 21
204.863984292
 31
0.0
  0
LINE
  5
1B9
330
A
100
AcDbEntity
  8
1
  6
CONTINUOUS
370
    50
100
AcDbLine
 10
90.2396586056
 20
204.863984292
 30
0.0
 11
90.2396586056
 21
213.5250622437
 31
0.0
  0
LINE
  5
1BA
330
A
100
AcDbEntity
  8
1
  6
CONTINUOUS
370
    50
100
AcDbLine
 10
77.9064970982
 20
204.863984292
 30
0.0
 11
77.9064970982
 21
213.5250622437
 31
0.0
  0
LWPOLYLINE
  5
1BB
330
A
100
AcDbEntity
  8
1
  6
CONTINUOUS
370
    50
100
AcDbPolyline
 90
       17
 70
   128
 43
0.0
 10
94.9564970982
 20
168.7021265693
 10
93.4989007702
 20
170.010783136
 10
92.1978070516
 20
171.4676553884
 10
91.0689915024
 20
173.055078976
 10
90.1261408367
 20
174.7538066331
 10
89.380686973
 20
176.5432415497
 10
88.841668424
 20
178.401687104
 10
88.5156207064
 20
180.3066099311
 10
88.4064970982
 20
182.2349131365
 10
88.5156207064
 20
184.1632163418
 10
88.841668424
 20
186.068139169
 10
89.380686973
 20
187.9265847233
 10
90.1261408367
 20
189.7160196398
 10
91.0689915024
 20
191.414747297
 10
92.1978070516
 20
193.0021708845
 10
93.4989007702
 20
194.459043137
 10
94.9564970982
 20
195.7676997037
  0
LWPOLYLINE
  5
1CE
330
A
100
AcDbEntity
  8
1
  6
CONTINUOUS
370
    50
100
AcDbPolyline
 90
       17
 70
   128
 43
0.0
 10
94.9564970982
 20
167.5773712976
 10
93.4989007702
 20
168.8860278642
 10
92.1978070516
 20
170.3429001167
 10
91.0689915024
 20
171.9303237043
 10
90.1261408367
 20
173.6290513614
 10
89.380686973
 20
175.4184862779
 10
88.841668424
 20
177.2769318323
 10
88.5156207064
 20
179.1818546594
 10
88.4064970982
 20
181.1101578648
 10
88.5156207064
 20
183.0384610701
 10
88.841668424
 20
184.9433838973
 10
89.380686973
 20
186.8018294516
 10
90.1261408367
 20
188.5912643681
 10
91.0689915024
 20
190.2899920252
 10
92.1978070516
 20
191.8774156128
 10
93.4989007702
 20
193.3342878653
 10
94.9564970982
 20
194.6429444319
  0
LWPOLYLINE
  5
1E1
330
A
100
AcDbEntity
  8
1
  6
CONTINUOUS
370
    50
100
AcDbPolyline
 90
       23
 70
   128
 43
0.0
 10
84.4915770596
 20
185.9312754307
 10
84.3072823964
 20
186.6183750173
 10
84.0125142922
 20
187.2498098816
 10
83.6311531055
 20
187.7744249264
 10
83.1940944518
 20
188.1497189607
 10
82.7367462238
 20
188.3452878938
 10
82.2961600551
 20
188.3452878938
 10
81.9080296167
 20
188.1497189607
 10
81.6037989285
 20
187.7744249264
 10
81.4081149515
 20
187.2498098816
 10
81.3368308377
 20
186.6183750173
 10
81.3957216022
 20
185.9312754307
 10
81.5800162653
 20
185.2441758441
 10
81.8747843696
 20
184.6127409798
 10
82.2561455563
 20
184.088125935
 10
82.69320421
 20
183.7128319007
 10
83.150552438
 20
183.5172629676
 10
83.5911386067
 20
183.5172629676
 10
83.9792690451
 20
183.7128319007
 10
84.2834997333
 20
184.088125935
 10
84.4791837103
 20
184.6127409798
 10
84.550467824
 20
185.2441758441
 10
84.4915770596
 20
185.9312754307
  0
LWPOLYLINE
  5
1FA
330
A
100
AcDbEntity
  8
1
  6
CONTINUOUS
370
    50
100
AcDbPolyline
 90
       23
 70
   128
 43
0.0
 10
84.499237504
 20
185.9334738938
 10
84.3149428409
 20
186.6205734804
 10
84.0201747366
 20
187.2520083447
 10
83.6388135499
 20
187.7766233895
 10
83.2017548962
 20
188.1519174238
 10
82.7444066682
 20
188.3474863569
 10
82.3038204995
 20
188.3474863569
 10
81.9156900611
 20
188.1519174238
 10
81.6114593729
 20
187.7766233895
 10
81.4157753959
 20
187.2520083447
 10
81.3444912822
 20
186.6205734804
 10
81.4033820466
 20
185.9334738938
 10
81.5876767098
 20
185.2463743073
 10
81.882444814
 20
184.6149394429
 10
82.2638060007
 20
184.0903243981
 10
82.7008646544
 20
183.7150303638
 10
83.1582128824
 20
183.5194614307
 10
83.5987990511
 20
183.5194614307
 10
83.9869294895
 20
183.7150303638
 10
84.2911601777
 20
184.0903243981
 10
84.4868441547
 20
184.6149394429
 10
84.5581282685
 20
185.2463743073
 10
84.499237504
 20
185.9334738938
  0
LWPOLYLINE
  5
213
330
A
100
AcDbEntity
  8
1
  6
CONTINUOUS
370
    50
100
AcDbPolyline
 90
       21
 70
   128
 43
0.0
 10
84.2515690674
 20
185.9334738938
 10
84.075900408
 20
186.5665330589
 10
83.7901489819
 20
187.1376239822
 10
83.4222861298
 20
187.590844305
 10
83.0083208306
 20
187.8818296643
 10
82.5887748921
 20
187.9820963859
 10
82.2047163939
 20
187.8818296643
 10
81.8937396577
 20
187.590844305
 10
81.6862852531
 20
187.1376239822
 10
81.6026602627
 20
186.5665330589
 10
81.6510504832
 20
185.9334738938
 10
81.8267191426
 20
185.3004147287
 10
82.1124705687
 20
184.7293238054
 10
82.4803334208
 20
184.2761034826
 10
82.89429872
 20
183.9851181233
 10
83.3138446585
 20
183.8848514017
 10
83.6979031567
 20
183.9851181233
 10
84.0088798929
 20
184.2761034826
 10
84.2163342975
 20
184.7293238054
 10
84.2999592879
 20
185.3004147287
 10
84.2515690674
 20
185.9334738938
  0
LWPOLYLINE
  5
22A
330
A
100
AcDbEntity
  8
1
  6
CONTINUOUS
370
    50
100
AcDbPolyline
 90
       25
 70
   128
 43
0.0
 10
86.0205844412
 20
187.2443032324
 10
85.9977787065
 20
186.6187233599
 10
85.9486291397
 20
186.0625336015
 10
85.8115407813
 20
185.5429594284
 10
85.6756444723
 20
185.3706184766
 10
85.4904373627
 20
185.2761175636
 10
85.2504255059
 20
185.2416477262
 10
84.7583558218
 20
185.2968570158
 10
83.8579354922
 20
185.6731652524
 10
83.3801754034
 20
186.0934214911
 10
83.1388154172
 20
186.5137351742
 10
83.0734886399
 20
186.9934283833
 10
83.1783954411
 20
187.3977343445
 10
83.4788015827
 20
187.8415221486
 10
84.0876673507
 20
188.3131751888
 10
85.004892979
 20
188.7031217844
 10
85.3321036531
 20
188.801468022
 10
85.5622011925
 20
188.8675406581
 10
85.7266850071
 20
188.9129928783
 10
85.8729818631
 20
188.92573009
 10
85.975275421
 20
188.7650961145
 10
86.0114218413
 20
188.4355819083
 10
86.0242260085
 20
188.0189359601
 10
86.0246033444
 20
187.5028404198
 10
86.0205844412
 20
187.2443032324
  0
LWPOLYLINE
  5
245
330
A
100
AcDbEntity
  8
1
  6
CONTINUOUS
370
    50
100
AcDbPolyline
 90
       21
 70
   128
 43
0.0
 10
93.4364419404
 20
188.5694311554
 10
93.260773281
 20
189.2024903205
 10
92.9750218549
 20
189.7735812438
 10
92.6071590028
 20
190.2268015666
 10
92.1931937036
 20
190.517786926
 10
91.7736477651
 20
190.6180536475
 10
91.3895892669
 20
190.517786926
 10
91.0786125307
 20
190.2268015666
 10
90.8711581261
 20
189.7735812438
 10
90.7875331357
 20
189.2024903205
 10
90.8359233562
 20
188.5694311554
 10
91.0115920156
 20
187.9363719903
 10
91.2973434417
 20
187.365281067
 10
91.6652062938
 20
186.9120607442
 10
92.079171593
 20
186.6210753849
 10
92.4987175315
 20
186.5208086633
 10
92.8827760297
 20
186.6210753849
 10
93.1937527659
 20
186.9120607442
 10
93.4012071705
 20
187.365281067
 10
93.4848321609
 20
187.9363719903
 10
93.4364419404
 20
188.5694311554
  0
LWPOLYLINE
  5
25C
330
A
100
AcDbEntity
  8
1
  6
CONTINUOUS
370
    50
100
AcDbPolyline
 90
       23
 70
   128
 43
0.0
 10
94.1290497077
 20
188.6793543106
 10
93.9373832581
 20
189.3939378806
 10
93.6308244296
 20
190.0506301396
 10
93.2342087955
 20
190.5962297862
 10
92.7796677956
 20
190.9865355818
 10
92.3040256385
 20
191.1899272722
 10
91.845816023
 20
191.1899272722
 10
91.4421603671
 20
190.9865355818
 10
91.1257604514
 20
190.5962297862
 10
90.9222491153
 20
190.0506301396
 10
90.848113637
 20
189.3939378806
 10
90.909360032
 20
188.6793543106
 10
91.1010264817
 20
187.9647707406
 10
91.4075853101
 20
187.3080784816
 10
91.8042009443
 20
186.762478835
 10
92.2587419441
 20
186.3721730394
 10
92.7343841012
 20
186.168781349
 10
93.1925937167
 20
186.168781349
 10
93.5962493726
 20
186.3721730394
 10
93.9126492884
 20
186.762478835
 10
94.1161606244
 20
187.3080784816
 10
94.1902961027
 20
187.9647707406
 10
94.1290497077
 20
188.6793543106
  0
LINE
  5
275
330
A
100
AcDbEntity
  8
1
  6
CONTINUOUS
370
    50
100
AcDbLine
 10
78.6064970982
 20
155.013984292
 30
0.0
 11
83.2064970982
 21
155.013984292
 31
0.0
  0
LINE
  5
276
330
A
100
AcDbEntity
  8
1
  6
CONTINUOUS
370
    50
100
AcDbLine
 10
83.2064970982
 20
155.013984292
 30
0.0
 11
83.2064970982
 21
195.013984292
 31
0.0
  0
LINE
  5
277
330
A
100
AcDbEntity
  8
1
  6
CONTINUOUS
370
    50
100
AcDbLine
 10
92.0064970982
 20
195.013984292
 30
0.0
 11
92.0064970982
 21
155.013984292
 31
0.0
  0
LINE
  5
278
330
A
100
AcDbEntity
  8
1
  6
CONTINUOUS
370
    50
100
AcDbLine
 10
92.0064970982
 20
155.013984292
 30
0.0
 11
94.0064970982
 21
155.013984292
 31
0.0
  0
LINE
  5
279
330
A
100
AcDbEntity
  8
1
  6
CONTINUOUS
370
    50
100
AcDbLine
 10
94.0064970982
 20
155.013984292
 30
0.0
 11
94.0064970982
 21
195.013984292
 31
0.0
  0
LINE
  5
27A
330
A
100
AcDbEntity
  8
1
  6
CONTINUOUS
370
    50
100
AcDbLine
 10
78.6064970982
 20
195.013984292
 30
0.0
 11
78.6064970982
 21
155.013984292
 31
0.0
  0
LINE
  5
27B
330
A
100
AcDbEntity
  8
1
  6
CONTINUOUS
370
    50
100
AcDbLine
 10
94.0064970982
 20
195.013984292
 30
0.0
 11
92.0064970982
 21
195.013984292
 31
0.0
  0
LINE
  5
27C
330
A
100
AcDbEntity
  8
1
  6
CONTINUOUS
370
    50
100
AcDbLine
 10
83.2064970982
 20
195.013984292
 30
0.0
 11
78.6064970982
 21
195.013984292
 31
0.0
  0
LINE
  5
27D
330
A
100
AcDbEntity
  8
1
  6
CONTINUOUS
370
    50
100
AcDbLine
 10
91.8019852528
 20
158.8494952245
 30
0.0
 11
94.9564970982
 21
157.9441850998
 31
0.0
  0
LINE
  5
27E
330
A
100
AcDbEntity
  8
1
  6
CONTINUOUS
370
    50
100
AcDbLine
 10
94.9564970982
 20
163.3540914449
 30
0.0
 11
93.2364244869
 21
163.8477333224
 31
0.0
  0
LINE
  5
27F
330
A
100
AcDbEntity
  8
1
  6
CONTINUOUS
370
    50
100
AcDbLine
 10
77.4064970982
 20
158.6724417232
 30
0.0
 11
85.8725212045
 21
161.1020973133
 31
0.0
  0
LINE
  5
280
330
A
100
AcDbEntity
  8
1
  6
CONTINUOUS
370
    50
100
AcDbLine
 10
84.6030353247
 20
164.6911619587
 30
0.0
 11
77.4064970982
 21
162.6258348215
 31
0.0
  0
LINE
  5
281
330
A
100
AcDbEntity
  8
1
  6
CONTINUOUS
370
    50
100
AcDbLine
 10
91.8430248683
 20
163.3072971144
 30
0.0
 11
91.5900372625
 21
163.0405504925
 31
0.0
  0
LINE
  5
282
330
A
100
AcDbEntity
  8
1
  6
CONTINUOUS
370
    50
100
AcDbLine
 10
90.8342123873
 20
160.4069131821
 30
0.0
 11
90.9072416895
 21
160.0466033015
 31
0.0
  0
LINE
  5
283
330
A
100
AcDbEntity
  8
1
  6
CONTINUOUS
370
    50
100
AcDbLine
 10
85.4870042084
 20
161.1820084711
 30
0.0
 11
91.5568898807
 21
159.4400181968
 31
0.0
  0
LINE
  5
284
330
A
100
AcDbEntity
  8
1
  6
CONTINUOUS
370
    50
100
AcDbLine
 10
82.3720170077
 20
162.0759754584
 30
0.0
 11
85.4870042084
 21
161.1820084711
 31
0.0
  0
LINE
  5
285
330
A
100
AcDbEntity
  8
1
  6
CONTINUOUS
370
    50
100
AcDbLine
 10
92.7154754159
 20
163.4770566605
 30
0.0
 11
83.5306025429
 21
166.1130139221
 31
0.0
  0
LINE
  5
286
330
A
100
AcDbEntity
  8
1
  6
CONTINUOUS
370
    50
100
AcDbLine
 10
77.6596509917
 20
211.2566433234
 30
0.0
 11
77.4064970982
 21
211.7995336
 31
0.0
  0
ARC
  5
287
330
A
100
AcDbEntity
  8
1
  6
CONTINUOUS
370
    50
100
AcDbCircle
 10
77.2064970982
 20
139.888984292
 30
0.0
 40
0.5
100
AcDbArc
 50
0.0
 51
66.4218215218
  0
ARC
  5
288
330
A
100
AcDbEntity
  8
1
  6
CONTINUOUS
370
    50
100
AcDbCircle
 10
77.2064970982
 20
210.138984292
 30
0.0
 40
0.5
100
AcDbArc
 50
293.5781784782001
 51
0.0
  0
LINE
  5
289
330
A
100
AcDbEntity
  8
1
  6
CONTINUOUS
370
    50
100
AcDbLine
 10
55.8180781965
 20
169.6966631698
 30
0.0
 11
82.3643565633
 21
162.0781739215
 31
0.0
  0
LINE
  5
28A
330
A
100
AcDbEntity
  8
1
  6
CONTINUOUS
370
    50
100
AcDbLine
 10
83.5229420985
 20
166.1152123852
 30
0.0
 11
58.6083381327
 21
173.2654290678
 31
0.0
  0
ARC
  5
28B
330
A
100
AcDbEntity
  8
1
  6
CONTINUOUS
370
    50
100
AcDbCircle
 10
-23.6935029018
 20
160.513984292
 30
0.0
 40
2.0
100
AcDbArc
 50
128.2989210679
 51
180.0
  0
ARC
  5
28C
330
A
100
AcDbEntity
  8
1
  6
CONTINUOUS
370
    50
100
AcDbCircle
 10
-23.6935029018
 20
189.513984292
 30
0.0
 40
2.0
100
AcDbArc
 50
180.0
 51
231.7010789321
  0
LINE
  5
28D
330
A
100
AcDbEntity
  8
1
  6
CONTINUOUS
370
    50
100
AcDbLine
 10
-24.9330314091
 20
162.0835603748
 30
0.0
 11
-24.4330314091
 21
162.3722355094
 31
0.0
  0
LINE
  5
28E
330
A
100
AcDbEntity
  8
1
  6
CONTINUOUS
370
    50
100
AcDbLine
 10
-24.4330314091
 20
187.6557330746
 30
0.0
 11
-24.9330314091
 21
187.9444082092
 31
0.0
  0
LINE
  5
28F
330
A
100
AcDbEntity
  8
1
  6
CONTINUOUS
370
    50
100
AcDbLine
 10
-13.9935029018
 20
187.663984292
 30
0.0
 11
-16.7037914701
 21
187.663984292
 31
0.0
  0
LINE
  5
290
330
A
100
AcDbEntity
  8
1
  6
CONTINUOUS
370
    50
100
AcDbLine
 10
-16.7037914701
 20
162.363984292
 30
0.0
 11
-13.9935029018
 21
162.363984292
 31
0.0
  0
LINE
  5
291
330
A
100
AcDbEntity
  8
1
  6
CONTINUOUS
370
    50
100
AcDbLine
 10
-13.9935029018
 20
162.363984292
 30
0.0
 11
-12.7882842149
 21
164.451484292
 31
0.0
  0
LINE
  5
292
330
A
100
AcDbEntity
  8
1
  6
CONTINUOUS
370
    50
100
AcDbLine
 10
-12.7882842149
 20
185.576484292
 30
0.0
 11
-13.9935029018
 21
187.663984292
 31
0.0
  0
LINE
  5
293
330
A
100
AcDbEntity
  8
1
  6
CONTINUOUS
370
    50
100
AcDbLine
 10
-16.7037914701
 20
187.663984292
 30
0.0
 11
-16.9635990913
 21
187.513984292
 31
0.0
  0
LINE
  5
294
330
A
100
AcDbEntity
  8
1
  6
CONTINUOUS
370
    50
100
AcDbLine
 10
-16.9635990913
 20
162.513984292
 30
0.0
 11
-16.7037914701
 21
162.363984292
 31
0.0
  0
ARC
  5
295
330
A
100
AcDbEntity
  8
1
  6
CONTINUOUS
370
    50
100
AcDbCircle
 10
-23.6935029018
 20
160.513984292
 30
0.0
 40
2.0
100
AcDbArc
 50
90.0
 51
111.7010789321
  0
ARC
  5
296
330
A
100
AcDbEntity
  8
1
  6
CONTINUOUS
370
    50
100
AcDbCircle
 10
-23.6935029018
 20
189.513984292
 30
0.0
 40
2.0
100
AcDbArc
 50
248.2989210679
 51
270.0
  0
LINE
  5
297
330
A
100
AcDbEntity
  8
1
  6
CONTINUOUS
370
    50
100
AcDbLine
 10
-23.6935029018
 20
162.513984292
 30
0.0
 11
-16.9635990913
 21
162.513984292
 31
0.0
  0
LINE
  5
298
330
A
100
AcDbEntity
  8
1
  6
CONTINUOUS
370
    50
100
AcDbLine
 10
-16.9635990913
 20
187.513984292
 30
0.0
 11
-23.6935029018
 21
187.513984292
 31
0.0
  0
LINE
  5
299
330
A
100
AcDbEntity
  8
1
  6
CONTINUOUS
370
    50
100
AcDbLine
 10
23.3064970982
 20
185.576484292
 30
0.0
 11
-12.7882842149
 21
185.576484292
 31
0.0
  0
LINE
  5
29A
330
A
100
AcDbEntity
  8
1
  6
CONTINUOUS
370
    50
100
AcDbLine
 10
-12.7882842149
 20
164.451484292
 30
0.0
 11
23.3064970982
 21
164.451484292
 31
0.0
  0
LINE
  5
29B
330
A
100
AcDbEntity
  8
1
  6
CONTINUOUS
370
    50
100
AcDbLine
 10
38.3064970982
 20
185.576484292
 30
0.0
 11
23.3164970982
 21
185.576484292
 31
0.0
  0
LINE
  5
29C
330
A
100
AcDbEntity
  8
1
  6
CONTINUOUS
370
    50
100
AcDbLine
 10
23.3164970982
 20
164.451484292
 30
0.0
 11
38.3064970982
 21
164.451484292
 31
0.0
  0
LINE
  5
29D
330
A
100
AcDbEntity
  8
1
  6
CONTINUOUS
370
    50
100
AcDbLine
 10
84.3064970982
 20
164.513984292
 30
0.0
 11
86.9045733095
 21
169.013984292
 31
0.0
  0
LINE
  5
29E
330
A
100
AcDbEntity
  8
1
  6
CONTINUOUS
370
    50
100
AcDbLine
 10
86.9045733095
 20
181.013984292
 30
0.0
 11
84.3064970982
 21
185.513984292
 31
0.0
  0
LINE
  5
29F
330
A
100
AcDbEntity
  8
1
  6
CONTINUOUS
370
    50
100
AcDbLine
 10
84.3064970982
 20
185.513984292
 30
0.0
 11
38.3292452378
 21
185.513984292
 31
0.0
  0
LINE
  5
2A0
330
A
100
AcDbEntity
  8
1
  6
CONTINUOUS
370
    50
100
AcDbLine
 10
38.3292452378
 20
164.513984292
 30
0.0
 11
84.3064970982
 21
164.513984292
 31
0.0
  0
ARC
  5
2A1
330
A
100
AcDbEntity
  8
1
  6
CONTINUOUS
370
    50
100
AcDbCircle
 10
234.4064970982
 20
166.578984292
 30
0.0
 40
1.5
100
AcDbArc
 50
0.0
 51
73.0710674448
  0
ARC
  5
2A2
330
A
100
AcDbEntity
  8
1
  6
CONTINUOUS
370
    50
100
AcDbCircle
 10
234.4064970982
 20
183.448984292
 30
0.0
 40
1.5
100
AcDbArc
 50
286.9289325552
 51
0.0
  0
ARC
  5
2A3
330
A
100
AcDbEntity
  8
1
  6
CONTINUOUS
370
    50
100
AcDbCircle
 10
189.4064970982
 20
168.313984292
 30
0.0
 40
0.5
100
AcDbArc
 50
180.0
 51
270.0
  0
ARC
  5
2A4
330
A
100
AcDbEntity
  8
1
  6
CONTINUOUS
370
    50
100
AcDbCircle
 10
189.4064970982
 20
181.713984292
 30
0.0
 40
0.5
100
AcDbArc
 50
90.0
 51
180.0
  0
LINE
  5
2A5
330
A
100
AcDbEntity
  8
1
  6
CONTINUOUS
370
    50
100
AcDbLine
 10
189.4064970982
 20
167.813984292
 30
0.0
 11
198.7910270482
 21
167.813984292
 31
0.0
  0
LINE
  5
2A6
330
A
100
AcDbEntity
  8
1
  6
CONTINUOUS
370
    50
100
AcDbLine
 10
198.7910270482
 20
182.213984292
 30
0.0
 11
189.4064970982
 21
182.213984292
 31
0.0
  0
LINE
  5
2A7
330
A
100
AcDbEntity
  8
1
  6
CONTINUOUS
370
    50
100
AcDbLine
 10
198.7910270482
 20
167.813984292
 30
0.0
 11
198.906497102
 21
168.013984292
 31
0.0
  0
LINE
  5
2A8
330
A
100
AcDbEntity
  8
1
  6
CONTINUOUS
370
    50
100
AcDbLine
 10
198.906497102
 20
182.013984292
 30
0.0
 11
198.7910270482
 21
182.213984292
 31
0.0
  0
LINE
  5
2A9
330
A
100
AcDbEntity
  8
1
  6
CONTINUOUS
370
    50
100
AcDbLine
 10
198.906497102
 20
168.013984292
 30
0.0
 11
234.8432750738
 21
168.013984292
 31
0.0
  0
LINE
  5
2AA
330
A
100
AcDbEntity
  8
1
  6
CONTINUOUS
370
    50
100
AcDbLine
 10
234.8432750738
 20
182.013984292
 30
0.0
 11
198.906497102
 21
182.013984292
 31
0.0
  0
LINE
  5
2AB
330
A
100
AcDbEntity
  8
1
  6
CONTINUOUS
370
    50
100
AcDbLine
 10
164.3064970982
 20
169.013984292
 30
0.0
 11
165.172522502
 21
170.513984292
 31
0.0
  0
LINE
  5
2AC
330
A
100
AcDbEntity
  8
1
  6
CONTINUOUS
370
    50
100
AcDbLine
 10
165.172522502
 20
179.513984292
 30
0.0
 11
164.3064970982
 21
181.013984292
 31
0.0
  0
LINE
  5
2AD
330
A
100
AcDbEntity
  8
1
  6
CONTINUOUS
370
    50
100
AcDbLine
 10
86.9045733095
 20
169.013984292
 30
0.0
 11
164.3064970982
 21
169.013984292
 31
0.0
  0
LINE
  5
2AE
330
A
100
AcDbEntity
  8
1
  6
CONTINUOUS
370
    50
100
AcDbLine
 10
164.3064970982
 20
181.013984292
 30
0.0
 11
86.9045733095
 21
181.013984292
 31
0.0
  0
LINE
  5
2AF
330
A
100
AcDbEntity
  8
1
  6
CONTINUOUS
370
    50
100
AcDbLine
 10
81.8064970982
 20
212.513984292
 30
0.0
 11
82.0064970982
 21
212.313984292
 31
0.0
  0
LINE
  5
2B0
330
A
100
AcDbEntity
  8
1
  6
CONTINUOUS
370
    50
100
AcDbLine
 10
92.0064970982
 20
212.313984292
 30
0.0
 11
92.2064970982
 21
212.513984292
 31
0.0
  0
ARC
  5
2B1
330
A
100
AcDbEntity
  8
1
  6
CONTINUOUS
370
    50
100
AcDbCircle
 10
82.3064970982
 20
208.113984292
 30
0.0
 40
0.3
100
AcDbArc
 50
180.0
 51
270.0
  0
ARC
  5
2B2
330
A
100
AcDbEntity
  8
1
  6
CONTINUOUS
370
    50
100
AcDbCircle
 10
91.7064970982
 20
208.113984292
 30
0.0
 40
0.3
100
AcDbArc
 50
270.0
 51
0.0
  0
LINE
  5
2B3
330
A
100
AcDbEntity
  8
1
  6
CONTINUOUS
370
    50
100
AcDbLine
 10
82.0064970982
 20
212.313984292
 30
0.0
 11
82.0064970982
 21
208.113984292
 31
0.0
  0
LINE
  5
2B4
330
A
100
AcDbEntity
  8
1
  6
CONTINUOUS
370
    50
100
AcDbLine
 10
92.0064970982
 20
208.113984292
 30
0.0
 11
92.0064970982
 21
212.313984292
 31
0.0
  0
LINE
  5
2B5
330
A
100
AcDbEntity
  8
1
  6
CONTINUOUS
370
    50
100
AcDbLine
 10
165.172522502
 20
170.513984292
 30
0.0
 11
188.9064970982
 21
170.513984292
 31
0.0
  0
LINE
  5
2B6
330
A
100
AcDbEntity
  8
1
  6
CONTINUOUS
370
    50
100
AcDbLine
 10
188.9064970982
 20
179.513984292
 30
0.0
 11
165.172522502
 21
179.513984292
 31
0.0
  0
LINE
  5
2B7
330
A
100
AcDbEntity
  8
1
  6
CONTINUOUS
370
    50
100
AcDbLine
 10
85.5064970982
 20
207.813984292
 30
0.0
 11
85.9064970982
 21
207.413984292
 31
0.0
  0
LINE
  5
2B8
330
A
100
AcDbEntity
  8
1
  6
CONTINUOUS
370
    50
100
AcDbLine
 10
88.1064970982
 20
207.413984292
 30
0.0
 11
88.5064970982
 21
207.813984292
 31
0.0
  0
LINE
  5
2B9
330
A
100
AcDbEntity
  8
1
  6
CONTINUOUS
370
    50
100
AcDbLine
 10
85.9064970982
 20
201.413984292
 30
0.0
 11
87.0064970982
 21
201.0136170343
 31
0.0
  0
LINE
  5
2BA
330
A
100
AcDbEntity
  8
1
  6
CONTINUOUS
370
    50
100
AcDbLine
 10
87.0064970982
 20
201.0136170343
 30
0.0
 11
88.1064970982
 21
201.413984292
 31
0.0
  0
LINE
  5
2BB
330
A
100
AcDbEntity
  8
1
  6
CONTINUOUS
370
    50
100
AcDbLine
 10
85.9064970982
 20
204.003984292
 30
0.0
 11
85.9064970982
 21
201.413984292
 31
0.0
  0
LINE
  5
2BC
330
A
100
AcDbEntity
  8
1
  6
CONTINUOUS
370
    50
100
AcDbLine
 10
88.1064970982
 20
201.413984292
 30
0.0
 11
88.1064970982
 21
204.003984292
 31
0.0
  0
LINE
  5
2BD
330
A
100
AcDbEntity
  8
1
  6
CONTINUOUS
370
    50
100
AcDbLine
 10
85.9064970982
 20
207.413984292
 30
0.0
 11
85.9064970982
 21
204.013984292
 31
0.0
  0
LINE
  5
2BE
330
A
100
AcDbEntity
  8
1
  6
CONTINUOUS
370
    50
100
AcDbLine
 10
88.1064970982
 20
204.013984292
 30
0.0
 11
88.1064970982
 21
207.413984292
 31
0.0
  0
LINE
  5
2BF
330
A
100
AcDbEntity
  8
1
  6
CONTINUOUS
370
    50
100
AcDbLine
 10
58.6083381327
 20
176.7625395163
 30
0.0
 11
83.5229420985
 21
183.9127561988
 31
0.0
  0
LINE
  5
2C0
330
A
100
AcDbEntity
  8
1
  6
CONTINUOUS
370
    50
100
AcDbLine
 10
82.3643565633
 20
187.9497946626
 30
0.0
 11
55.8180781965
 21
180.3313054143
 31
0.0
  0
LINE
  5
2C1
330
A
100
AcDbEntity
  8
1
  6
CONTINUOUS
370
    50
100
AcDbLine
 10
88.4064970982
 20
182.2349131365
 30
0.0
 11
88.4064970982
 21
181.1101578648
 31
0.0
  0
LINE
  5
2C2
330
A
100
AcDbEntity
  8
1
  6
CONTINUOUS
370
    50
100
AcDbLine
 10
83.5306025429
 20
183.9149546619
 30
0.0
 11
92.7154754159
 21
186.5509119236
 31
0.0
  0
LINE
  5
2C3
330
A
100
AcDbEntity
  8
1
  6
CONTINUOUS
370
    50
100
AcDbLine
 10
85.548047709
 20
188.8634789248
 30
0.0
 11
82.3720170077
 21
187.9519931257
 31
0.0
  0
LINE
  5
2C4
330
A
100
AcDbEntity
  8
1
  6
CONTINUOUS
370
    50
100
AcDbLine
 10
91.5568898807
 20
190.5879503873
 30
0.0
 11
85.548047709
 21
188.8634789248
 31
0.0
  0
LINE
  5
2C5
330
A
100
AcDbEntity
  8
1
  6
CONTINUOUS
370
    50
100
AcDbLine
 10
77.4064970982
 20
187.4021337626
 30
0.0
 11
84.6055767971
 21
185.3360772508
 31
0.0
  0
LINE
  5
2C6
330
A
100
AcDbEntity
  8
1
  6
CONTINUOUS
370
    50
100
AcDbLine
 10
85.8741994703
 20
188.925389627
 30
0.0
 11
77.4064970982
 21
191.3555268609
 31
0.0
  0
LINE
  5
2C7
330
A
100
AcDbEntity
  8
1
  6
CONTINUOUS
370
    50
100
AcDbLine
 10
90.9072416895
 20
189.9813652826
 30
0.0
 11
90.8342123873
 21
189.621055402
 31
0.0
  0
LINE
  5
2C8
330
A
100
AcDbEntity
  8
1
  6
CONTINUOUS
370
    50
100
AcDbLine
 10
91.5900372625
 20
186.9874180916
 30
0.0
 11
91.8430248683
 21
186.7206714697
 31
0.0
  0
LINE
  5
2C9
330
A
100
AcDbEntity
  8
1
  6
CONTINUOUS
370
    50
100
AcDbLine
 10
93.2364244869
 20
186.1802352616
 30
0.0
 11
94.9564970982
 21
186.6738771392
 31
0.0
  0
LINE
  5
2CA
330
A
100
AcDbEntity
  8
1
  6
CONTINUOUS
370
    50
100
AcDbLine
 10
94.9564970982
 20
192.0837834842
 30
0.0
 11
91.8019852528
 21
191.1784733596
 31
0.0
  0
LINE
  5
2CB
330
A
100
AcDbEntity
  8
1
  6
CONTINUOUS
370
    50
100
AcDbLine
 10
77.2064970982
 20
209.638984292
 30
0.0
 11
77.2064970982
 21
140.388984292
 31
0.0
  0
LINE
  5
2CC
330
A
100
AcDbEntity
  8
1
  6
CONTINUOUS
370
    50
100
AcDbLine
 10
76.4493873748
 20
209.6858303985
 30
0.0
 11
76.4493873748
 21
140.3421381856
 31
0.0
  0
LINE
  5
2CD
330
A
100
AcDbEntity
  8
1
  6
CONTINUOUS
370
    50
100
AcDbLine
 10
76.6606965057
 20
209.638984292
 30
0.0
 11
76.6606965057
 21
140.388984292
 31
0.0
  0
LINE
  5
2CE
330
A
100
AcDbEntity
  8
1
  6
CONTINUOUS
370
    50
100
AcDbLine
 10
-23.9113042062
 20
195.3774748201
 30
0.0
 11
-23.9113042062
 21
154.650493764
 31
0.0
  0
LINE
  5
2CF
330
A
100
AcDbEntity
  8
1
  6
CONTINUOUS
370
    50
100
AcDbLine
 10
23.2064970982
 20
187.013984292
 30
0.0
 11
-13.6182252269
 21
187.013984292
 31
0.0
  0
LINE
  5
2D0
330
A
100
AcDbEntity
  8
1
  6
CONTINUOUS
370
    50
100
AcDbLine
 10
-13.6182252269
 20
163.013984292
 30
0.0
 11
23.2064970982
 21
163.013984292
 31
0.0
  0
LINE
  5
2D1
330
A
100
AcDbEntity
  8
1
  6
CONTINUOUS
370
    50
100
AcDbLine
 10
23.2064970982
 20
187.013984292
 30
0.0
 11
23.2064970982
 21
186.8662443792
 31
0.0
  0
LINE
  5
2D2
330
A
100
AcDbEntity
  8
1
  6
CONTINUOUS
370
    50
100
AcDbLine
 10
23.2064970982
 20
186.8662443792
 30
0.0
 11
23.2064970982
 21
163.013984292
 31
0.0
  0
LINE
  5
2D3
330
A
100
AcDbEntity
  8
1
  6
CONTINUOUS
370
    50
100
AcDbLine
 10
81.4033820466
 20
185.9334738938
 30
0.0
 11
81.6443456929
 21
185.0993427529
 31
0.0
  0
LINE
  5
2D4
330
A
100
AcDbEntity
  8
1
  6
CONTINUOUS
370
    50
100
AcDbLine
 10
81.6443456929
 20
185.0993427529
 30
0.0
 11
82.0429484963
 21
184.365820138
 31
0.0
  0
LINE
  5
2D5
330
A
100
AcDbEntity
  8
1
  6
CONTINUOUS
370
    50
100
AcDbLine
 10
82.0429484963
 20
184.365820138
 30
0.0
 11
82.551113076
 21
183.8213797022
 31
0.0
  0
LINE
  5
2D6
330
A
100
AcDbEntity
  8
1
  6
CONTINUOUS
370
    50
100
AcDbLine
 10
82.551113076
 20
183.8213797022
 30
0.0
 11
83.1075472838
 21
183.5316889971
 31
0.0
  0
LINE
  5
2D7
330
A
100
AcDbEntity
  8
1
  6
CONTINUOUS
370
    50
100
AcDbLine
 10
83.1075472838
 20
183.5316889971
 30
0.0
 11
83.6451369423
 21
183.5316889971
 31
0.0
  0
LINE
  5
2D8
330
A
100
AcDbEntity
  8
1
  6
CONTINUOUS
370
    50
100
AcDbLine
 10
83.6451369423
 20
183.5316889971
 30
0.0
 11
84.0990408047
 21
183.8213797022
 31
0.0
  0
LINE
  5
2D9
330
A
100
AcDbEntity
  8
1
  6
CONTINUOUS
370
    50
100
AcDbLine
 10
84.0990408047
 20
183.8213797022
 30
0.0
 11
84.4145113662
 21
184.365820138
 31
0.0
  0
LINE
  5
2DA
330
A
100
AcDbEntity
  8
1
  6
CONTINUOUS
370
    50
100
AcDbLine
 10
84.4145113662
 20
184.365820138
 30
0.0
 11
84.5534982213
 21
185.0993427529
 31
0.0
  0
LINE
  5
2DB
330
A
100
AcDbEntity
  8
1
  6
CONTINUOUS
370
    50
100
AcDbLine
 10
84.5534982213
 20
185.0993427529
 30
0.0
 11
84.499237504
 21
185.9334738938
 31
0.0
  0
LINE
  5
2DC
330
A
100
AcDbEntity
  8
1
  6
CONTINUOUS
370
    50
100
AcDbLine
 10
84.499237504
 20
185.9334738938
 30
0.0
 11
84.2582738577
 21
186.7676050347
 31
0.0
  0
LINE
  5
2DD
330
A
100
AcDbEntity
  8
1
  6
CONTINUOUS
370
    50
100
AcDbLine
 10
84.2582738577
 20
186.7676050347
 30
0.0
 11
83.8596710543
 21
187.5011276496
 31
0.0
  0
LINE
  5
2DE
330
A
100
AcDbEntity
  8
1
  6
CONTINUOUS
370
    50
100
AcDbLine
 10
83.8596710543
 20
187.5011276496
 30
0.0
 11
83.3515064747
 21
188.0455680854
 31
0.0
  0
LINE
  5
2DF
330
A
100
AcDbEntity
  8
1
  6
CONTINUOUS
370
    50
100
AcDbLine
 10
83.3515064747
 20
188.0455680854
 30
0.0
 11
82.7950722668
 21
188.3352587905
 31
0.0
  0
LINE
  5
2E0
330
A
100
AcDbEntity
  8
1
  6
CONTINUOUS
370
    50
100
AcDbLine
 10
82.7950722668
 20
188.3352587905
 30
0.0
 11
82.2574826083
 21
188.3352587905
 31
0.0
  0
LINE
  5
2E1
330
A
100
AcDbEntity
  8
1
  6
CONTINUOUS
370
    50
100
AcDbLine
 10
82.2574826083
 20
188.3352587905
 30
0.0
 11
81.803578746
 21
188.0455680854
 31
0.0
  0
LINE
  5
2E2
330
A
100
AcDbEntity
  8
1
  6
CONTINUOUS
370
    50
100
AcDbLine
 10
81.803578746
 20
188.0455680854
 30
0.0
 11
81.4881081844
 21
187.5011276496
 31
0.0
  0
LINE
  5
2E3
330
A
100
AcDbEntity
  8
1
  6
CONTINUOUS
370
    50
100
AcDbLine
 10
81.4881081844
 20
187.5011276496
 30
0.0
 11
81.3491213293
 21
186.7676050347
 31
0.0
  0
LINE
  5
2E4
330
A
100
AcDbEntity
  8
1
  6
CONTINUOUS
370
    50
100
AcDbLine
 10
81.3491213293
 20
186.7676050347
 30
0.0
 11
81.4033820466
 21
185.9334738938
 31
0.0
  0
LINE
  5
2E5
330
A
100
AcDbEntity
  8
1
  6
CONTINUOUS
370
    50
100
AcDbLine
 10
90.8946726969
 20
188.6573696796
 30
0.0
 11
90.8404119796
 21
189.4915008205
 31
0.0
  0
LINE
  5
2E6
330
A
100
AcDbEntity
  8
1
  6
CONTINUOUS
370
    50
100
AcDbLine
 10
90.8404119796
 20
189.4915008205
 30
0.0
 11
90.9793988347
 21
190.2250234353
 31
0.0
  0
LINE
  5
2E7
330
A
100
AcDbEntity
  8
1
  6
CONTINUOUS
370
    50
100
AcDbLine
 10
90.9793988347
 20
190.2250234353
 30
0.0
 11
91.2948693962
 21
190.7694638711
 31
0.0
  0
LINE
  5
2E8
330
A
100
AcDbEntity
  8
1
  6
CONTINUOUS
370
    50
100
AcDbLine
 10
91.2948693962
 20
190.7694638711
 30
0.0
 11
91.7487732586
 21
191.0591545763
 31
0.0
  0
LINE
  5
2E9
330
A
100
AcDbEntity
  8
1
  6
CONTINUOUS
370
    50
100
AcDbLine
 10
91.7487732586
 20
191.0591545763
 30
0.0
 11
92.2863629171
 21
191.0591545763
 31
0.0
  0
LINE
  5
2EA
330
A
100
AcDbEntity
  8
1
  6
CONTINUOUS
370
    50
100
AcDbLine
 10
92.2863629171
 20
191.0591545763
 30
0.0
 11
92.8427971249
 21
190.7694638711
 31
0.0
  0
LINE
  5
2EB
330
A
100
AcDbEntity
  8
1
  6
CONTINUOUS
370
    50
100
AcDbLine
 10
92.8427971249
 20
190.7694638711
 30
0.0
 11
93.3509617045
 21
190.2250234353
 31
0.0
  0
LINE
  5
2EC
330
A
100
AcDbEntity
  8
1
  6
CONTINUOUS
370
    50
100
AcDbLine
 10
93.3509617045
 20
190.2250234353
 30
0.0
 11
93.7495645079
 21
189.4915008205
 31
0.0
  0
LINE
  5
2ED
330
A
100
AcDbEntity
  8
1
  6
CONTINUOUS
370
    50
100
AcDbLine
 10
93.7495645079
 20
189.4915008205
 30
0.0
 11
93.9905281543
 21
188.6573696796
 31
0.0
  0
LINE
  5
2EE
330
A
100
AcDbEntity
  8
1
  6
CONTINUOUS
370
    50
100
AcDbLine
 10
93.9905281543
 20
188.6573696796
 30
0.0
 11
94.0447888715
 21
187.8232385387
 31
0.0
  0
LINE
  5
2EF
330
A
100
AcDbEntity
  8
1
  6
CONTINUOUS
370
    50
100
AcDbLine
 10
94.0447888715
 20
187.8232385387
 30
0.0
 11
93.9058020164
 21
187.0897159238
 31
0.0
  0
LINE
  5
2F0
330
A
100
AcDbEntity
  8
1
  6
CONTINUOUS
370
    50
100
AcDbLine
 10
93.9058020164
 20
187.0897159238
 30
0.0
 11
93.5903314549
 21
186.545275488
 31
0.0
  0
LINE
  5
2F1
330
A
100
AcDbEntity
  8
1
  6
CONTINUOUS
370
    50
100
AcDbLine
 10
93.5903314549
 20
186.545275488
 30
0.0
 11
93.1364275926
 21
186.2555847829
 31
0.0
  0
LINE
  5
2F2
330
A
100
AcDbEntity
  8
1
  6
CONTINUOUS
370
    50
100
AcDbLine
 10
93.1364275926
 20
186.2555847829
 30
0.0
 11
92.5988379341
 21
186.2555847829
 31
0.0
  0
LINE
  5
2F3
330
A
100
AcDbEntity
  8
1
  6
CONTINUOUS
370
    50
100
AcDbLine
 10
92.5988379341
 20
186.2555847829
 30
0.0
 11
92.0424037262
 21
186.545275488
 31
0.0
  0
LINE
  5
2F4
330
A
100
AcDbEntity
  8
1
  6
CONTINUOUS
370
    50
100
AcDbLine
 10
92.0424037262
 20
186.545275488
 30
0.0
 11
91.5342391466
 21
187.0897159238
 31
0.0
  0
LINE
  5
2F5
330
A
100
AcDbEntity
  8
1
  6
CONTINUOUS
370
    50
100
AcDbLine
 10
91.5342391466
 20
187.0897159238
 30
0.0
 11
91.1356363432
 21
187.8232385387
 31
0.0
  0
LINE
  5
2F6
330
A
100
AcDbEntity
  8
1
  6
CONTINUOUS
370
    50
100
AcDbLine
 10
91.1356363432
 20
187.8232385387
 30
0.0
 11
90.8946726969
 21
188.6573696796
 31
0.0
  0
LINE
  5
2F7
330
A
100
AcDbEntity
  8
1
  6
CONTINUOUS
370
    50
100
AcDbLine
 10
84.499237504
 20
164.0944946903
 30
0.0
 11
84.2582738577
 21
163.2603635494
 31
0.0
  0
LINE
  5
2F8
330
A
100
AcDbEntity
  8
1
  6
CONTINUOUS
370
    50
100
AcDbLine
 10
84.2582738577
 20
163.2603635494
 30
0.0
 11
83.8596710543
 21
162.5268409345
 31
0.0
  0
LINE
  5
2F9
330
A
100
AcDbEntity
  8
1
  6
CONTINUOUS
370
    50
100
AcDbLine
 10
83.8596710543
 20
162.5268409345
 30
0.0
 11
83.3515064747
 21
161.9824004987
 31
0.0
  0
LINE
  5
2FA
330
A
100
AcDbEntity
  8
1
  6
CONTINUOUS
370
    50
100
AcDbLine
 10
83.3515064747
 20
161.9824004987
 30
0.0
 11
82.7950722668
 21
161.6927097936
 31
0.0
  0
LINE
  5
2FB
330
A
100
AcDbEntity
  8
1
  6
CONTINUOUS
370
    50
100
AcDbLine
 10
82.7950722668
 20
161.6927097936
 30
0.0
 11
82.2574826083
 21
161.6927097936
 31
0.0
  0
LINE
  5
2FC
330
A
100
AcDbEntity
  8
1
  6
CONTINUOUS
370
    50
100
AcDbLine
 10
82.2574826083
 20
161.6927097936
 30
0.0
 11
81.803578746
 21
161.9824004987
 31
0.0
  0
LINE
  5
2FD
330
A
100
AcDbEntity
  8
1
  6
CONTINUOUS
370
    50
100
AcDbLine
 10
81.803578746
 20
161.9824004987
 30
0.0
 11
81.4881081844
 21
162.5268409345
 31
0.0
  0
LINE
  5
2FE
330
A
100
AcDbEntity
  8
1
  6
CONTINUOUS
370
    50
100
AcDbLine
 10
81.4881081844
 20
162.5268409345
 30
0.0
 11
81.3491213293
 21
163.2603635494
 31
0.0
  0
LINE
  5
2FF
330
A
100
AcDbEntity
  8
1
  6
CONTINUOUS
370
    50
100
AcDbLine
 10
81.3491213293
 20
163.2603635494
 30
0.0
 11
81.4033820466
 21
164.0944946903
 31
0.0
  0
LINE
  5
300
330
A
100
AcDbEntity
  8
1
  6
CONTINUOUS
370
    50
100
AcDbLine
 10
81.4033820466
 20
164.0944946903
 30
0.0
 11
81.6443456929
 21
164.9286258312
 31
0.0
  0
LINE
  5
301
330
A
100
AcDbEntity
  8
1
  6
CONTINUOUS
370
    50
100
AcDbLine
 10
81.6443456929
 20
164.9286258312
 30
0.0
 11
82.0429484963
 21
165.662148446
 31
0.0
  0
LINE
  5
302
330
A
100
AcDbEntity
  8
1
  6
CONTINUOUS
370
    50
100
AcDbLine
 10
82.0429484963
 20
165.662148446
 30
0.0
 11
82.551113076
 21
166.2065888819
 31
0.0
  0
LINE
  5
303
330
A
100
AcDbEntity
  8
1
  6
CONTINUOUS
370
    50
100
AcDbLine
 10
82.551113076
 20
166.2065888819
 30
0.0
 11
83.1075472838
 21
166.496279587
 31
0.0
  0
LINE
  5
304
330
A
100
AcDbEntity
  8
1
  6
CONTINUOUS
370
    50
100
AcDbLine
 10
83.1075472838
 20
166.496279587
 30
0.0
 11
83.6451369423
 21
166.496279587
 31
0.0
  0
LINE
  5
305
330
A
100
AcDbEntity
  8
1
  6
CONTINUOUS
370
    50
100
AcDbLine
 10
83.6451369423
 20
166.496279587
 30
0.0
 11
84.0990408047
 21
166.2065888819
 31
0.0
  0
LINE
  5
306
330
A
100
AcDbEntity
  8
1
  6
CONTINUOUS
370
    50
100
AcDbLine
 10
84.0990408047
 20
166.2065888819
 30
0.0
 11
84.4145113662
 21
165.662148446
 31
0.0
  0
LINE
  5
307
330
A
100
AcDbEntity
  8
1
  6
CONTINUOUS
370
    50
100
AcDbLine
 10
84.4145113662
 20
165.662148446
 30
0.0
 11
84.5534982213
 21
164.9286258312
 31
0.0
  0
LINE
  5
308
330
A
100
AcDbEntity
  8
1
  6
CONTINUOUS
370
    50
100
AcDbLine
 10
84.5534982213
 20
164.9286258312
 30
0.0
 11
84.499237504
 21
164.0944946903
 31
0.0
  0
LINE
  5
309
330
A
100
AcDbEntity
  8
1
  6
CONTINUOUS
370
    50
100
AcDbLine
 10
93.9905281543
 20
161.3705989045
 30
0.0
 11
94.0447888715
 21
162.2047300454
 31
0.0
  0
LINE
  5
30A
330
A
100
AcDbEntity
  8
1
  6
CONTINUOUS
370
    50
100
AcDbLine
 10
94.0447888715
 20
162.2047300454
 30
0.0
 11
93.9058020164
 21
162.9382526603
 31
0.0
  0
LINE
  5
30B
330
A
100
AcDbEntity
  8
1
  6
CONTINUOUS
370
    50
100
AcDbLine
 10
93.9058020164
 20
162.9382526603
 30
0.0
 11
93.5903314549
 21
163.4826930961
 31
0.0
  0
LINE
  5
30C
330
A
100
AcDbEntity
  8
1
  6
CONTINUOUS
370
    50
100
AcDbLine
 10
93.5903314549
 20
163.4826930961
 30
0.0
 11
93.1364275926
 21
163.7723838012
 31
0.0
  0
LINE
  5
30D
330
A
100
AcDbEntity
  8
1
  6
CONTINUOUS
370
    50
100
AcDbLine
 10
93.1364275926
 20
163.7723838012
 30
0.0
 11
92.5988379341
 21
163.7723838012
 31
0.0
  0
LINE
  5
30E
330
A
100
AcDbEntity
  8
1
  6
CONTINUOUS
370
    50
100
AcDbLine
 10
92.5988379341
 20
163.7723838012
 30
0.0
 11
92.0424037262
 21
163.4826930961
 31
0.0
  0
LINE
  5
30F
330
A
100
AcDbEntity
  8
1
  6
CONTINUOUS
370
    50
100
AcDbLine
 10
92.0424037262
 20
163.4826930961
 30
0.0
 11
91.5342391466
 21
162.9382526603
 31
0.0
  0
LINE
  5
310
330
A
100
AcDbEntity
  8
1
  6
CONTINUOUS
370
    50
100
AcDbLine
 10
91.5342391466
 20
162.9382526603
 30
0.0
 11
91.1356363432
 21
162.2047300454
 31
0.0
  0
LINE
  5
311
330
A
100
AcDbEntity
  8
1
  6
CONTINUOUS
370
    50
100
AcDbLine
 10
91.1356363432
 20
162.2047300454
 30
0.0
 11
90.8946726969
 21
161.3705989045
 31
0.0
  0
LINE
  5
312
330
A
100
AcDbEntity
  8
1
  6
CONTINUOUS
370
    50
100
AcDbLine
 10
90.8946726969
 20
161.3705989045
 30
0.0
 11
90.8404119796
 21
160.5364677636
 31
0.0
  0
LINE
  5
313
330
A
100
AcDbEntity
  8
1
  6
CONTINUOUS
370
    50
100
AcDbLine
 10
90.8404119796
 20
160.5364677636
 30
0.0
 11
90.9793988347
 21
159.8029451487
 31
0.0
  0
LINE
  5
314
330
A
100
AcDbEntity
  8
1
  6
CONTINUOUS
370
    50
100
AcDbLine
 10
90.9793988347
 20
159.8029451487
 30
0.0
 11
91.2948693962
 21
159.2585047129
 31
0.0
  0
LINE
  5
315
330
A
100
AcDbEntity
  8
1
  6
CONTINUOUS
370
    50
100
AcDbLine
 10
91.2948693962
 20
159.2585047129
 30
0.0
 11
91.7487732586
 21
158.9688140078
 31
0.0
  0
LINE
  5
316
330
A
100
AcDbEntity
  8
1
  6
CONTINUOUS
370
    50
100
AcDbLine
 10
91.7487732586
 20
158.9688140078
 30
0.0
 11
92.2863629171
 21
158.9688140078
 31
0.0
  0
LINE
  5
317
330
A
100
AcDbEntity
  8
1
  6
CONTINUOUS
370
    50
100
AcDbLine
 10
92.2863629171
 20
158.9688140078
 30
0.0
 11
92.8427971249
 21
159.2585047129
 31
0.0
  0
LINE
  5
318
330
A
100
AcDbEntity
  8
1
  6
CONTINUOUS
370
    50
100
AcDbLine
 10
92.8427971249
 20
159.2585047129
 30
0.0
 11
93.3509617045
 21
159.8029451487
 31
0.0
  0
LINE
  5
319
330
A
100
AcDbEntity
  8
1
  6
CONTINUOUS
370
    50
100
AcDbLine
 10
93.3509617045
 20
159.8029451487
 30
0.0
 11
93.7495645079
 21
160.5364677636
 31
0.0
  0
LINE
  5
31A
330
A
100
AcDbEntity
  8
1
  6
CONTINUOUS
370
    50
100
AcDbLine
 10
93.7495645079
 20
160.5364677636
 30
0.0
 11
93.9905281543
 21
161.3705989045
 31
0.0
  0
LINE
  5
31B
330
A
100
AcDbEntity
  8
1
  6
CONTINUOUS
370
    50
100
AcDbLine
 10
84.4915770596
 20
164.0966931534
 30
0.0
 11
84.2506134133
 21
163.2625620125
 31
0.0
  0
LINE
  5
31C
330
A
100
AcDbEntity
  8
1
  6
CONTINUOUS
370
    50
100
AcDbLine
 10
84.2506134133
 20
163.2625620125
 30
0.0
 11
83.8520106099
 21
162.5290393976
 31
0.0
  0
LINE
  5
31D
330
A
100
AcDbEntity
  8
1
  6
CONTINUOUS
370
    50
100
AcDbLine
 10
83.8520106099
 20
162.5290393976
 30
0.0
 11
83.3438460302
 21
161.9845989618
 31
0.0
  0
LINE
  5
31E
330
A
100
AcDbEntity
  8
1
  6
CONTINUOUS
370
    50
100
AcDbLine
 10
83.3438460302
 20
161.9845989618
 30
0.0
 11
82.7874118224
 21
161.6949082567
 31
0.0
  0
LINE
  5
31F
330
A
100
AcDbEntity
  8
1
  6
CONTINUOUS
370
    50
100
AcDbLine
 10
82.7874118224
 20
161.6949082567
 30
0.0
 11
82.2498221639
 21
161.6949082567
 31
0.0
  0
LINE
  5
320
330
A
100
AcDbEntity
  8
1
  6
CONTINUOUS
370
    50
100
AcDbLine
 10
82.2498221639
 20
161.6949082567
 30
0.0
 11
81.7959183015
 21
161.9845989618
 31
0.0
  0
LINE
  5
321
330
A
100
AcDbEntity
  8
1
  6
CONTINUOUS
370
    50
100
AcDbLine
 10
81.7959183015
 20
161.9845989618
 30
0.0
 11
81.48044774
 21
162.5290393976
 31
0.0
  0
LINE
  5
322
330
A
100
AcDbEntity
  8
1
  6
CONTINUOUS
370
    50
100
AcDbLine
 10
81.48044774
 20
162.5290393976
 30
0.0
 11
81.3414608849
 21
163.2625620125
 31
0.0
  0
LINE
  5
323
330
A
100
AcDbEntity
  8
1
  6
CONTINUOUS
370
    50
100
AcDbLine
 10
81.3414608849
 20
163.2625620125
 30
0.0
 11
81.3957216022
 21
164.0966931534
 31
0.0
  0
LINE
  5
324
330
A
100
AcDbEntity
  8
1
  6
CONTINUOUS
370
    50
100
AcDbLine
 10
81.3957216022
 20
164.0966931534
 30
0.0
 11
81.6366852485
 21
164.9308242943
 31
0.0
  0
LINE
  5
325
330
A
100
AcDbEntity
  8
1
  6
CONTINUOUS
370
    50
100
AcDbLine
 10
81.6366852485
 20
164.9308242943
 30
0.0
 11
82.0352880519
 21
165.6643469092
 31
0.0
  0
LINE
  5
326
330
A
100
AcDbEntity
  8
1
  6
CONTINUOUS
370
    50
100
AcDbLine
 10
82.0352880519
 20
165.6643469092
 30
0.0
 11
82.5434526315
 21
166.208787345
 31
0.0
  0
LINE
  5
327
330
A
100
AcDbEntity
  8
1
  6
CONTINUOUS
370
    50
100
AcDbLine
 10
82.5434526315
 20
166.208787345
 30
0.0
 11
83.0998868394
 21
166.4984780501
 31
0.0
  0
LINE
  5
328
330
A
100
AcDbEntity
  8
1
  6
CONTINUOUS
370
    50
100
AcDbLine
 10
83.0998868394
 20
166.4984780501
 30
0.0
 11
83.6374764979
 21
166.4984780501
 31
0.0
  0
LINE
  5
329
330
A
100
AcDbEntity
  8
1
  6
CONTINUOUS
370
    50
100
AcDbLine
 10
83.6374764979
 20
166.4984780501
 30
0.0
 11
84.0913803602
 21
166.208787345
 31
0.0
  0
LINE
  5
32A
330
A
100
AcDbEntity
  8
1
  6
CONTINUOUS
370
    50
100
AcDbLine
 10
84.0913803602
 20
166.208787345
 30
0.0
 11
84.4068509218
 21
165.6643469092
 31
0.0
  0
LINE
  5
32B
330
A
100
AcDbEntity
  8
1
  6
CONTINUOUS
370
    50
100
AcDbLine
 10
84.4068509218
 20
165.6643469092
 30
0.0
 11
84.5458377769
 21
164.9308242943
 31
0.0
  0
LINE
  5
32C
330
A
100
AcDbEntity
  8
1
  6
CONTINUOUS
370
    50
100
AcDbLine
 10
84.5458377769
 20
164.9308242943
 30
0.0
 11
84.4915770596
 21
164.0966931534
 31
0.0
  0
LINE
  5
32D
330
A
100
AcDbEntity
  8
1
  6
CONTINUOUS
370
    50
100
AcDbLine
 10
93.9905281543
 20
161.3705989045
 30
0.0
 11
94.0447888715
 21
162.2047300454
 31
0.0
  0
LINE
  5
32E
330
A
100
AcDbEntity
  8
1
  6
CONTINUOUS
370
    50
100
AcDbLine
 10
94.0447888715
 20
162.2047300454
 30
0.0
 11
93.9058020164
 21
162.9382526603
 31
0.0
  0
LINE
  5
32F
330
A
100
AcDbEntity
  8
1
  6
CONTINUOUS
370
    50
100
AcDbLine
 10
93.9058020164
 20
162.9382526603
 30
0.0
 11
93.5903314549
 21
163.4826930961
 31
0.0
  0
LINE
  5
330
330
A
100
AcDbEntity
  8
1
  6
CONTINUOUS
370
    50
100
AcDbLine
 10
93.5903314549
 20
163.4826930961
 30
0.0
 11
93.1364275926
 21
163.7723838012
 31
0.0
  0
LINE
  5
331
330
A
100
AcDbEntity
  8
1
  6
CONTINUOUS
370
    50
100
AcDbLine
 10
93.1364275926
 20
163.7723838012
 30
0.0
 11
92.5988379341
 21
163.7723838012
 31
0.0
  0
LINE
  5
332
330
A
100
AcDbEntity
  8
1
  6
CONTINUOUS
370
    50
100
AcDbLine
 10
92.5988379341
 20
163.7723838012
 30
0.0
 11
92.0424037262
 21
163.4826930961
 31
0.0
  0
LINE
  5
333
330
A
100
AcDbEntity
  8
1
  6
CONTINUOUS
370
    50
100
AcDbLine
 10
92.0424037262
 20
163.4826930961
 30
0.0
 11
91.5342391466
 21
162.9382526603
 31
0.0
  0
LINE
  5
334
330
A
100
AcDbEntity
  8
1
  6
CONTINUOUS
370
    50
100
AcDbLine
 10
91.5342391466
 20
162.9382526603
 30
0.0
 11
91.1356363432
 21
162.2047300454
 31
0.0
  0
LINE
  5
335
330
A
100
AcDbEntity
  8
1
  6
CONTINUOUS
370
    50
100
AcDbLine
 10
91.1356363432
 20
162.2047300454
 30
0.0
 11
90.8946726969
 21
161.3705989045
 31
0.0
  0
LINE
  5
336
330
A
100
AcDbEntity
  8
1
  6
CONTINUOUS
370
    50
100
AcDbLine
 10
90.8946726969
 20
161.3705989045
 30
0.0
 11
90.8404119796
 21
160.5364677636
 31
0.0
  0
LINE
  5
337
330
A
100
AcDbEntity
  8
1
  6
CONTINUOUS
370
    50
100
AcDbLine
 10
90.8404119796
 20
160.5364677636
 30
0.0
 11
90.9793988347
 21
159.8029451487
 31
0.0
  0
LINE
  5
338
330
A
100
AcDbEntity
  8
1
  6
CONTINUOUS
370
    50
100
AcDbLine
 10
90.9793988347
 20
159.8029451487
 30
0.0
 11
91.2948693962
 21
159.2585047129
 31
0.0
  0
LINE
  5
339
330
A
100
AcDbEntity
  8
1
  6
CONTINUOUS
370
    50
100
AcDbLine
 10
91.2948693962
 20
159.2585047129
 30
0.0
 11
91.7487732586
 21
158.9688140078
 31
0.0
  0
LINE
  5
33A
330
A
100
AcDbEntity
  8
1
  6
CONTINUOUS
370
    50
100
AcDbLine
 10
91.7487732586
 20
158.9688140078
 30
0.0
 11
92.2863629171
 21
158.9688140078
 31
0.0
  0
LINE
  5
33B
330
A
100
AcDbEntity
  8
1
  6
CONTINUOUS
370
    50
100
AcDbLine
 10
92.2863629171
 20
158.9688140078
 30
0.0
 11
92.8427971249
 21
159.2585047129
 31
0.0
  0
LINE
  5
33C
330
A
100
AcDbEntity
  8
1
  6
CONTINUOUS
370
    50
100
AcDbLine
 10
92.8427971249
 20
159.2585047129
 30
0.0
 11
93.3509617045
 21
159.8029451487
 31
0.0
  0
LINE
  5
33D
330
A
100
AcDbEntity
  8
1
  6
CONTINUOUS
370
    50
100
AcDbLine
 10
93.3509617045
 20
159.8029451487
 30
0.0
 11
93.7495645079
 21
160.5364677636
 31
0.0
  0
LINE
  5
33E
330
A
100
AcDbEntity
  8
1
  6
CONTINUOUS
370
    50
100
AcDbLine
 10
93.7495645079
 20
160.5364677636
 30
0.0
 11
93.9905281543
 21
161.3705989045
 31
0.0
  0
LINE
  5
33F
330
A
100
AcDbEntity
  8
1
  6
CONTINUOUS
370
    50
100
AcDbLine
 10
84.499237504
 20
164.0944946903
 30
0.0
 11
84.2582738577
 21
163.2603635494
 31
0.0
  0
LINE
  5
340
330
A
100
AcDbEntity
  8
1
  6
CONTINUOUS
370
    50
100
AcDbLine
 10
84.2582738577
 20
163.2603635494
 30
0.0
 11
83.8596710543
 21
162.5268409345
 31
0.0
  0
LINE
  5
341
330
A
100
AcDbEntity
  8
1
  6
CONTINUOUS
370
    50
100
AcDbLine
 10
83.8596710543
 20
162.5268409345
 30
0.0
 11
83.3515064747
 21
161.9824004987
 31
0.0
  0
LINE
  5
342
330
A
100
AcDbEntity
  8
1
  6
CONTINUOUS
370
    50
100
AcDbLine
 10
83.3515064747
 20
161.9824004987
 30
0.0
 11
82.7950722668
 21
161.6927097936
 31
0.0
  0
LINE
  5
343
330
A
100
AcDbEntity
  8
1
  6
CONTINUOUS
370
    50
100
AcDbLine
 10
82.7950722668
 20
161.6927097936
 30
0.0
 11
82.2574826083
 21
161.6927097936
 31
0.0
  0
LINE
  5
344
330
A
100
AcDbEntity
  8
1
  6
CONTINUOUS
370
    50
100
AcDbLine
 10
82.2574826083
 20
161.6927097936
 30
0.0
 11
81.803578746
 21
161.9824004987
 31
0.0
  0
LINE
  5
345
330
A
100
AcDbEntity
  8
1
  6
CONTINUOUS
370
    50
100
AcDbLine
 10
81.803578746
 20
161.9824004987
 30
0.0
 11
81.4881081844
 21
162.5268409345
 31
0.0
  0
LINE
  5
346
330
A
100
AcDbEntity
  8
1
  6
CONTINUOUS
370
    50
100
AcDbLine
 10
81.4881081844
 20
162.5268409345
 30
0.0
 11
81.3491213293
 21
163.2603635494
 31
0.0
  0
LINE
  5
347
330
A
100
AcDbEntity
  8
1
  6
CONTINUOUS
370
    50
100
AcDbLine
 10
81.3491213293
 20
163.2603635494
 30
0.0
 11
81.4033820466
 21
164.0944946903
 31
0.0
  0
LINE
  5
348
330
A
100
AcDbEntity
  8
1
  6
CONTINUOUS
370
    50
100
AcDbLine
 10
81.4033820466
 20
164.0944946903
 30
0.0
 11
81.6443456929
 21
164.9286258312
 31
0.0
  0
LINE
  5
349
330
A
100
AcDbEntity
  8
1
  6
CONTINUOUS
370
    50
100
AcDbLine
 10
81.6443456929
 20
164.9286258312
 30
0.0
 11
82.0429484963
 21
165.662148446
 31
0.0
  0
LINE
  5
34A
330
A
100
AcDbEntity
  8
1
  6
CONTINUOUS
370
    50
100
AcDbLine
 10
82.0429484963
 20
165.662148446
 30
0.0
 11
82.551113076
 21
166.2065888819
 31
0.0
  0
LINE
  5
34B
330
A
100
AcDbEntity
  8
1
  6
CONTINUOUS
370
    50
100
AcDbLine
 10
82.551113076
 20
166.2065888819
 30
0.0
 11
83.1075472838
 21
166.496279587
 31
0.0
  0
LINE
  5
34C
330
A
100
AcDbEntity
  8
1
  6
CONTINUOUS
370
    50
100
AcDbLine
 10
83.1075472838
 20
166.496279587
 30
0.0
 11
83.6451369423
 21
166.496279587
 31
0.0
  0
LINE
  5
34D
330
A
100
AcDbEntity
  8
1
  6
CONTINUOUS
370
    50
100
AcDbLine
 10
83.6451369423
 20
166.496279587
 30
0.0
 11
84.0990408047
 21
166.2065888819
 31
0.0
  0
LINE
  5
34E
330
A
100
AcDbEntity
  8
1
  6
CONTINUOUS
370
    50
100
AcDbLine
 10
84.0990408047
 20
166.2065888819
 30
0.0
 11
84.4145113662
 21
165.662148446
 31
0.0
  0
LINE
  5
34F
330
A
100
AcDbEntity
  8
1
  6
CONTINUOUS
370
    50
100
AcDbLine
 10
84.4145113662
 20
165.662148446
 30
0.0
 11
84.5534982213
 21
164.9286258312
 31
0.0
  0
LINE
  5
350
330
A
100
AcDbEntity
  8
1
  6
CONTINUOUS
370
    50
100
AcDbLine
 10
84.5534982213
 20
164.9286258312
 30
0.0
 11
84.499237504
 21
164.0944946903
 31
0.0
  0
LINE
  5
351
330
A
100
AcDbEntity
  8
1
  6
CONTINUOUS
370
    50
100
AcDbLine
 10
188.902522502
 20
180.013984292
 30
0.0
 11
165.172522502
 21
180.013984292
 31
0.0
  0
LINE
  5
352
330
A
100
AcDbEntity
  8
1
  6
CONTINUOUS
370
    50
100
AcDbLine
 10
165.172522502
 20
170.013984292
 30
0.0
 11
188.902522502
 21
170.013984292
 31
0.0
  0
LINE
  5
353
330
A
100
AcDbEntity
  8
1
  6
CONTINUOUS
370
    50
100
AcDbLine
 10
188.902522502
 20
180.013984292
 30
0.0
 11
188.902522502
 21
179.9254205457
 31
0.0
  0
LINE
  5
354
330
A
100
AcDbEntity
  8
1
  6
CONTINUOUS
370
    50
100
AcDbLine
 10
188.902522502
 20
179.9254205457
 30
0.0
 11
188.902522502
 21
170.013984292
 31
0.0
  0
ENDSEC
  0
SECTION
  2
OBJECTS
  0
DICTIONARY
  5
19
330
0
100
AcDbDictionary
281
     1
  3
ACAD_GROUP
350
1A
  3
ACAD_LAYOUT
350
379
  3
ACAD_MATERIAL
350
38D
  3
ACAD_MLEADERSTYLE
350
395
  3
ACAD_MLINESTYLE
350
1B
  3
ACAD_SCALELIST
350
357
  3
ACAD_VISUALSTYLE
350
37C
  3
ACDB_RECOMPOSE_DATA
350
3C2
  3
AcDbVariableDictionary
350
393
  0
DICTIONARY
  5
399
330
7
100
AcDbDictionary
280
     1
281
     1
  3
ACAD_XREC_ROUNDTRIP
360
39A
  0
DICTIONARY
  5
1A
102
{ACAD_REACTORS
330
19
102
}
330
19
100
AcDbDictionary
281
     1
  0
DICTIONARY
  5
379
102
{ACAD_REACTORS
330
19
102
}
330
19
100
AcDbDictionary
281
     1
  3
Layout1
350
37B
  3
Model
350
37A
  0
DICTIONARY
  5
38D
102
{ACAD_REACTORS
330
19
102
}
330
19
100
AcDbDictionary
281
     1
  3
ByBlock
350
38F
  3
ByLayer
350
38E
  3
Global
350
390
  0
DICTIONARY
  5
395
102
{ACAD_REACTORS
330
19
102
}
330
19
100
AcDbDictionary
281
     1
  0
DICTIONARY
  5
1B
102
{ACAD_REACTORS
330
19
102
}
330
19
100
AcDbDictionary
281
     1
  3
STANDARD
350
1C
  0
DICTIONARY
  5
357
102
{ACAD_REACTORS
330
19
102
}
330
19
100
AcDbDictionary
281
     1
  3
A0
350
358
  3
A1
350
359
  3
A2
350
35A
  3
A3
350
35B
  3
A4
350
35C
  3
A5
350
35D
  3
A6
350
35E
  3
A7
350
35F
  3
A8
350
360
  3
A9
350
361
  3
B0
350
362
  3
B1
350
363
  3
B2
350
364
  3
B3
350
365
  3
B4
350
366
  3
B5
350
367
  3
B6
350
368
  3
B7
350
369
  3
B8
350
36A
  3
B9
350
36B
  3
C0
350
36C
  3
C1
350
36D
  3
C2
350
36E
  3
C3
350
36F
  3
C4
350
370
  3
C5
350
371
  3
C6
350
372
  3
C7
350
373
  3
C8
350
374
  3
C9
350
375
  3
D0
350
376
  3
D1
350
377
  3
D2
350
378
  0
DICTIONARY
  5
37C
102
{ACAD_REACTORS
330
19
102
}
330
19
100
AcDbDictionary
281
     1
  3
2dWireframe
350
381
  3
3D Hidden
350
383
  3
3dWireframe
350
382
  3
Basic
350
384
  3
Brighten
350
388
  3
ColorChange
350
38C
  3
Conceptual
350
386
  3
Dim
350
387
  3
Facepattern
350
38B
  3
Flat
350
37D
  3
FlatWithEdges
350
37E
  3
Gouraud
350
37F
  3
GouraudWithEdges
350
380
  3
Linepattern
350
38A
  3
Realistic
350
385
  3
Thicken
350
389
  0
XRECORD
  5
3C2
102
{ACAD_REACTORS
330
19
102
}
330
19
100
AcDbXrecord
280
     1
  0
DICTIONARY
  5
393
102
{ACAD_REACTORS
330
19
102
}
330
19
100
AcDbDictionary
281
     1
  3
CANNOSCALE
350
39B
  3
DIMASSOC
350
397
  3
HIDETEXT
350
398
  3
MSLTSCALE
350
396
  0
XRECORD
  5
39A
102
{ACAD_REACTORS
330
399
102
}
330
399
100
AcDbXrecord
280
     1
102
VTR_0.000_0.000_1.000_1.000_VISUALSTYLE
340
381
102
VTR_0.000_0.000_1.000_1.000_GRIDDISPLAY
 70
     3
102
VTR_0.000_0.000_1.000_1.000_GRIDMAJOR
 70
     5
102
VTR_0.000_0.000_1.000_1.000_DEFAULTLIGHTING
280
     1
102
VTR_0.000_0.000_1.000_1.000_DEFAULTLIGHTINGTYPE
 70
     1
102
VTR_0.000_0.000_1.000_1.000_BRIGHTNESS
141
0.0
102
VTR_0.000_0.000_1.000_1.000_CONTRAST
142
0.0
  0
LAYOUT
  5
37B
102
{ACAD_REACTORS
330
379
102
}
330
379
100
AcDbPlotSettings
  1

  2
none_device
  4

  6

 40
0.0
 41
0.0
 42
0.0
 43
0.0
 44
0.0
 45
0.0
 46
0.0
 47
0.0
 48
0.0
 49
0.0
140
0.0
141
0.0
142
1.0
143
1.0
 70
   688
 72
     0
 73
     0
 74
     5
  7

 75
    16
147
1.0
148
0.0
149
0.0
100
AcDbLayout
  1
Layout1
 70
     1
 71
     1
 10
0.0
 20
0.0
 11
12.0
 21
9.0
 12
0.0
 22
0.0
 32
0.0
 14
1.000000000000000E+20
 24
1.000000000000000E+20
 34
1.000000000000000E+20
 15
-1.000000000000000E+20
 25
-1.000000000000000E+20
 35
-1.000000000000000E+20
146
0.0
 13
0.0
 23
0.0
 33
0.0
 16
1.0
 26
0.0
 36
0.0
 17
0.0
 27
1.0
 37
0.0
 76
     0
330
B
  0
LAYOUT
  5
37A
102
{ACAD_REACTORS
330
379
102
}
330
379
100
AcDbPlotSettings
  1

  2
none_device
  4

  6

 40
0.0
 41
0.0
 42
0.0
 43
0.0
 44
0.0
 45
0.0
 46
0.0
 47
0.0
 48
0.0
 49
0.0
140
0.0
141
0.0
142
1.0
143
1.0
 70
  1712
 72
     0
 73
     0
 74
     0
  7

 75
     0
147
1.0
148
2667.54428576817
149
0.0
100
AcDbLayout
  1
Model
 70
     1
 71
     0
 10
0.0
 20
0.0
 11
0.0
 21
0.0
 12
0.0
 22
0.0
 32
0.0
 14
0.0
 24
0.0
 34
0.0
 15
210.0
 25
297.0
 35
0.0
146
0.0
 13
0.0
 23
0.0
 33
0.0
 16
1.0
 26
0.0
 36
0.0
 17
0.0
 27
1.0
 37
0.0
 76
     0
330
A
331
15
  0
MATERIAL
  5
38F
102
{ACAD_REACTORS
330
38D
102
}
102
{ACAD_XDICTIONARY
360
3BE
102
}
330
38D
100
AcDbMaterial
  1
ByBlock
  0
MATERIAL
  5
38E
102
{ACAD_REACTORS
330
38D
102
}
102
{ACAD_XDICTIONARY
360
3BC
102
}
330
38D
100
AcDbMaterial
  1
ByLayer
  0
MATERIAL
  5
390
102
{ACAD_REACTORS
330
38D
102
}
102
{ACAD_XDICTIONARY
360
3C0
102
}
330
38D
100
AcDbMaterial
  1
Global
  0
MLINESTYLE
  5
1C
102
{ACAD_REACTORS
330
1B
102
}
330
1B
100
AcDbMlineStyle
  2
STANDARD
 70
     0
  3

 62
     0
 51
90.0
 52
90.0
 71
     2
 49
0.5
 62
   256
  6
BYLAYER
 49
-0.5
 62
   256
  6
BYLAYER
  0
SCALE
  5
358
102
{ACAD_REACTORS
330
357
102
}
330
357
100
AcDbScale
 70
     0
300
1:1
140
1.0
141
1.0
290
     1
  0
SCALE
  5
359
102
{ACAD_REACTORS
330
357
102
}
330
357
100
AcDbScale
 70
     0
300
1:2
140
1.0
141
2.0
290
     0
  0
SCALE
  5
35A
102
{ACAD_REACTORS
330
357
102
}
330
357
100
AcDbScale
 70
     0
300
1:4
140
1.0
141
4.0
290
     0
  0
SCALE
  5
35B
102
{ACAD_REACTORS
330
357
102
}
330
357
100
AcDbScale
 70
     0
300
1:5
140
1.0
141
5.0
290
     0
  0
SCALE
  5
35C
102
{ACAD_REACTORS
330
357
102
}
330
357
100
AcDbScale
 70
     0
300
1:8
140
1.0
141
8.0
290
     0
  0
SCALE
  5
35D
102
{ACAD_REACTORS
330
357
102
}
330
357
100
AcDbScale
 70
     0
300
1:10
140
1.0
141
10.0
290
     0
  0
SCALE
  5
35E
102
{ACAD_REACTORS
330
357
102
}
330
357
100
AcDbScale
 70
     0
300
1:16
140
1.0
141
16.0
290
     0
  0
SCALE
  5
35F
102
{ACAD_REACTORS
330
357
102
}
330
357
100
AcDbScale
 70
     0
300
1:20
140
1.0
141
20.0
290
     0
  0
SCALE
  5
360
102
{ACAD_REACTORS
330
357
102
}
330
357
100
AcDbScale
 70
     0
300
1:30
140
1.0
141
30.0
290
     0
  0
SCALE
  5
361
102
{ACAD_REACTORS
330
357
102
}
330
357
100
AcDbScale
 70
     0
300
1:40
140
1.0
141
40.0
290
     0
  0
SCALE
  5
362
102
{ACAD_REACTORS
330
357
102
}
330
357
100
AcDbScale
 70
     0
300
1:50
140
1.0
141
50.0
290
     0
  0
SCALE
  5
363
102
{ACAD_REACTORS
330
357
102
}
330
357
100
AcDbScale
 70
     0
300
1:100
140
1.0
141
100.0
290
     0
  0
SCALE
  5
364
102
{ACAD_REACTORS
330
357
102
}
330
357
100
AcDbScale
 70
     0
300
2:1
140
2.0
141
1.0
290
     0
  0
SCALE
  5
365
102
{ACAD_REACTORS
330
357
102
}
330
357
100
AcDbScale
 70
     0
300
4:1
140
4.0
141
1.0
290
     0
  0
SCALE
  5
366
102
{ACAD_REACTORS
330
357
102
}
330
357
100
AcDbScale
 70
     0
300
8:1
140
8.0
141
1.0
290
     0
  0
SCALE
  5
367
102
{ACAD_REACTORS
330
357
102
}
330
357
100
AcDbScale
 70
     0
300
10:1
140
10.0
141
1.0
290
     0
  0
SCALE
  5
368
102
{ACAD_REACTORS
330
357
102
}
330
357
100
AcDbScale
 70
     0
300
100:1
140
100.0
141
1.0
290
     0
  0
SCALE
  5
369
102
{ACAD_REACTORS
330
357
102
}
330
357
100
AcDbScale
 70
     0
300
1/128" = 1'-0"
140
0.0078125
141
12.0
290
     0
  0
SCALE
  5
36A
102
{ACAD_REACTORS
330
357
102
}
330
357
100
AcDbScale
 70
     0
300
1/64" = 1'-0"
140
0.015625
141
12.0
290
     0
  0
SCALE
  5
36B
102
{ACAD_REACTORS
330
357
102
}
330
357
100
AcDbScale
 70
     0
300
1/32" = 1'-0"
140
0.03125
141
12.0
290
     0
  0
SCALE
  5
36C
102
{ACAD_REACTORS
330
357
102
}
330
357
100
AcDbScale
 70
     0
300
1/16" = 1'-0"
140
0.0625
141
12.0
290
     0
  0
SCALE
  5
36D
102
{ACAD_REACTORS
330
357
102
}
330
357
100
AcDbScale
 70
     0
300
3/32" = 1'-0"
140
0.09375
141
12.0
290
     0
  0
SCALE
  5
36E
102
{ACAD_REACTORS
330
357
102
}
330
357
100
AcDbScale
 70
     0
300
1/8" = 1'-0"
140
0.125
141
12.0
290
     0
  0
SCALE
  5
36F
102
{ACAD_REACTORS
330
357
102
}
330
357
100
AcDbScale
 70
     0
300
3/16" = 1'-0"
140
0.1875
141
12.0
290
     0
  0
SCALE
  5
370
102
{ACAD_REACTORS
330
357
102
}
330
357
100
AcDbScale
 70
     0
300
1/4" = 1'-0"
140
0.25
141
12.0
290
     0
  0
SCALE
  5
371
102
{ACAD_REACTORS
330
357
102
}
330
357
100
AcDbScale
 70
     0
300
3/8" = 1'-0"
140
0.375
141
12.0
290
     0
  0
SCALE
  5
372
102
{ACAD_REACTORS
330
357
102
}
330
357
100
AcDbScale
 70
     0
300
1/2" = 1'-0"
140
0.5
141
12.0
290
     0
  0
SCALE
  5
373
102
{ACAD_REACTORS
330
357
102
}
330
357
100
AcDbScale
 70
     0
300
3/4" = 1'-0"
140
0.75
141
12.0
290
     0
  0
SCALE
  5
374
102
{ACAD_REACTORS
330
357
102
}
330
357
100
AcDbScale
 70
     0
300
1" = 1'-0"
140
1.0
141
12.0
290
     0
  0
SCALE
  5
375
102
{ACAD_REACTORS
330
357
102
}
330
357
100
AcDbScale
 70
     0
300
1-1/2" = 1'-0"
140
1.5
141
12.0
290
     0
  0
SCALE
  5
376
102
{ACAD_REACTORS
330
357
102
}
330
357
100
AcDbScale
 70
     0
300
3" = 1'-0"
140
3.0
141
12.0
290
     0
  0
SCALE
  5
377
102
{ACAD_REACTORS
330
357
102
}
330
357
100
AcDbScale
 70
     0
300
6" = 1'-0"
140
6.0
141
12.0
290
     0
  0
SCALE
  5
378
102
{ACAD_REACTORS
330
357
102
}
330
357
100
AcDbScale
 70
     0
300
1'-0" = 1'-0"
140
12.0
141
12.0
290
     0
  0
VISUALSTYLE
  5
381
102
{ACAD_REACTORS
330
37C
102
}
102
{ACAD_XDICTIONARY
360
3A4
102
}
330
37C
100
AcDbVisualStyle
  2
2dWireframe
 70
     4
 71
     0
 72
     2
 73
     0
 90
        0
 40
-0.6
 41
-30.0
 62
     5
 63
     7
 74
     1
 91
        4
 64
     7
 65
   257
 75
     1
175
     1
 42
1.0
 92
        0
 66
   257
 43
1.0
 76
     1
 77
     6
 78
     2
 67
     7
 79
     5
170
     0
171
     0
290
     0
174
     0
 93
        1
 44
0.0
173
     0
291
     0
 45
0.0
1001
ACAD
1000
AcDbSavedByObjectVersion
1070
     0
  0
VISUALSTYLE
  5
383
102
{ACAD_REACTORS
330
37C
102
}
102
{ACAD_XDICTIONARY
360
3A8
102
}
330
37C
100
AcDbVisualStyle
  2
3D Hidden
 70
     6
 71
     1
 72
     2
 73
     2
 90
        0
 40
-0.6
 41
-30.0
 62
     5
 63
     7
 74
     2
 91
        2
 64
     7
 65
   257
 75
     2
175
     1
 42
40.0
 92
        0
 66
   257
 43
1.0
 76
     1
 77
     6
 78
     2
 67
     7
 79
     3
170
     0
171
     0
290
     0
174
     0
 93
        1
 44
0.0
173
     0
291
     0
 45
0.0
1001
ACAD
1000
AcDbSavedByObjectVersion
1070
     0
  0
VISUALSTYLE
  5
382
102
{ACAD_REACTORS
330
37C
102
}
102
{ACAD_XDICTIONARY
360
3A6
102
}
330
37C
100
AcDbVisualStyle
  2
3dWireframe
 70
     5
 71
     0
 72
     2
 73
     0
 90
        0
 40
-0.6
 41
-30.0
 62
     5
 63
     7
 74
     1
 91
        4
 64
     7
 65
   257
 75
     1
175
     1
 42
1.0
 92
        0
 66
   257
 43
1.0
 76
     1
 77
     6
 78
     2
 67
     7
 79
     5
170
     0
171
     0
290
     0
174
     0
 93
        1
 44
0.0
173
     0
291
     0
 45
0.0
1001
ACAD
1000
AcDbSavedByObjectVersion
1070
     0
  0
VISUALSTYLE
  5
384
102
{ACAD_REACTORS
330
37C
102
}
102
{ACAD_XDICTIONARY
360
3AA
102
}
330
37C
100
AcDbVisualStyle
  2
Basic
 70
     7
 71
     1
 72
     0
 73
     1
 90
        0
 40
-0.6
 41
-30.0
 62
     5
 63
     7
 74
     0
 91
        4
 64
     7
 65
   257
 75
     1
175
     1
 42
1.0
 92
        8
 66
     7
 43
1.0
 76
     1
 77
     6
 78
     2
 67
     7
 79
     5
170
     0
171
     0
290
     0
174
     0
 93
        1
 44
0.0
173
     0
291
     1
 45
0.0
1001
ACAD
1000
AcDbSavedByObjectVersion
1070
     0
  0
VISUALSTYLE
  5
388
102
{ACAD_REACTORS
330
37C
102
}
102
{ACAD_XDICTIONARY
360
3B2
102
}
330
37C
100
AcDbVisualStyle
  2
Brighten
 70
    12
 71
     2
 72
     2
 73
     0
 90
        0
 40
-0.6
 41
-30.0
 62
     5
 63
     7
 74
     1
 91
        4
 64
     7
 65
   257
 75
     1
175
     1
 42
1.0
 92
        8
 66
     7
 43
1.0
 76
     1
 77
     6
 78
     2
 67
     7
 79
     5
170
     0
171
     0
290
     0
174
     0
 93
        1
 44
50.0
173
     0
291
     1
 45
0.0
1001
ACAD
1000
AcDbSavedByObjectVersion
1070
     0
  0
VISUALSTYLE
  5
38C
102
{ACAD_REACTORS
330
37C
102
}
102
{ACAD_XDICTIONARY
360
3BA
102
}
330
37C
100
AcDbVisualStyle
  2
ColorChange
 70
    16
 71
     2
 72
     2
 73
     3
 90
        0
 40
-0.6
 41
-30.0
 62
     5
 63
     8
 74
     1
 91
        4
 64
     7
 65
   257
 75
     1
175
     1
 42
1.0
 92
        8
 66
     8
 43
1.0
 76
     1
 77
     6
 78
     2
 67
     7
 79
     5
170
     0
171
     0
290
     0
174
     0
 93
        1
 44
0.0
173
     0
291
     1
 45
0.0
1001
ACAD
1000
AcDbSavedByObjectVersion
1070
     0
  0
VISUALSTYLE
  5
386
102
{ACAD_REACTORS
330
37C
102
}
102
{ACAD_XDICTIONARY
360
3AE
102
}
330
37C
100
AcDbVisualStyle
  2
Conceptual
 70
     9
 71
     3
 72
     2
 73
     0
 90
        0
 40
-0.6
 41
-30.0
 62
     5
 63
     7
 74
     2
 91
        2
 64
     7
 65
   257
 75
     1
175
     1
 42
40.0
 92
        8
 66
     7
 43
1.0
 76
     1
 77
     6
 78
     2
 67
     7
 79
     3
170
     0
171
     0
290
     0
174
     0
 93
        1
 44
0.0
173
     0
291
     0
 45
0.0
1001
ACAD
1000
AcDbSavedByObjectVersion
1070
     0
  0
VISUALSTYLE
  5
387
102
{ACAD_REACTORS
330
37C
102
}
102
{ACAD_XDICTIONARY
360
3B0
102
}
330
37C
100
AcDbVisualStyle
  2
Dim
 70
    11
 71
     2
 72
     2
 73
     0
 90
        0
 40
-0.6
 41
-30.0
 62
     5
 63
     7
 74
     1
 91
        4
 64
     7
 65
   257
 75
     1
175
     1
 42
1.0
 92
        8
 66
     7
 43
1.0
 76
     1
 77
     6
 78
     2
 67
     7
 79
     5
170
     0
171
     0
290
     0
174
     0
 93
        1
 44
-50.0
173
     0
291
     1
 45
0.0
1001
ACAD
1000
AcDbSavedByObjectVersion
1070
     0
  0
VISUALSTYLE
  5
38B
102
{ACAD_REACTORS
330
37C
102
}
102
{ACAD_XDICTIONARY
360
3B8
102
}
330
37C
100
AcDbVisualStyle
  2
Facepattern
 70
    15
 71
     2
 72
     2
 73
     0
 90
        0
 40
-0.6
 41
-30.0
 62
     5
 63
     7
 74
     1
 91
        4
 64
     7
 65
   257
 75
     1
175
     1
 42
1.0
 92
        8
 66
     7
 43
1.0
 76
     1
 77
     6
 78
     2
 67
     7
 79
     5
170
     0
171
     0
290
     0
174
     0
 93
        1
 44
0.0
173
     0
291
     1
 45
0.0
1001
ACAD
1000
AcDbSavedByObjectVersion
1070
     0
  0
VISUALSTYLE
  5
37D
102
{ACAD_REACTORS
330
37C
102
}
102
{ACAD_XDICTIONARY
360
39C
102
}
330
37C
100
AcDbVisualStyle
  2
Flat
 70
     0
 71
     2
 72
     1
 73
     1
 90
        2
 40
-0.6
 41
30.0
 62
     5
 63
     7
 74
     0
 91
        4
 64
     7
 65
   257
 75
     1
175
     1
 42
1.0
 92
        8
 66
     7
 43
1.0
 76
     1
 77
     6
 78
     2
 67
     7
 79
     5
170
     0
171
     0
290
     0
174
     0
 93
       13
 44
0.0
173
     0
291
     1
 45
0.0
1001
ACAD
1000
AcDbSavedByObjectVersion
1070
     0
  0
VISUALSTYLE
  5
37E
102
{ACAD_REACTORS
330
37C
102
}
102
{ACAD_XDICTIONARY
360
39E
102
}
330
37C
100
AcDbVisualStyle
  2
FlatWithEdges
 70
     1
 71
     2
 72
     1
 73
     1
 90
        2
 40
-0.6
 41
30.0
 62
     5
 63
     7
 74
     1
 91
        4
 64
     7
 65
   257
 75
     1
175
     1
 42
1.0
 92
        0
 66
   257
 43
1.0
 76
     1
 77
     6
 78
     2
 67
     7
 79
     5
170
     0
171
     0
290
     0
174
     0
 93
       13
 44
0.0
173
     0
291
     1
 45
0.0
1001
ACAD
1000
AcDbSavedByObjectVersion
1070
     0
  0
VISUALSTYLE
  5
37F
102
{ACAD_REACTORS
330
37C
102
}
102
{ACAD_XDICTIONARY
360
3A0
102
}
330
37C
100
AcDbVisualStyle
  2
Gouraud
 70
     2
 71
     2
 72
     2
 73
     1
 90
        2
 40
-0.6
 41
30.0
 62
     5
 63
     7
 74
     0
 91
        4
 64
     7
 65
   257
 75
     1
175
     1
 42
1.0
 92
        0
 66
     7
 43
1.0
 76
     1
 77
     6
 78
     2
 67
     7
 79
     5
170
     0
171
     0
290
     0
174
     0
 93
       13
 44
0.0
173
     0
291
     1
 45
0.0
1001
ACAD
1000
AcDbSavedByObjectVersion
1070
     0
  0
VISUALSTYLE
  5
380
102
{ACAD_REACTORS
330
37C
102
}
102
{ACAD_XDICTIONARY
360
3A2
102
}
330
37C
100
AcDbVisualStyle
  2
GouraudWithEdges
 70
     3
 71
     2
 72
     2
 73
     1
 90
        2
 40
-0.6
 41
30.0
 62
     5
 63
     7
 74
     1
 91
        4
 64
     7
 65
   257
 75
     1
175
     1
 42
1.0
 92
        0
 66
   257
 43
1.0
 76
     1
 77
     6
 78
     2
 67
     7
 79
     5
170
     0
171
     0
290
     0
174
     0
 93
       13
 44
0.0
173
     0
291
     1
 45
0.0
1001
ACAD
1000
AcDbSavedByObjectVersion
1070
     0
  0
VISUALSTYLE
  5
38A
102
{ACAD_REACTORS
330
37C
102
}
102
{ACAD_XDICTIONARY
360
3B6
102
}
330
37C
100
AcDbVisualStyle
  2
Linepattern
 70
    14
 71
     2
 72
     2
 73
     0
 90
        0
 40
-0.6
 41
-30.0
 62
     5
 63
     7
 74
     1
 91
        4
 64
     7
 65
   257
 75
     7
175
     7
 42
1.0
 92
        8
 66
     7
 43
1.0
 76
     1
 77
     6
 78
     2
 67
     7
 79
     5
170
     0
171
     0
290
     0
174
     0
 93
        1
 44
0.0
173
     0
291
     1
 45
0.0
1001
ACAD
1000
AcDbSavedByObjectVersion
1070
     0
  0
VISUALSTYLE
  5
385
102
{ACAD_REACTORS
330
37C
102
}
102
{ACAD_XDICTIONARY
360
3AC
102
}
330
37C
100
AcDbVisualStyle
  2
Realistic
 70
     8
 71
     2
 72
     2
 73
     0
 90
        0
 40
-0.6
 41
-30.0
 62
     5
 63
     7
 74
     1
 91
        0
 64
     7
 65
   257
 75
     1
175
     1
 42
1.0
 92
        8
 66
     8
 43
1.0
 76
     1
 77
     6
 78
     2
 67
     7
 79
     5
170
     0
171
     0
290
     0
174
     0
 93
       13
 44
0.0
173
     0
291
     0
 45
0.0
1001
ACAD
1000
AcDbSavedByObjectVersion
1070
     0
  0
VISUALSTYLE
  5
389
102
{ACAD_REACTORS
330
37C
102
}
102
{ACAD_XDICTIONARY
360
3B4
102
}
330
37C
100
AcDbVisualStyle
  2
Thicken
 70
    13
 71
     2
 72
     2
 73
     0
 90
        0
 40
-0.6
 41
-30.0
 62
     5
 63
     7
 74
     1
 91
        4
 64
     7
 65
   257
 75
     1
175
     1
 42
1.0
 92
       12
 66
     7
 43
1.0
 76
     1
 77
     6
 78
     2
 67
     7
 79
     5
170
     0
171
     0
290
     0
174
     0
 93
        1
 44
0.0
173
     0
291
     1
 45
0.0
1001
ACAD
1000
AcDbSavedByObjectVersion
1070
     0
  0
DICTIONARYVAR
  5
39B
102
{ACAD_REACTORS
330
393
102
}
330
393
100
DictionaryVariables
280
     0
  1
1:1
  0
DICTIONARYVAR
  5
397
102
{ACAD_REACTORS
330
393
102
}
330
393
100
DictionaryVariables
280
     0
  1
2
  0
DICTIONARYVAR
  5
398
102
{ACAD_REACTORS
330
393
102
}
330
393
100
DictionaryVariables
280
     0
  1
1
  0
DICTIONARYVAR
  5
396
102
{ACAD_REACTORS
330
393
102
}
330
393
100
DictionaryVariables
280
     0
  1
0
  0
DICTIONARY
  5
3BE
330
38F
100
AcDbDictionary
280
     1
281
     1
  3
ACAD_XREC_ROUNDTRIP
360
3BF
  0
DICTIONARY
  5
3BC
330
38E
100
AcDbDictionary
280
     1
281
     1
  3
ACAD_XREC_ROUNDTRIP
360
3BD
  0
DICTIONARY
  5
3C0
330
390
100
AcDbDictionary
280
     1
281
     1
  3
ACAD_XREC_ROUNDTRIP
360
3C1
  0
DICTIONARY
  5
3A4
330
381
100
AcDbDictionary
280
     1
281
     1
  3
ACAD_XREC_ROUNDTRIP
360
3A5
  0
DICTIONARY
  5
3A8
330
383
100
AcDbDictionary
280
     1
281
     1
  3
ACAD_XREC_ROUNDTRIP
360
3A9
  0
DICTIONARY
  5
3A6
330
382
100
AcDbDictionary
280
     1
281
     1
  3
ACAD_XREC_ROUNDTRIP
360
3A7
  0
DICTIONARY
  5
3AA
330
384
100
AcDbDictionary
280
     1
281
     1
  3
ACAD_XREC_ROUNDTRIP
360
3AB
  0
DICTIONARY
  5
3B2
330
388
100
AcDbDictionary
280
     1
281
     1
  3
ACAD_XREC_ROUNDTRIP
360
3B3
  0
DICTIONARY
  5
3BA
330
38C
100
AcDbDictionary
280
     1
281
     1
  3
ACAD_XREC_ROUNDTRIP
360
3BB
  0
DICTIONARY
  5
3AE
330
386
100
AcDbDictionary
280
     1
281
     1
  3
ACAD_XREC_ROUNDTRIP
360
3AF
  0
DICTIONARY
  5
3B0
330
387
100
AcDbDictionary
280
     1
281
     1
  3
ACAD_XREC_ROUNDTRIP
360
3B1
  0
DICTIONARY
  5
3B8
330
38B
100
AcDbDictionary
280
     1
281
     1
  3
ACAD_XREC_ROUNDTRIP
360
3B9
  0
DICTIONARY
  5
39C
330
37D
100
AcDbDictionary
280
     1
281
     1
  3
ACAD_XREC_ROUNDTRIP
360
39D
  0
DICTIONARY
  5
39E
330
37E
100
AcDbDictionary
280
     1
281
     1
  3
ACAD_XREC_ROUNDTRIP
360
39F
  0
DICTIONARY
  5
3A0
330
37F
100
AcDbDictionary
280
     1
281
     1
  3
ACAD_XREC_ROUNDTRIP
360
3A1
  0
DICTIONARY
  5
3A2
330
380
100
AcDbDictionary
280
     1
281
     1
  3
ACAD_XREC_ROUNDTRIP
360
3A3
  0
DICTIONARY
  5
3B6
330
38A
100
AcDbDictionary
280
     1
281
     1
  3
ACAD_XREC_ROUNDTRIP
360
3B7
  0
DICTIONARY
  5
3AC
330
385
100
AcDbDictionary
280
     1
281
     1
  3
ACAD_XREC_ROUNDTRIP
360
3AD
  0
DICTIONARY
  5
3B4
330
389
100
AcDbDictionary
280
     1
281
     1
  3
ACAD_XREC_ROUNDTRIP
360
3B5
  0
XRECORD
  5
3BF
102
{ACAD_REACTORS
330
3BE
102
}
330
3BE
100
AcDbXrecord
280
     1
102
MATERIAL
148
0.0
149
0.0
149
0.0
 93
        0
 94
      127
282
     0
 72
     1
 77
     1
171
     1
175
     1
179
     1
273
     0
  0
XRECORD
  5
3BD
102
{ACAD_REACTORS
330
3BC
102
}
330
3BC
100
AcDbXrecord
280
     1
102
MATERIAL
148
0.0
149
0.0
149
0.0
 93
        0
 94
      127
282
     0
 72
     1
 77
     1
171
     1
175
     1
179
     1
273
     0
  0
XRECORD
  5
3C1
102
{ACAD_REACTORS
330
3C0
102
}
330
3C0
100
AcDbXrecord
280
     1
102
MATERIAL
148
0.0
149
0.0
149
0.0
 93
        0
 94
      127
282
     0
 72
     1
 77
     1
171
     1
175
     1
179
     1
273
     0
  0
XRECORD
  5
3A5
102
{ACAD_REACTORS
330
3A4
102
}
330
3A4
100
AcDbXrecord
280
     1
102
RTVSPropertyOp0
 70
     1
102
RTVSPropertyOp1
 70
     1
102
RTVSPropertyOp2
 70
     1
102
RTVSPropertyOp3
 70
     1
102
RTVSPropertyOp4
 70
     1
102
RTVSPropertyOp5
 70
     1
102
RTVSPropertyOp6
 70
     1
102
RTVSPropertyOp7
 70
     1
102
RTVSPropertyOp8
 70
     1
102
RTVSPropertyOp9
 70
     1
102
RTVSPropertyOp10
 70
     1
102
RTVSPropertyOp11
 70
     1
102
RTVSPropertyOp12
 70
     1
102
RTVSPropertyOp13
 70
     1
102
RTVSPropertyOp14
 70
     1
102
RTVSPropertyOp15
 70
     1
102
RTVSPropertyOp16
 70
     1
102
RTVSPropertyOp17
 70
     1
102
RTVSPropertyOp18
 70
     1
102
RTVSPropertyOp19
 70
     1
102
RTVSPropertyOp20
 70
     1
102
RTVSPropertyOp21
 70
     1
102
RTVSPropertyOp22
 70
     1
102
RTVSPropertyOp23
 70
     1
102
RTVSPropertyOp24
 70
     1
102
RTVSPropertyOp25
 70
     1
102
RTVSPropertyOp26
 70
     1
102
RTVSPropertyOp27
 70
     1
102
RTVSPropertyOp28
 70
     1
102
RTVSPropertyOp29
 70
     1
102
RTVSPropertyOp30
 70
     1
102
RTVSPropertyOp31
 70
     1
102
RTVSPropertyOp32
 70
     1
  0
XRECORD
  5
3A9
102
{ACAD_REACTORS
330
3A8
102
}
330
3A8
100
AcDbXrecord
280
     1
102
RTVSPropertyOp0
 70
     1
102
RTVSPropertyOp1
 70
     1
102
RTVSPropertyOp2
 70
     1
102
RTVSPropertyOp3
 70
     1
102
RTVSPropertyOp4
 70
     1
102
RTVSPropertyOp5
 70
     1
102
RTVSPropertyOp6
 70
     1
102
RTVSPropertyOp7
 70
     1
102
RTVSPropertyOp8
 70
     1
102
RTVSPropertyOp9
 70
     1
102
RTVSPropertyOp10
 70
     1
102
RTVSPropertyOp11
 70
     1
102
RTVSPropertyOp12
 70
     1
102
RTVSPropertyOp13
 70
     1
102
RTVSPropertyOp14
 70
     1
102
RTVSPropertyOp15
 70
     1
102
RTVSPropertyOp16
 70
     1
102
RTVSPropertyOp17
 70
     1
102
RTVSPropertyOp18
 70
     1
102
RTVSPropertyOp19
 70
     1
102
RTVSPropertyOp20
 70
     1
102
RTVSPropertyOp21
 70
     1
102
RTVSPropertyOp22
 70
     1
102
RTVSPropertyOp23
 70
     1
102
RTVSPropertyOp24
 70
     1
102
RTVSPropertyOp25
 70
     1
102
RTVSPropertyOp26
 70
     1
102
RTVSPropertyOp27
 70
     1
102
RTVSPropertyOp28
 70
     1
102
RTVSPropertyOp29
 70
     1
102
RTVSPropertyOp30
 70
     1
102
RTVSPropertyOp31
 70
     1
102
RTVSPropertyOp32
 70
     1
  0
XRECORD
  5
3A7
102
{ACAD_REACTORS
330
3A6
102
}
330
3A6
100
AcDbXrecord
280
     1
102
RTVSPropertyOp0
 70
     1
102
RTVSPropertyOp1
 70
     1
102
RTVSPropertyOp2
 70
     1
102
RTVSPropertyOp3
 70
     1
102
RTVSPropertyOp4
 70
     1
102
RTVSPropertyOp5
 70
     1
102
RTVSPropertyOp6
 70
     1
102
RTVSPropertyOp7
 70
     1
102
RTVSPropertyOp8
 70
     1
102
RTVSPropertyOp9
 70
     1
102
RTVSPropertyOp10
 70
     1
102
RTVSPropertyOp11
 70
     1
102
RTVSPropertyOp12
 70
     1
102
RTVSPropertyOp13
 70
     1
102
RTVSPropertyOp14
 70
     1
102
RTVSPropertyOp15
 70
     1
102
RTVSPropertyOp16
 70
     1
102
RTVSPropertyOp17
 70
     1
102
RTVSPropertyOp18
 70
     1
102
RTVSPropertyOp19
 70
     1
102
RTVSPropertyOp20
 70
     1
102
RTVSPropertyOp21
 70
     1
102
RTVSPropertyOp22
 70
     1
102
RTVSPropertyOp23
 70
     1
102
RTVSPropertyOp24
 70
     1
102
RTVSPropertyOp25
 70
     1
102
RTVSPropertyOp26
 70
     1
102
RTVSPropertyOp27
 70
     1
102
RTVSPropertyOp28
 70
     1
102
RTVSPropertyOp29
 70
     1
102
RTVSPropertyOp30
 70
     1
102
RTVSPropertyOp31
 70
     1
102
RTVSPropertyOp32
 70
     1
  0
XRECORD
  5
3AB
102
{ACAD_REACTORS
330
3AA
102
}
330
3AA
100
AcDbXrecord
280
     1
102
RTVSPropertyOp0
 70
     1
102
RTVSPropertyOp1
 70
     1
102
RTVSPropertyOp2
 70
     1
102
RTVSPropertyOp3
 70
     1
102
RTVSPropertyOp4
 70
     1
102
RTVSPropertyOp5
 70
     1
102
RTVSPropertyOp6
 70
     1
102
RTVSPropertyOp7
 70
     1
102
RTVSPropertyOp8
 70
     1
102
RTVSPropertyOp9
 70
     1
102
RTVSPropertyOp10
 70
     1
102
RTVSPropertyOp11
 70
     1
102
RTVSPropertyOp12
 70
     1
102
RTVSPropertyOp13
 70
     1
102
RTVSPropertyOp14
 70
     1
102
RTVSPropertyOp15
 70
     1
102
RTVSPropertyOp16
 70
     1
102
RTVSPropertyOp17
 70
     1
102
RTVSPropertyOp18
 70
     1
102
RTVSPropertyOp19
 70
     1
102
RTVSPropertyOp20
 70
     1
102
RTVSPropertyOp21
 70
     1
102
RTVSPropertyOp22
 70
     1
102
RTVSPropertyOp23
 70
     1
102
RTVSPropertyOp24
 70
     1
102
RTVSPropertyOp25
 70
     1
102
RTVSPropertyOp26
 70
     1
102
RTVSPropertyOp27
 70
     1
102
RTVSPropertyOp28
 70
     1
102
RTVSPropertyOp29
 70
     1
102
RTVSPropertyOp30
 70
     1
102
RTVSPropertyOp31
 70
     1
102
RTVSPropertyOp32
 70
     1
  0
XRECORD
  5
3B3
102
{ACAD_REACTORS
330
3B2
102
}
330
3B2
100
AcDbXrecord
280
     1
102
RTVSPropertyOp0
 70
     1
102
RTVSPropertyOp1
 70
     1
102
RTVSPropertyOp2
 70
     1
102
RTVSPropertyOp3
 70
     1
102
RTVSPropertyOp4
 70
     1
102
RTVSPropertyOp5
 70
     1
102
RTVSPropertyOp6
 70
     1
102
RTVSPropertyOp7
 70
     1
102
RTVSPropertyOp8
 70
     1
102
RTVSPropertyOp9
 70
     1
102
RTVSPropertyOp10
 70
     1
102
RTVSPropertyOp11
 70
     1
102
RTVSPropertyOp12
 70
     1
102
RTVSPropertyOp13
 70
     1
102
RTVSPropertyOp14
 70
     1
102
RTVSPropertyOp15
 70
     1
102
RTVSPropertyOp16
 70
     1
102
RTVSPropertyOp17
 70
     1
102
RTVSPropertyOp18
 70
     1
102
RTVSPropertyOp19
 70
     1
102
RTVSPropertyOp20
 70
     1
102
RTVSPropertyOp21
 70
     1
102
RTVSPropertyOp22
 70
     1
102
RTVSPropertyOp23
 70
     1
102
RTVSPropertyOp24
 70
     1
102
RTVSPropertyOp25
 70
     1
102
RTVSPropertyOp26
 70
     1
102
RTVSPropertyOp27
 70
     1
102
RTVSPropertyOp28
 70
     1
102
RTVSPropertyOp29
 70
     1
102
RTVSPropertyOp30
 70
     1
102
RTVSPropertyOp31
 70
     1
102
RTVSPropertyOp32
 70
     1
  0
XRECORD
  5
3BB
102
{ACAD_REACTORS
330
3BA
102
}
330
3BA
100
AcDbXrecord
280
     1
102
RTVSPropertyOp0
 70
     1
102
RTVSPropertyOp1
 70
     1
102
RTVSPropertyOp2
 70
     1
102
RTVSPropertyOp3
 70
     1
102
RTVSPropertyOp4
 70
     1
102
RTVSPropertyOp5
 70
     1
102
RTVSPropertyOp6
 70
     1
102
RTVSPropertyOp7
 70
     1
102
RTVSPropertyOp8
 70
     1
102
RTVSPropertyOp9
 70
     1
102
RTVSPropertyOp10
 70
     1
102
RTVSPropertyOp11
 70
     1
102
RTVSPropertyOp12
 70
     1
102
RTVSPropertyOp13
 70
     1
102
RTVSPropertyOp14
 70
     1
102
RTVSPropertyOp15
 70
     1
102
RTVSPropertyOp16
 70
     1
102
RTVSPropertyOp17
 70
     1
102
RTVSPropertyOp18
 70
     1
102
RTVSPropertyOp19
 70
     1
102
RTVSPropertyOp20
 70
     1
102
RTVSPropertyOp21
 70
     1
102
RTVSPropertyOp22
 70
     1
102
RTVSPropertyOp23
 70
     1
102
RTVSPropertyOp24
 70
     1
102
RTVSPropertyOp25
 70
     1
102
RTVSPropertyOp26
 70
     1
102
RTVSPropertyOp27
 70
     1
102
RTVSPropertyOp28
 70
     1
102
RTVSPropertyOp29
 70
     1
102
RTVSPropertyOp30
 70
     1
102
RTVSPropertyOp31
 70
     1
102
RTVSPropertyOp32
 70
     1
  0
XRECORD
  5
3AF
102
{ACAD_REACTORS
330
3AE
102
}
330
3AE
100
AcDbXrecord
280
     1
102
RTVSPropertyOp0
 70
     1
102
RTVSPropertyOp1
 70
     1
102
RTVSPropertyOp2
 70
     1
102
RTVSPropertyOp3
 70
     1
102
RTVSPropertyOp4
 70
     1
102
RTVSPropertyOp5
 70
     1
102
RTVSPropertyOp6
 70
     1
102
RTVSPropertyOp7
 70
     1
102
RTVSPropertyOp8
 70
     1
102
RTVSPropertyOp9
 70
     1
102
RTVSPropertyOp10
 70
     1
102
RTVSPropertyOp11
 70
     1
102
RTVSPropertyOp12
 70
     1
102
RTVSPropertyOp13
 70
     1
102
RTVSPropertyOp14
 70
     1
102
RTVSPropertyOp15
 70
     1
102
RTVSPropertyOp16
 70
     1
102
RTVSPropertyOp17
 70
     1
102
RTVSPropertyOp18
 70
     1
102
RTVSPropertyOp19
 70
     1
102
RTVSPropertyOp20
 70
     1
102
RTVSPropertyOp21
 70
     1
102
RTVSPropertyOp22
 70
     1
102
RTVSPropertyOp23
 70
     1
102
RTVSPropertyOp24
 70
     1
102
RTVSPropertyOp25
 70
     1
102
RTVSPropertyOp26
 70
     1
102
RTVSPropertyOp27
 70
     1
102
RTVSPropertyOp28
 70
     1
102
RTVSPropertyOp29
 70
     1
102
RTVSPropertyOp30
 70
     1
102
RTVSPropertyOp31
 70
     1
102
RTVSPropertyOp32
 70
     1
  0
XRECORD
  5
3B1
102
{ACAD_REACTORS
330
3B0
102
}
330
3B0
100
AcDbXrecord
280
     1
102
RTVSPropertyOp0
 70
     1
102
RTVSPropertyOp1
 70
     1
102
RTVSPropertyOp2
 70
     1
102
RTVSPropertyOp3
 70
     1
102
RTVSPropertyOp4
 70
     1
102
RTVSPropertyOp5
 70
     1
102
RTVSPropertyOp6
 70
     1
102
RTVSPropertyOp7
 70
     1
102
RTVSPropertyOp8
 70
     1
102
RTVSPropertyOp9
 70
     1
102
RTVSPropertyOp10
 70
     1
102
RTVSPropertyOp11
 70
     1
102
RTVSPropertyOp12
 70
     1
102
RTVSPropertyOp13
 70
     1
102
RTVSPropertyOp14
 70
     1
102
RTVSPropertyOp15
 70
     1
102
RTVSPropertyOp16
 70
     1
102
RTVSPropertyOp17
 70
     1
102
RTVSPropertyOp18
 70
     1
102
RTVSPropertyOp19
 70
     1
102
RTVSPropertyOp20
 70
     1
102
RTVSPropertyOp21
 70
     1
102
RTVSPropertyOp22
 70
     1
102
RTVSPropertyOp23
 70
     1
102
RTVSPropertyOp24
 70
     1
102
RTVSPropertyOp25
 70
     1
102
RTVSPropertyOp26
 70
     1
102
RTVSPropertyOp27
 70
     1
102
RTVSPropertyOp28
 70
     1
102
RTVSPropertyOp29
 70
     1
102
RTVSPropertyOp30
 70
     1
102
RTVSPropertyOp31
 70
     1
102
RTVSPropertyOp32
 70
     1
  0
XRECORD
  5
3B9
102
{ACAD_REACTORS
330
3B8
102
}
330
3B8
100
AcDbXrecord
280
     1
102
RTVSPropertyOp0
 70
     1
102
RTVSPropertyOp1
 70
     1
102
RTVSPropertyOp2
 70
     1
102
RTVSPropertyOp3
 70
     1
102
RTVSPropertyOp4
 70
     1
102
RTVSPropertyOp5
 70
     1
102
RTVSPropertyOp6
 70
     1
102
RTVSPropertyOp7
 70
     1
102
RTVSPropertyOp8
 70
     1
102
RTVSPropertyOp9
 70
     1
102
RTVSPropertyOp10
 70
     1
102
RTVSPropertyOp11
 70
     1
102
RTVSPropertyOp12
 70
     1
102
RTVSPropertyOp13
 70
     1
102
RTVSPropertyOp14
 70
     1
102
RTVSPropertyOp15
 70
     1
102
RTVSPropertyOp16
 70
     1
102
RTVSPropertyOp17
 70
     1
102
RTVSPropertyOp18
 70
     1
102
RTVSPropertyOp19
 70
     1
102
RTVSPropertyOp20
 70
     1
102
RTVSPropertyOp21
 70
     1
102
RTVSPropertyOp22
 70
     1
102
RTVSPropertyOp23
 70
     1
102
RTVSPropertyOp24
 70
     1
102
RTVSPropertyOp25
 70
     1
102
RTVSPropertyOp26
 70
     1
102
RTVSPropertyOp27
 70
     1
102
RTVSPropertyOp28
 70
     1
102
RTVSPropertyOp29
 70
     1
102
RTVSPropertyOp30
 70
     1
102
RTVSPropertyOp31
 70
     1
102
RTVSPropertyOp32
 70
     1
  0
XRECORD
  5
39D
102
{ACAD_REACTORS
330
39C
102
}
330
39C
100
AcDbXrecord
280
     1
102
RTVSPropertyOp0
 70
     1
102
RTVSPropertyOp1
 70
     1
102
RTVSPropertyOp2
 70
     1
102
RTVSPropertyOp3
 70
     1
102
RTVSPropertyOp4
 70
     1
102
RTVSPropertyOp5
 70
     1
102
RTVSPropertyOp6
 70
     1
102
RTVSPropertyOp7
 70
     1
102
RTVSPropertyOp8
 70
     1
102
RTVSPropertyOp9
 70
     1
102
RTVSPropertyOp10
 70
     1
102
RTVSPropertyOp11
 70
     1
102
RTVSPropertyOp12
 70
     1
102
RTVSPropertyOp13
 70
     1
102
RTVSPropertyOp14
 70
     1
102
RTVSPropertyOp15
 70
     1
102
RTVSPropertyOp16
 70
     1
102
RTVSPropertyOp17
 70
     1
102
RTVSPropertyOp18
 70
     1
102
RTVSPropertyOp19
 70
     1
102
RTVSPropertyOp20
 70
     1
102
RTVSPropertyOp21
 70
     1
102
RTVSPropertyOp22
 70
     1
102
RTVSPropertyOp23
 70
     1
102
RTVSPropertyOp24
 70
     1
102
RTVSPropertyOp25
 70
     1
102
RTVSPropertyOp26
 70
     1
102
RTVSPropertyOp27
 70
     1
102
RTVSPropertyOp28
 70
     1
102
RTVSPropertyOp29
 70
     1
102
RTVSPropertyOp30
 70
     1
102
RTVSPropertyOp31
 70
     1
102
RTVSPropertyOp32
 70
     1
  0
XRECORD
  5
39F
102
{ACAD_REACTORS
330
39E
102
}
330
39E
100
AcDbXrecord
280
     1
102
RTVSPropertyOp0
 70
     1
102
RTVSPropertyOp1
 70
     1
102
RTVSPropertyOp2
 70
     1
102
RTVSPropertyOp3
 70
     1
102
RTVSPropertyOp4
 70
     1
102
RTVSPropertyOp5
 70
     1
102
RTVSPropertyOp6
 70
     1
102
RTVSPropertyOp7
 70
     1
102
RTVSPropertyOp8
 70
     1
102
RTVSPropertyOp9
 70
     1
102
RTVSPropertyOp10
 70
     1
102
RTVSPropertyOp11
 70
     1
102
RTVSPropertyOp12
 70
     1
102
RTVSPropertyOp13
 70
     1
102
RTVSPropertyOp14
 70
     1
102
RTVSPropertyOp15
 70
     1
102
RTVSPropertyOp16
 70
     1
102
RTVSPropertyOp17
 70
     1
102
RTVSPropertyOp18
 70
     1
102
RTVSPropertyOp19
 70
     1
102
RTVSPropertyOp20
 70
     1
102
RTVSPropertyOp21
 70
     1
102
RTVSPropertyOp22
 70
     1
102
RTVSPropertyOp23
 70
     1
102
RTVSPropertyOp24
 70
     1
102
RTVSPropertyOp25
 70
     1
102
RTVSPropertyOp26
 70
     1
102
RTVSPropertyOp27
 70
     1
102
RTVSPropertyOp28
 70
     1
102
RTVSPropertyOp29
 70
     1
102
RTVSPropertyOp30
 70
     1
102
RTVSPropertyOp31
 70
     1
102
RTVSPropertyOp32
 70
     1
  0
XRECORD
  5
3A1
102
{ACAD_REACTORS
330
3A0
102
}
330
3A0
100
AcDbXrecord
280
     1
102
RTVSPropertyOp0
 70
     1
102
RTVSPropertyOp1
 70
     1
102
RTVSPropertyOp2
 70
     1
102
RTVSPropertyOp3
 70
     1
102
RTVSPropertyOp4
 70
     1
102
RTVSPropertyOp5
 70
     1
102
RTVSPropertyOp6
 70
     1
102
RTVSPropertyOp7
 70
     1
102
RTVSPropertyOp8
 70
     1
102
RTVSPropertyOp9
 70
     1
102
RTVSPropertyOp10
 70
     1
102
RTVSPropertyOp11
 70
     1
102
RTVSPropertyOp12
 70
     1
102
RTVSPropertyOp13
 70
     1
102
RTVSPropertyOp14
 70
     1
102
RTVSPropertyOp15
 70
     1
102
RTVSPropertyOp16
 70
     1
102
RTVSPropertyOp17
 70
     1
102
RTVSPropertyOp18
 70
     1
102
RTVSPropertyOp19
 70
     1
102
RTVSPropertyOp20
 70
     1
102
RTVSPropertyOp21
 70
     1
102
RTVSPropertyOp22
 70
     1
102
RTVSPropertyOp23
 70
     1
102
RTVSPropertyOp24
 70
     1
102
RTVSPropertyOp25
 70
     1
102
RTVSPropertyOp26
 70
     1
102
RTVSPropertyOp27
 70
     1
102
RTVSPropertyOp28
 70
     1
102
RTVSPropertyOp29
 70
     1
102
RTVSPropertyOp30
 70
     1
102
RTVSPropertyOp31
 70
     1
102
RTVSPropertyOp32
 70
     1
  0
XRECORD
  5
3A3
102
{ACAD_REACTORS
330
3A2
102
}
330
3A2
100
AcDbXrecord
280
     1
102
RTVSPropertyOp0
 70
     1
102
RTVSPropertyOp1
 70
     1
102
RTVSPropertyOp2
 70
     1
102
RTVSPropertyOp3
 70
     1
102
RTVSPropertyOp4
 70
     1
102
RTVSPropertyOp5
 70
     1
102
RTVSPropertyOp6
 70
     1
102
RTVSPropertyOp7
 70
     1
102
RTVSPropertyOp8
 70
     1
102
RTVSPropertyOp9
 70
     1
102
RTVSPropertyOp10
 70
     1
102
RTVSPropertyOp11
 70
     1
102
RTVSPropertyOp12
 70
     1
102
RTVSPropertyOp13
 70
     1
102
RTVSPropertyOp14
 70
     1
102
RTVSPropertyOp15
 70
     1
102
RTVSPropertyOp16
 70
     1
102
RTVSPropertyOp17
 70
     1
102
RTVSPropertyOp18
 70
     1
102
RTVSPropertyOp19
 70
     1
102
RTVSPropertyOp20
 70
     1
102
RTVSPropertyOp21
 70
     1
102
RTVSPropertyOp22
 70
     1
102
RTVSPropertyOp23
 70
     1
102
RTVSPropertyOp24
 70
     1
102
RTVSPropertyOp25
 70
     1
102
RTVSPropertyOp26
 70
     1
102
RTVSPropertyOp27
 70
     1
102
RTVSPropertyOp28
 70
     1
102
RTVSPropertyOp29
 70
     1
102
RTVSPropertyOp30
 70
     1
102
RTVSPropertyOp31
 70
     1
102
RTVSPropertyOp32
 70
     1
  0
XRECORD
  5
3B7
102
{ACAD_REACTORS
330
3B6
102
}
330
3B6
100
AcDbXrecord
280
     1
102
RTVSPropertyOp0
 70
     1
102
RTVSPropertyOp1
 70
     1
102
RTVSPropertyOp2
 70
     1
102
RTVSPropertyOp3
 70
     1
102
RTVSPropertyOp4
 70
     1
102
RTVSPropertyOp5
 70
     1
102
RTVSPropertyOp6
 70
     1
102
RTVSPropertyOp7
 70
     1
102
RTVSPropertyOp8
 70
     1
102
RTVSPropertyOp9
 70
     1
102
RTVSPropertyOp10
 70
     1
102
RTVSPropertyOp11
 70
     1
102
RTVSPropertyOp12
 70
     1
102
RTVSPropertyOp13
 70
     1
102
RTVSPropertyOp14
 70
     1
102
RTVSPropertyOp15
 70
     1
102
RTVSPropertyOp16
 70
     1
102
RTVSPropertyOp17
 70
     1
102
RTVSPropertyOp18
 70
     1
102
RTVSPropertyOp19
 70
     1
102
RTVSPropertyOp20
 70
     1
102
RTVSPropertyOp21
 70
     1
102
RTVSPropertyOp22
 70
     1
102
RTVSPropertyOp23
 70
     1
102
RTVSPropertyOp24
 70
     1
102
RTVSPropertyOp25
 70
     1
102
RTVSPropertyOp26
 70
     1
102
RTVSPropertyOp27
 70
     1
102
RTVSPropertyOp28
 70
     1
102
RTVSPropertyOp29
 70
     1
102
RTVSPropertyOp30
 70
     1
102
RTVSPropertyOp31
 70
     1
102
RTVSPropertyOp32
 70
     1
  0
XRECORD
  5
3AD
102
{ACAD_REACTORS
330
3AC
102
}
330
3AC
100
AcDbXrecord
280
     1
102
RTVSPropertyOp0
 70
     1
102
RTVSPropertyOp1
 70
     1
102
RTVSPropertyOp2
 70
     1
102
RTVSPropertyOp3
 70
     1
102
RTVSPropertyOp4
 70
     1
102
RTVSPropertyOp5
 70
     1
102
RTVSPropertyOp6
 70
     1
102
RTVSPropertyOp7
 70
     1
102
RTVSPropertyOp8
 70
     1
102
RTVSPropertyOp9
 70
     1
102
RTVSPropertyOp10
 70
     1
102
RTVSPropertyOp11
 70
     1
102
RTVSPropertyOp12
 70
     1
102
RTVSPropertyOp13
 70
     1
102
RTVSPropertyOp14
 70
     1
102
RTVSPropertyOp15
 70
     1
102
RTVSPropertyOp16
 70
     1
102
RTVSPropertyOp17
 70
     1
102
RTVSPropertyOp18
 70
     1
102
RTVSPropertyOp19
 70
     1
102
RTVSPropertyOp20
 70
     1
102
RTVSPropertyOp21
 70
     1
102
RTVSPropertyOp22
 70
     1
102
RTVSPropertyOp23
 70
     1
102
RTVSPropertyOp24
 70
     1
102
RTVSPropertyOp25
 70
     1
102
RTVSPropertyOp26
 70
     1
102
RTVSPropertyOp27
 70
     1
102
RTVSPropertyOp28
 70
     1
102
RTVSPropertyOp29
 70
     1
102
RTVSPropertyOp30
 70
     1
102
RTVSPropertyOp31
 70
     1
102
RTVSPropertyOp32
 70
     1
  0
XRECORD
  5
3B5
102
{ACAD_REACTORS
330
3B4
102
}
330
3B4
100
AcDbXrecord
280
     1
102
RTVSPropertyOp0
 70
     1
102
RTVSPropertyOp1
 70
     1
102
RTVSPropertyOp2
 70
     1
102
RTVSPropertyOp3
 70
     1
102
RTVSPropertyOp4
 70
     1
102
RTVSPropertyOp5
 70
     1
102
RTVSPropertyOp6
 70
     1
102
RTVSPropertyOp7
 70
     1
102
RTVSPropertyOp8
 70
     1
102
RTVSPropertyOp9
 70
     1
102
RTVSPropertyOp10
 70
     1
102
RTVSPropertyOp11
 70
     1
102
RTVSPropertyOp12
 70
     1
102
RTVSPropertyOp13
 70
     1
102
RTVSPropertyOp14
 70
     1
102
RTVSPropertyOp15
 70
     1
102
RTVSPropertyOp16
 70
     1
102
RTVSPropertyOp17
 70
     1
102
RTVSPropertyOp18
 70
     1
102
RTVSPropertyOp19
 70
     1
102
RTVSPropertyOp20
 70
     1
102
RTVSPropertyOp21
 70
     1
102
RTVSPropertyOp22
 70
     1
102
RTVSPropertyOp23
 70
     1
102
RTVSPropertyOp24
 70
     1
102
RTVSPropertyOp25
 70
     1
102
RTVSPropertyOp26
 70
     1
102
RTVSPropertyOp27
 70
     1
102
RTVSPropertyOp28
 70
     1
102
RTVSPropertyOp29
 70
     1
102
RTVSPropertyOp30
 70
     1
102
RTVSPropertyOp31
 70
     1
102
RTVSPropertyOp32
 70
     1
  0
ENDSEC
  0
EOF
