  0
SECTION
  2
HEADER
  9
$ACADVER
  1
AC1015
  9
$ACADMAINTVER
 70
     6
  9
$DWGCODEPAGE
  3
ANSI_1252
  9
$INSBASE
 10
0.0
 20
0.0
 30
0.0
  9
$EXTMIN
 10
0.0
 20
0.0
 30
0.0
  9
$EXTMAX
 10
210.0
 20
297.0
 30
0.0
  9
$LIMMIN
 10
0.0
 20
0.0
  9
$LIMMAX
 10
0.0
 20
0.0
  9
$ORTHOMODE
 70
     0
  9
$REGENMODE
 70
     1
  9
$FILLMODE
 70
     1
  9
$QTEXTMODE
 70
     0
  9
$MIRRTEXT
 70
     1
  9
$LTSCALE
 40
1.0
  9
$ATTMODE
 70
     1
  9
$TEXTSIZE
 40
0.0
  9
$TRACEWID
 40
0.05
  9
$TEXTSTYLE
  7
STANDARD
  9
$CLAYER
  8
0
  9
$CELTYPE
  6
CONTINUOUS
  9
$CECOLOR
 62
   256
  9
$CELTSCALE
 40
1.0
  9
$DISPSILH
 70
     0
  9
$DIMSCALE
 40
1.0
  9
$DIMASZ
 40
0.0
  9
$DIMEXO
 40
0.0
  9
$DIMDLI
 40
0.38
  9
$DIMRND
 40
0.0
  9
$DIMDLE
 40
1000.0
  9
$DIMEXE
 40
0.18
  9
$DIMTP
 40
0.0
  9
$DIMTM
 40
0.0
  9
$DIMTXT
 40
3.5
  9
$DIMCEN
 40
0.09
  9
$DIMTSZ
 40
0.0
  9
$DIMTOL
 70
     0
  9
$DIMLIM
 70
     0
  9
$DIMTIH
 70
     1
  9
$DIMTOH
 70
     1
  9
$DIMSE1
 70
     0
  9
$DIMSE2
 70
     0
  9
$DIMTAD
 70
     1
  9
$DIMZIN
 70
     0
  9
$DIMBLK
  1

  9
$DIMASO
 70
     1
  9
$DIMSHO
 70
     1
  9
$DIMPOST
  1

  9
$DIMAPOST
  1

  9
$DIMALT
 70
     0
  9
$DIMALTD
 70
     2
  9
$DIMALTF
 40
0.0394
  9
$DIMLFAC
 40
1.0
  9
$DIMTOFL
 70
     0
  9
$DIMTVP
 40
0.0
  9
$DIMTIX
 70
     0
  9
$DIMSOXD
 70
     0
  9
$DIMSAH
 70
     0
  9
$DIMBLK1
  1

  9
$DIMBLK2
  1

  9
$DIMSTYLE
  2
STANDARD
  9
$DIMCLRD
 70
     0
  9
$DIMCLRE
 70
     0
  9
$DIMCLRT
 70
     0
  9
$DIMTFAC
 40
1.0
  9
$DIMGAP
 40
0.0
  9
$DIMJUST
 70
     0
  9
$DIMSD1
 70
     0
  9
$DIMSD2
 70
     0
  9
$DIMTOLJ
 70
     1
  9
$DIMTZIN
 70
     0
  9
$DIMALTZ
 70
     0
  9
$DIMALTTZ
 70
     0
  9
$DIMUPT
 70
     0
  9
$DIMDEC
 70
     4
  9
$DIMTDEC
 70
     4
  9
$DIMALTU
 70
     2
  9
$DIMALTTD
 70
     2
  9
$DIMTXSTY
  7
STANDARD
  9
$DIMAUNIT
 70
     0
  9
$DIMADEC
 70
     0
  9
$DIMALTRND
 40
0.0
  9
$DIMAZIN
 70
     0
  9
$DIMDSEP
 70
    46
  9
$DIMATFIT
 70
     3
  9
$DIMFRAC
 70
     0
  9
$DIMLDRBLK
  1

  9
$DIMLUNIT
 70
     2
  9
$DIMLWD
 70
    -2
  9
$DIMLWE
 70
    -2
  9
$DIMTMOVE
 70
     2
  9
$LUNITS
 70
     2
  9
$LUPREC
 70
     2
  9
$SKETCHINC
 40
0.1
  9
$FILLETRAD
 40
0.0
  9
$AUNITS
 70
     0
  9
$AUPREC
 70
     2
  9
$MENU
  1
acad
  9
$ELEVATION
 40
0.0
  9
$PELEVATION
 40
0.0
  9
$THICKNESS
 40
0.0
  9
$LIMCHECK
 70
     0
  9
$CHAMFERA
 40
0.0
  9
$CHAMFERB
 40
0.0
  9
$CHAMFERC
 40
0.0
  9
$CHAMFERD
 40
0.0
  9
$SKPOLY
 70
     0
  9
$TDCREATE
 40
2447893.0
  9
$TDUCREATE
 40
2447892.916666667
  9
$TDUPDATE
 40
2458327.548794398
  9
$TDUUPDATE
 40
2458327.465461065
  9
$TDINDWG
 40
0.0
  9
$TDUSRTIMER
 40
0.0
  9
$USRTIMER
 70
     1
  9
$ANGBASE
 50
0.0
  9
$ANGDIR
 70
     0
  9
$PDMODE
 70
     0
  9
$PDSIZE
 40
-1.0
  9
$PLINEWID
 40
0.0
  9
$SPLFRAME
 70
     0
  9
$SPLINETYPE
 70
     6
  9
$SPLINESEGS
 70
     8
  9
$HANDSEED
  5
3ED
  9
$SURFTAB1
 70
     6
  9
$SURFTAB2
 70
     6
  9
$SURFTYPE
 70
     6
  9
$SURFU
 70
     6
  9
$SURFV
 70
     6
  9
$UCSBASE
  2

  9
$UCSNAME
  2

  9
$UCSORG
 10
0.0
 20
0.0
 30
0.0
  9
$UCSXDIR
 10
1.0
 20
0.0
 30
0.0
  9
$UCSYDIR
 10
0.0
 20
1.0
 30
0.0
  9
$UCSORTHOREF
  2

  9
$UCSORTHOVIEW
 70
     0
  9
$UCSORGTOP
 10
0.0
 20
0.0
 30
0.0
  9
$UCSORGBOTTOM
 10
0.0
 20
0.0
 30
0.0
  9
$UCSORGLEFT
 10
0.0
 20
0.0
 30
0.0
  9
$UCSORGRIGHT
 10
0.0
 20
0.0
 30
0.0
  9
$UCSORGFRONT
 10
0.0
 20
0.0
 30
0.0
  9
$UCSORGBACK
 10
0.0
 20
0.0
 30
0.0
  9
$PUCSBASE
  2

  9
$PUCSNAME
  2

  9
$PUCSORG
 10
0.0
 20
0.0
 30
0.0
  9
$PUCSXDIR
 10
1.0
 20
0.0
 30
0.0
  9
$PUCSYDIR
 10
0.0
 20
1.0
 30
0.0
  9
$PUCSORTHOREF
  2

  9
$PUCSORTHOVIEW
 70
     0
  9
$PUCSORGTOP
 10
0.0
 20
0.0
 30
0.0
  9
$PUCSORGBOTTOM
 10
0.0
 20
0.0
 30
0.0
  9
$PUCSORGLEFT
 10
0.0
 20
0.0
 30
0.0
  9
$PUCSORGRIGHT
 10
0.0
 20
0.0
 30
0.0
  9
$PUCSORGFRONT
 10
0.0
 20
0.0
 30
0.0
  9
$PUCSORGBACK
 10
0.0
 20
0.0
 30
0.0
  9
$USERI1
 70
     0
  9
$USERI2
 70
     0
  9
$USERI3
 70
     0
  9
$USERI4
 70
     0
  9
$USERI5
 70
     0
  9
$USERR1
 40
0.0
  9
$USERR2
 40
0.0
  9
$USERR3
 40
0.0
  9
$USERR4
 40
0.0
  9
$USERR5
 40
0.0
  9
$WORLDVIEW
 70
     1
  9
$SHADEDGE
 70
     3
  9
$SHADEDIF
 70
    70
  9
$TILEMODE
 70
     1
  9
$MAXACTVP
 70
    16
  9
$PINSBASE
 10
0.0
 20
0.0
 30
0.0
  9
$PLIMCHECK
 70
     0
  9
$PEXTMIN
 10
1.000000000000000E+20
 20
1.000000000000000E+20
 30
1.000000000000000E+20
  9
$PEXTMAX
 10
-1.000000000000000E+20
 20
-1.000000000000000E+20
 30
-1.000000000000000E+20
  9
$PLIMMIN
 10
0.0
 20
0.0
  9
$PLIMMAX
 10
12.0
 20
9.0
  9
$UNITMODE
 70
     0
  9
$VISRETAIN
 70
     0
  9
$PLINEGEN
 70
     1
  9
$PSLTSCALE
 70
     1
  9
$TREEDEPTH
 70
  3020
  9
$CMLSTYLE
  2
STANDARD
  9
$CMLJUST
 70
     0
  9
$CMLSCALE
 40
1.0
  9
$PROXYGRAPHICS
 70
     1
  9
$MEASUREMENT
 70
     0
  9
$CELWEIGHT
370
    -1
  9
$ENDCAPS
280
     0
  9
$JOINSTYLE
280
     0
  9
$LWDISPLAY
290
     0
  9
$INSUNITS
 70
     0
  9
$HYPERLINKBASE
  1

  9
$STYLESHEET
  1

  9
$XEDIT
290
     1
  9
$CEPSNTYPE
380
     0
  9
$PSTYLEMODE
290
     1
  9
$FINGERPRINTGUID
  2
{647F61B6-6F1A-42BA-8CB0-A311293269FA}
  9
$VERSIONGUID
  2
{FAEB1C32-E019-11D5-929B-00C0DF256EC4}
  9
$EXTNAMES
290
     1
  9
$PSVPSCALE
 40
0.0
  9
$OLESTARTUP
290
     0
  0
ENDSEC
  0
SECTION
  2
CLASSES
  0
CLASS
  1
LWPOLYLINE
  2
AcDbPolyline
  3
ObjectDBX Classes
 90
        0
280
     0
281
     1
  0
CLASS
  1
IMAGE
  2
AcDbRasterImage
  3
ISM
 90
      127
280
     0
281
     1
  0
CLASS
  1
OLE2FRAME
  2
AcDbOle2Frame
  3
ObjectDBX Classes
 90
        0
280
     0
281
     1
  0
CLASS
  1
HATCH
  2
AcDbHatch
  3
ObjectDBX Classes
 90
        0
280
     0
281
     1
  0
CLASS
  1
DICTIONARYVAR
  2
AcDbDictionaryVar
  3
ObjectDBX Classes
 90
        0
280
     0
281
     0
  0
CLASS
  1
RASTERVARIABLES
  2
AcDbRasterVariables
  3
ISM
 90
        0
280
     0
281
     0
  0
CLASS
  1
IMAGEDEF
  2
AcDbRasterImageDef
  3
ISM
 90
        0
280
     0
281
     0
  0
CLASS
  1
IMAGEDEF_REACTOR
  2
AcDbRasterImageDefReactor
  3
ISM
 90
        1
280
     0
281
     0
  0
CLASS
  1
IDBUFFER
  2
AcDbIdBuffer
  3
ObjectDBX Classes
 90
        0
280
     0
281
     0
  0
CLASS
  1
SPATIAL_FILTER
  2
AcDbSpatialFilter
  3
ObjectDBX Classes
 90
        0
280
     0
281
     0
  0
CLASS
  1
XRECORD
  2
AcDbXrecord
  3
ObjectDBX Classes
 90
        0
280
     0
281
     0
  0
CLASS
  1
SORTENTSTABLE
  2
AcDbSortentsTable
  3
ObjectDBX Classes
 90
        0
280
     0
281
     0
  0
CLASS
  1
LAYER_INDEX
  2
AcDbLayerIndex
  3
ObjectDBX Classes
 90
        0
280
     0
281
     0
  0
CLASS
  1
SPATIAL_INDEX
  2
AcDbSpatialIndex
  3
AutoCAD 2000
 90
        0
280
     0
281
     0
  0
CLASS
  1
OBJECT_PTR
  2
CAseDLPNTableRecord
  3
ASE-LPNTableRecord
 90
        1
280
     0
281
     0
  0
CLASS
  1
LAYOUT
  2
AcDbLayout
  3
ObjectDBX Classes
 90
        0
280
     0
281
     0
  0
CLASS
  1
PLOTSETTINGS
  2
AcDbPlotSettings
  3
ObjectDBX Classes
 90
        0
280
     0
281
     0
  0
CLASS
  1
ACDBDICTIONARYWDFLT
  2
AcDbDictionaryWithDefault
  3
ObjectDBX Classes
 90
        0
280
     0
281
     0
  0
CLASS
  1
ACDBPLACEHOLDER
  2
AcDbPlaceHolder
  3
ObjectDBX Classes
 90
        0
280
     0
281
     0
  0
CLASS
  1
VBA_PROJECT
  2
AcDbVbaProject
  3
ObjectDBX Classes
 90
        0
280
     0
281
     0
  0
CLASS
  1
WIPEOUT
  2
AcDbWipeout
  3
WipeOut|AutoCAD Express Tool|expresstools@autodesk.com
 90
      127
280
     0
281
     1
  0
CLASS
  1
WIPEOUTVARIABLES
  2
AcDbWipeoutVariables
  3
WipeOut|AutoCAD Express Tool|expresstools@autodesk.com
 90
        0
280
     0
281
     0
  0
CLASS
  1
RTEXT
  2
RText
  3
RText|AutoCAD Express Tool|expresstools@autodesk.com
 90
        0
280
     0
281
     1
  0
CLASS
  1
ARCALIGNEDTEXT
  2
AcDbArcAlignedText
  3
ATEXT|AutoCAD Express Tool|expresstools@autodesk.com
 90
        0
280
     0
281
     1
  0
CLASS
  1
SCALE
  2
AcDbScale
  3
ObjectDBX Classes
 90
     1153
280
     0
281
     0
  0
CLASS
  1
VISUALSTYLE
  2
AcDbVisualStyle
  3
ObjectDBX Classes
 90
     4095
280
     0
281
     0
  0
CLASS
  1
MATERIAL
  2
AcDbMaterial
  3
ObjectDBX Classes
 90
     1153
280
     0
281
     0
  0
ENDSEC
  0
SECTION
  2
TABLES
  0
TABLE
  2
VPORT
  5
7
102
{ACAD_XDICTIONARY
360
3B2
102
}
330
0
100
AcDbSymbolTable
 70
     1
  0
VPORT
  5
15
330
7
100
AcDbSymbolTableRecord
100
AcDbViewportTableRecord
  2
*ACTIVE
 70
     0
 10
0.0
 20
0.0
 11
1.0
 21
1.0
 12
105.0
 22
148.5
 13
0.0
 23
0.0
 14
1.0
 24
1.0
 15
0.0
 25
0.0
 16
0.0
 26
0.0
 36
1.0
 17
0.0
 27
0.0
 37
0.0
 40
297.0
 41
1.4142857143
 42
50.0
 43
0.0
 44
0.0
 50
0.0
 51
0.0
 71
     0
 72
  2000
 73
     1
 74
     1
 75
     0
 76
     0
 77
     0
 78
     0
281
     0
 65
     1
110
0.0
120
0.0
130
0.0
111
1.0
121
0.0
131
0.0
112
0.0
122
1.0
132
0.0
 79
     0
146
0.0
  0
ENDTAB
  0
TABLE
  2
LTYPE
  5
4
330
0
100
AcDbSymbolTable
 70
     6
  0
LTYPE
  5
11
330
4
100
AcDbSymbolTableRecord
100
AcDbLinetypeTableRecord
  2
BYBLOCK
 70
     0
  3

 72
    65
 73
     0
 40
0.0
  0
LTYPE
  5
12
330
4
100
AcDbSymbolTableRecord
100
AcDbLinetypeTableRecord
  2
BYLAYER
 70
     0
  3

 72
    65
 73
     0
 40
0.0
  0
LTYPE
  5
13
330
4
100
AcDbSymbolTableRecord
100
AcDbLinetypeTableRecord
  2
CONTINUOUS
 70
     0
  3
Solid line
 72
    65
 73
     0
 40
0.0
  0
LTYPE
  5
1D
330
4
100
AcDbSymbolTableRecord
100
AcDbLinetypeTableRecord
  2
HIDDEN
 70
     0
  3
Hidden __ __ __ __ __ __ __ __ __ __ __ __ __ __
 72
    65
 73
     2
 40
1.905
 49
1.27
 74
     0
 49
-0.635
 74
     0
  0
LTYPE
  5
1E
330
4
100
AcDbSymbolTableRecord
100
AcDbLinetypeTableRecord
  2
PHANTOM
 70
     0
  3
Phantom ______  __  __  ______  __  __  ______
 72
    65
 73
     6
 40
12.7
 49
6.35
 74
     0
 49
-1.27
 74
     0
 49
1.27
 74
     0
 49
-1.27
 74
     0
 49
1.27
 74
     0
 49
-1.27
 74
     0
  0
LTYPE
  5
1F
330
4
100
AcDbSymbolTableRecord
100
AcDbLinetypeTableRecord
  2
CENTER
 70
     0
  3
Center ____ _ ____ _ ____ _ ____ _ ____ _ ____
 72
    65
 73
     4
 40
10.16
 49
6.35
 74
     0
 49
-1.27
 74
     0
 49
1.27
 74
     0
 49
-1.27
 74
     0
  0
LTYPE
  5
20
330
4
100
AcDbSymbolTableRecord
100
AcDbLinetypeTableRecord
  2
CENTERX2
 70
     0
  3
Center (2x) ________  __  ________  __  _____
 72
    65
 73
     4
 40
20.32
 49
12.7
 74
     0
 49
-2.54
 74
     0
 49
2.54
 74
     0
 49
-2.54
 74
     0
  0
LTYPE
  5
21
330
4
100
AcDbSymbolTableRecord
100
AcDbLinetypeTableRecord
  2
DOT2
 70
     0
  3
Dot (.5x) ........................................
 72
    65
 73
     2
 40
0.635
 49
0.0
 74
     0
 49
-0.635
 74
     0
  0
LTYPE
  5
3DC
330
5
100
AcDbSymbolTableRecord
100
AcDbLinetypeTableRecord
  2
DASH
 70
     0
  3
DASH _ _ _ _ _
 72
    65
 73
     2
 40
0.75
 49
0.40
 74
     0
 49
-0.35
 74
     0
  0
LTYPE
  5
3DD
330
5
100
AcDbSymbolTableRecord
100
AcDbLinetypeTableRecord
  2
LONGDASH_DASH
 70
     0
  3
LONGDASH_DASH __ . __ . __
 72
    65
 73
     4
 40
0.85
 49
0.40
 74
     0
 49
-0.20
 74
     0
 49
0.05
 74
     0
 49
-0.20
 74
     0
  0
LTYPE
  5
3DE
330
5
100
AcDbSymbolTableRecord
100
AcDbLinetypeTableRecord
  2
LONGDASH_DASH_DASH
 70
     0
  3
LONGDASH_DASH_DASH __ . . __ . . __
 72
    65
 73
     6
 40
1.10
 49
0.40
 74
     0
 49
-0.20
 74
     0
 49
0.05
 74
     0
 49
-0.20
 74
     0
 49
0.05
 74
     0
 49
-0.20
 74
     0
  0
ENDTAB
  0
TABLE
  2
LAYER
  5
2
330
0
100
AcDbSymbolTable
 70
     8
  0
LAYER
  5
23
330
2
100
AcDbSymbolTableRecord
100
AcDbLayerTableRecord
  2
DEFPOINTS
 70
     0
 62
     7
  6
CONTINUOUS
290
     0
370
    -3
390
0
  0
LAYER
  5
3DF
330
2
100
AcDbSymbolTableRecord
100
AcDbLayerTableRecord
  2
0
 70
     0
 62
     -1
  6
CONTINUOUS
370
    -3
390
F
  0
LAYER
  5
3E0
330
2
100
AcDbSymbolTableRecord
100
AcDbLayerTableRecord
  2
1
 70
     0
 62
     4
  6
CONTINUOUS
370
    50
390
F
  0
LAYER
  5
3E1
330
2
100
AcDbSymbolTableRecord
100
AcDbLayerTableRecord
  2
2
 70
     0
 62
     7
  6
CONTINUOUS
370
    25
390
F
  0
LAYER
  5
3E2
330
2
100
AcDbSymbolTableRecord
100
AcDbLayerTableRecord
  2
3
 70
     0
 62
     1
  6
DASH
370
    35
390
F
  0
LAYER
  5
3E3
330
2
100
AcDbSymbolTableRecord
100
AcDbLayerTableRecord
  2
4
 70
     0
 62
     2
  6
LONGDASH_DASH
370
    25
390
F
  0
LAYER
  5
3E4
330
2
100
AcDbSymbolTableRecord
100
AcDbLayerTableRecord
  2
6
 70
     0
 62
     5
  6
CONTINUOUS
370
    -3
390
F
  0
LAYER
  5
3E5
330
2
100
AcDbSymbolTableRecord
100
AcDbLayerTableRecord
  2
CUT
 70
     0
 62
     1
  6
CONTINUOUS
370
    25
390
F
  0
LAYER
  5
3E6
330
2
100
AcDbSymbolTableRecord
100
AcDbLayerTableRecord
  2
NOCUT
 70
     0
 62
     7
  6
CONTINUOUS
370
    25
390
F
  0
LAYER
  5
3E7
330
2
100
AcDbSymbolTableRecord
100
AcDbLayerTableRecord
  2
SK1
 70
     0
 62
     4
  6
CONTINUOUS
370
    50
390
F
  0
LAYER
  5
3E8
330
2
100
AcDbSymbolTableRecord
100
AcDbLayerTableRecord
  2
SK2
 70
     0
 62
     7
  6
CONTINUOUS
370
    25
390
F
  0
LAYER
  5
3E9
330
2
100
AcDbSymbolTableRecord
100
AcDbLayerTableRecord
  2
SK3
 70
     0
 62
     1
  6
DASH
370
    35
390
F
  0
LAYER
  5
3EA
330
2
100
AcDbSymbolTableRecord
100
AcDbLayerTableRecord
  2
SK4
 70
     0
 62
     2
  6
LONGDASH_DASH
370
    25
390
F
  0
LAYER
  5
3EB
330
2
100
AcDbSymbolTableRecord
100
AcDbLayerTableRecord
  2
SK6
 70
     0
 62
     5
  6
CONTINUOUS
370
    -3
390
F
  0
LAYER
  5
3EC
330
2
100
AcDbSymbolTableRecord
100
AcDbLayerTableRecord
  2
INFTOTAL
 70
     0
 62
     9
  6
CONTINUOUS
370
    18
390
F
  0
ENDTAB
  0
TABLE
  2
STYLE
  5
3
330
0
100
AcDbSymbolTable
 70
     2
  0
STYLE
  5
17
330
3
100
AcDbSymbolTableRecord
100
AcDbTextStyleTableRecord
  2
STANDARD
 70
     0
 40
0.0
 41
1.0
 50
0.0
 71
     0
 42
0.2
  3
txt
  4

  0
STYLE
  5
3AA
330
3
100
AcDbSymbolTableRecord
100
AcDbTextStyleTableRecord
  2
BMG_Text
 70
     0
 40
3.5
 41
1.0
 50
0.0
 71
     0
 42
0.0
  3
monos.ttf
  4

1001
ACAD
1000
Monospac821 BT
1071
       49
  0
ENDTAB
  0
TABLE
  2
VIEW
  5
5
330
0
100
AcDbSymbolTable
 70
     0
  0
ENDTAB
  0
TABLE
  2
UCS
  5
6
330
0
100
AcDbSymbolTable
 70
     0
  0
ENDTAB
  0
TABLE
  2
APPID
  5
8
330
0
100
AcDbSymbolTable
 70
     1
  0
APPID
  5
16
330
8
100
AcDbSymbolTableRecord
100
AcDbRegAppTableRecord
  2
ACAD
 70
     0
  0
ENDTAB
  0
TABLE
  2
DIMSTYLE
  5
9
330
0
100
AcDbSymbolTable
 70
     1
100
AcDbDimStyleTable
  0
DIMSTYLE
105
18
330
9
100
AcDbSymbolTableRecord
100
AcDbDimStyleTableRecord
  2
STANDARD
 70
     0
178
     0
340
17
  0
ENDTAB
  0
TABLE
  2
BLOCK_RECORD
  5
1
330
0
100
AcDbSymbolTable
 70
     0
  0
BLOCK_RECORD
  5
A
330
1
100
AcDbSymbolTableRecord
100
AcDbBlockTableRecord
  2
*MODEL_SPACE
340
393
  0
BLOCK_RECORD
  5
B
330
1
100
AcDbSymbolTableRecord
100
AcDbBlockTableRecord
  2
*PAPER_SPACE
340
394
  0
ENDTAB
  0
ENDSEC
  0
SECTION
  2
BLOCKS
  0
BLOCK
  5
D
330
A
100
AcDbEntity
  8
0
100
AcDbBlockBegin
  2
*MODEL_SPACE
 70
     0
 10
0.0
 20
0.0
 30
0.0
  3
*MODEL_SPACE
  1

  0
ENDBLK
  5
E
330
A
100
AcDbEntity
  8
0
100
AcDbBlockEnd
  0
BLOCK
  5
F
330
B
100
AcDbEntity
 67
     1
  8
0
100
AcDbBlockBegin
  2
*PAPER_SPACE
 70
     0
 10
0.0
 20
0.0
 30
0.0
  3
*PAPER_SPACE
  1

  0
ENDBLK
  5
10
330
B
100
AcDbEntity
 67
     1
  8
0
100
AcDbBlockEnd
  0
ENDSEC
  0
SECTION
  2
ENTITIES
  0
ARC
  5
29
330
A
100
AcDbEntity
  8
1
  6
CONTINUOUS
370
    50
100
AcDbCircle
 10
73.2791424461
 20
137.0327263633
 30
0.0
 40
0.5
100
AcDbArc
 50
66.4218215218
 51
90.0
  0
ARC
  5
2A
330
A
100
AcDbEntity
  8
1
  6
CONTINUOUS
370
    50
100
AcDbCircle
 10
73.2791424461
 20
207.2827263633
 30
0.0
 40
0.5
100
AcDbArc
 50
270.0
 51
293.5781784782001
  0
LINE
  5
2B
330
A
100
AcDbEntity
  8
1
  6
CONTINUOUS
370
    50
100
AcDbLine
 10
71.9791424461
 20
137.2327263633
 30
0.0
 11
72.5220327227
 21
137.4858802568
 31
0.0
  0
LINE
  5
2C
330
A
100
AcDbEntity
  8
1
  6
CONTINUOUS
370
    50
100
AcDbLine
 10
72.5220327227
 20
206.8295724697
 30
0.0
 11
71.9791424461
 21
207.0827263633
 31
0.0
  0
LINE
  5
2D
330
A
100
AcDbEntity
  8
1
  6
CONTINUOUS
370
    50
100
AcDbLine
 10
71.9791424461
 20
207.0827263633
 30
0.0
 11
-27.7675174898
 21
192.5363384559
 31
0.0
  0
LINE
  5
2E
330
A
100
AcDbEntity
  8
1
  6
CONTINUOUS
370
    50
100
AcDbLine
 10
-27.7675174898
 20
151.7791142706
 30
0.0
 11
71.9791424461
 21
137.2327263633
 31
0.0
  0
LINE
  5
2F
330
A
100
AcDbEntity
  8
1
  6
CONTINUOUS
370
    50
100
AcDbLine
 10
72.7333418536
 20
137.5327263633
 30
0.0
 11
73.2791424461
 21
137.5327263633
 31
0.0
  0
LINE
  5
30
330
A
100
AcDbEntity
  8
1
  6
CONTINUOUS
370
    50
100
AcDbLine
 10
73.2791424461
 20
206.7827263633
 30
0.0
 11
72.7333418536
 21
206.7827263633
 31
0.0
  0
ARC
  5
31
330
A
100
AcDbEntity
  8
1
  6
CONTINUOUS
370
    50
100
AcDbCircle
 10
96.0291424461
 20
142.2077263633
 30
0.0
 40
5.0
100
AcDbArc
 50
81.890385544
 51
180.0
  0
ARC
  5
32
330
A
100
AcDbEntity
  8
1
  6
CONTINUOUS
370
    50
100
AcDbCircle
 10
96.0291424461
 20
202.1077263633
 30
0.0
 40
5.0
100
AcDbArc
 50
180.0
 51
278.109614456
  0
LINE
  5
33
330
A
100
AcDbEntity
  8
1
  6
CONTINUOUS
370
    50
100
AcDbLine
 10
96.7344792451
 20
147.1577263633
 30
0.0
 11
117.5985561093
 21
147.1577263633
 31
0.0
  0
LINE
  5
34
330
A
100
AcDbEntity
  8
1
  6
CONTINUOUS
370
    50
100
AcDbLine
 10
117.5985561093
 20
197.1577263633
 30
0.0
 11
96.7344792451
 21
197.1577263633
 31
0.0
  0
LINE
  5
35
330
A
100
AcDbEntity
  8
1
  6
CONTINUOUS
370
    50
100
AcDbLine
 10
117.5985561093
 20
147.1577263633
 30
0.0
 11
174.8012211333
 21
151.1577263633
 31
0.0
  0
LINE
  5
36
330
A
100
AcDbEntity
  8
1
  6
CONTINUOUS
370
    50
100
AcDbLine
 10
174.8012211333
 20
193.1577263633
 30
0.0
 11
117.5985561093
 21
197.1577263633
 31
0.0
  0
LINE
  5
37
330
A
100
AcDbEntity
  8
1
  6
CONTINUOUS
370
    50
100
AcDbLine
 10
174.8012211333
 20
151.1577263633
 30
0.0
 11
230.9460143421
 21
155.5764174181
 31
0.0
  0
LINE
  5
38
330
A
100
AcDbEntity
  8
1
  6
CONTINUOUS
370
    50
100
AcDbLine
 10
230.9460143421
 20
188.7390353084
 30
0.0
 11
174.8012211333
 21
193.1577263633
 31
0.0
  0
ARC
  5
39
330
A
100
AcDbEntity
  8
1
  6
CONTINUOUS
370
    50
100
AcDbCircle
 10
-27.3708575539
 20
153.9950679369
 30
0.0
 40
2.25
100
AcDbArc
 50
180.0
 51
258.0
  0
ARC
  5
3A
330
A
100
AcDbEntity
  8
1
  6
CONTINUOUS
370
    50
100
AcDbCircle
 10
-27.3708575539
 20
190.3203847896
 30
0.0
 40
2.25
100
AcDbArc
 50
102.0
 51
180.0
  0
ARC
  5
3B
330
A
100
AcDbEntity
  8
1
  6
CONTINUOUS
370
    50
100
AcDbCircle
 10
229.9791424461
 20
157.3271768924
 30
0.0
 40
2.0
100
AcDbArc
 50
298.9100507074
 51
0.0
  0
ARC
  5
3C
330
A
100
AcDbEntity
  8
1
  6
CONTINUOUS
370
    50
100
AcDbCircle
 10
229.9791424461
 20
186.9882758342
 30
0.0
 40
2.0
100
AcDbArc
 50
0.0
 51
61.0899492926
  0
LINE
  5
3D
330
A
100
AcDbEntity
  8
1
  6
CONTINUOUS
370
    50
100
AcDbLine
 10
73.4791424461
 20
126.3412650748
 30
0.0
 11
73.4791424461
 21
202.0077263633
 31
0.0
  0
LINE
  5
3E
330
A
100
AcDbEntity
  8
1
  6
CONTINUOUS
370
    50
100
AcDbLine
 10
73.4791424461
 20
202.0077263633
 30
0.0
 11
73.9791424461
 21
202.0077263633
 31
0.0
  0
LINE
  5
3F
330
A
100
AcDbEntity
  8
1
  6
CONTINUOUS
370
    50
100
AcDbLine
 10
73.9791424461
 20
202.0077263633
 30
0.0
 11
73.9791424461
 21
125.6558648414
 31
0.0
  0
LINE
  5
40
330
A
100
AcDbEntity
  8
1
  6
CONTINUOUS
370
    50
100
AcDbLine
 10
73.9791424461
 20
125.6558648414
 30
0.0
 11
73.4791424461
 21
126.3412650748
 31
0.0
  0
LINE
  5
41
330
A
100
AcDbEntity
  8
1
  6
CONTINUOUS
370
    50
100
AcDbLine
 10
79.8459809387
 20
125.3983890611
 30
0.0
 11
79.8459809387
 21
202.0077263633
 31
0.0
  0
LINE
  5
42
330
A
100
AcDbEntity
  8
1
  6
CONTINUOUS
370
    50
100
AcDbLine
 10
74.8291424439
 20
125.3983890611
 30
0.0
 11
79.8459809387
 21
125.3983890611
 31
0.0
  0
LINE
  5
43
330
A
100
AcDbEntity
  8
1
  6
CONTINUOUS
370
    50
100
AcDbLine
 10
73.9791424461
 20
125.6558648414
 30
0.0
 11
74.8291424439
 21
125.3983890611
 31
0.0
  0
LINE
  5
44
330
A
100
AcDbEntity
  8
1
  6
CONTINUOUS
370
    50
100
AcDbLine
 10
79.8459809387
 20
202.0077263633
 30
0.0
 11
73.9791424461
 21
202.0077263633
 31
0.0
  0
LINE
  5
45
330
A
100
AcDbEntity
  8
1
  6
CONTINUOUS
370
    50
100
AcDbLine
 10
81.1541424461
 20
202.0077263633
 30
0.0
 11
79.8459809387
 21
202.0077263633
 31
0.0
  0
LINE
  5
46
330
A
100
AcDbEntity
  8
1
  6
CONTINUOUS
370
    50
100
AcDbLine
 10
81.1541424461
 20
127.5109508846
 30
0.0
 11
81.1541424461
 21
202.0077263633
 31
0.0
  0
LWPOLYLINE
  5
47
330
A
100
AcDbEntity
  8
1
  6
CONTINUOUS
370
    50
100
AcDbPolyline
 90
        3
 70
   128
 43
0.0
 10
80.4529003527
 20
126.2483890633
 10
80.500212517
 20
126.3334913728
 10
81.1541424461
 20
127.5109508846
  0
LINE
  5
4C
330
A
100
AcDbEntity
  8
1
  6
CONTINUOUS
370
    50
100
AcDbLine
 10
79.8459809387
 20
125.3983890611
 30
0.0
 11
80.4529003527
 21
126.2483890633
 31
0.0
  0
LINE
  5
4D
330
A
100
AcDbEntity
  8
1
  6
CONTINUOUS
370
    50
100
AcDbLine
 10
90.5291424461
 20
125.3983890611
 30
0.0
 11
90.5291424461
 21
202.0077263633
 31
0.0
  0
LINE
  5
4E
330
A
100
AcDbEntity
  8
1
  6
CONTINUOUS
370
    50
100
AcDbLine
 10
90.5291424461
 20
202.0077263633
 30
0.0
 11
91.0291424461
 21
202.0077263633
 31
0.0
  0
LINE
  5
4F
330
A
100
AcDbEntity
  8
1
  6
CONTINUOUS
370
    50
100
AcDbLine
 10
91.0291424461
 20
202.0077263633
 30
0.0
 11
91.0291424461
 21
125.8019723714
 31
0.0
  0
LINE
  5
50
330
A
100
AcDbEntity
  8
1
  6
CONTINUOUS
370
    50
100
AcDbLine
 10
91.0291424461
 20
125.8019723714
 30
0.0
 11
90.5291424461
 21
125.3983890611
 31
0.0
  0
LINE
  5
51
330
A
100
AcDbEntity
  8
1
  6
CONTINUOUS
370
    50
100
AcDbLine
 10
85.0041424461
 20
202.0077263633
 30
0.0
 11
85.0041424461
 21
127.5109508846
 31
0.0
  0
LINE
  5
52
330
A
100
AcDbEntity
  8
1
  6
CONTINUOUS
370
    50
100
AcDbLine
 10
86.3123039536
 20
202.0077263633
 30
0.0
 11
85.0041424461
 21
202.0077263633
 31
0.0
  0
LINE
  5
53
330
A
100
AcDbEntity
  8
1
  6
CONTINUOUS
370
    50
100
AcDbLine
 10
86.3123039536
 20
202.0077263633
 30
0.0
 11
86.3123039536
 21
125.3983890611
 31
0.0
  0
LINE
  5
54
330
A
100
AcDbEntity
  8
1
  6
CONTINUOUS
370
    50
100
AcDbLine
 10
85.7053845396
 20
126.2483890633
 30
0.0
 11
86.3123039536
 21
125.3983890611
 31
0.0
  0
LINE
  5
55
330
A
100
AcDbEntity
  8
1
  6
CONTINUOUS
370
    50
100
AcDbLine
 10
85.0041424461
 20
127.5109508846
 30
0.0
 11
85.7053845396
 21
126.2483890633
 31
0.0
  0
LINE
  5
56
330
A
100
AcDbEntity
  8
1
  6
CONTINUOUS
370
    50
100
AcDbLine
 10
90.5291424461
 20
202.0077263633
 30
0.0
 11
86.3123039536
 21
202.0077263633
 31
0.0
  0
LINE
  5
57
330
A
100
AcDbEntity
  8
1
  6
CONTINUOUS
370
    50
100
AcDbLine
 10
86.3123039536
 20
125.3983890611
 30
0.0
 11
90.5291424461
 21
125.3983890611
 31
0.0
  0
ARC
  5
58
330
A
100
AcDbEntity
  8
1
  6
CONTINUOUS
370
    50
100
AcDbCircle
 10
81.6656239634
 20
127.9985186427
 30
0.0
 40
0.5115703146
100
AcDbArc
 50
91.28603577269999
 51
181.0675571357
  0
LINE
  5
59
330
A
100
AcDbEntity
  8
1
  6
CONTINUOUS
370
    50
100
AcDbLine
 10
81.1541424461
 20
202.0077263633
 30
0.0
 11
81.6541424461
 21
202.0077263633
 31
0.0
  0
LINE
  5
5A
330
A
100
AcDbEntity
  8
1
  6
CONTINUOUS
370
    50
100
AcDbLine
 10
81.6541424461
 20
202.0077263633
 30
0.0
 11
81.6541424461
 21
128.5099600974
 31
0.0
  0
ARC
  5
5B
330
A
100
AcDbEntity
  8
1
  6
CONTINUOUS
370
    50
100
AcDbCircle
 10
84.4942495202
 20
128.0000432825
 30
0.0
 40
0.5100127724
100
AcDbArc
 50
358.7578664212
 51
88.8885406704
  0
LINE
  5
5C
330
A
100
AcDbEntity
  8
1
  6
CONTINUOUS
370
    50
100
AcDbLine
 10
84.5041424461
 20
202.0077263633
 30
0.0
 11
84.5041424461
 21
128.5099600974
 31
0.0
  0
LINE
  5
5D
330
A
100
AcDbEntity
  8
1
  6
CONTINUOUS
370
    50
100
AcDbLine
 10
84.5041424461
 20
202.0077263633
 30
0.0
 11
85.0041424461
 21
202.0077263633
 31
0.0
  0
LINE
  5
5E
330
A
100
AcDbEntity
  8
1
  6
CONTINUOUS
370
    50
100
AcDbLine
 10
84.5041424461
 20
128.5099600974
 30
0.0
 11
81.6541424461
 21
128.5099600974
 31
0.0
  0
LINE
  5
5F
330
A
100
AcDbEntity
  8
1
  6
CONTINUOUS
370
    50
100
AcDbLine
 10
81.6541424461
 20
202.0077263633
 30
0.0
 11
84.5041424461
 21
202.0077263633
 31
0.0
  0
LINE
  5
60
330
A
100
AcDbEntity
  8
1
  6
CONTINUOUS
370
    50
100
AcDbLine
 10
71.9791424461
 20
137.2327263633
 30
0.0
 11
71.9791424461
 21
207.0827263633
 31
0.0
  0
LINE
  5
61
330
A
100
AcDbEntity
  8
1
  6
CONTINUOUS
370
    50
100
AcDbLine
 10
-27.7675174898
 20
192.5363384559
 30
0.0
 11
-27.7675174898
 21
151.7791142706
 31
0.0
  0
LINE
  5
62
330
A
100
AcDbEntity
  8
1
  6
CONTINUOUS
370
    50
100
AcDbLine
 10
96.7344792451
 20
147.1577263633
 30
0.0
 11
96.7344792451
 21
197.1577263633
 31
0.0
  0
LINE
  5
63
330
A
100
AcDbEntity
  8
1
  6
CONTINUOUS
370
    50
100
AcDbLine
 10
79.8459809387
 20
210.6688043149
 30
0.0
 11
81.1541424461
 21
207.7587735479
 31
0.0
  0
LINE
  5
64
330
A
100
AcDbEntity
  8
1
  6
CONTINUOUS
370
    50
100
AcDbLine
 10
81.1541424461
 20
207.1574049332
 30
0.0
 11
81.1541424461
 21
207.7587735479
 31
0.0
  0
ARC
  5
65
330
A
100
AcDbEntity
  8
1
  6
CONTINUOUS
370
    50
100
AcDbCircle
 10
81.7508879915
 20
207.0902737147
 30
0.0
 40
0.6005096556
100
AcDbArc
 50
173.5814650334
 51
260.7289175414999
  0
LINE
  5
66
330
A
100
AcDbEntity
  8
1
  6
CONTINUOUS
370
    50
100
AcDbLine
 10
84.5041424461
 20
206.4976084248
 30
0.0
 11
81.6541424461
 21
206.4976084248
 31
0.0
  0
ARC
  5
67
330
A
100
AcDbEntity
  8
1
  6
CONTINUOUS
370
    50
100
AcDbCircle
 10
84.4390685235
 20
207.0662726611
 30
0.0
 40
0.5723754266
100
AcDbArc
 50
276.5281284852
 51
9.1614889399
  0
LINE
  5
68
330
A
100
AcDbEntity
  8
1
  6
CONTINUOUS
370
    50
100
AcDbLine
 10
85.0041424461
 20
207.7587735479
 30
0.0
 11
85.0041424461
 21
207.1574049332
 31
0.0
  0
LWPOLYLINE
  5
69
330
A
100
AcDbEntity
  8
1
  6
CONTINUOUS
370
    50
100
AcDbPolyline
 90
        3
 70
   128
 43
0.0
 10
85.0041424461
 20
207.7587735479
 10
85.0924419965
 20
207.9581289609
 10
86.3123039536
 20
210.6688043149
  0
LINE
  5
6E
330
A
100
AcDbEntity
  8
1
  6
CONTINUOUS
370
    50
100
AcDbLine
 10
86.3123039536
 20
210.6688043149
 30
0.0
 11
90.5291424461
 21
210.6688043149
 31
0.0
  0
LINE
  5
6F
330
A
100
AcDbEntity
  8
1
  6
CONTINUOUS
370
    50
100
AcDbLine
 10
91.0291424461
 20
210.0342114827
 30
0.0
 11
90.5291424461
 21
210.6688043149
 31
0.0
  0
LINE
  5
70
330
A
100
AcDbEntity
  8
1
  6
CONTINUOUS
370
    50
100
AcDbLine
 10
73.9791424461
 20
210.6688043149
 30
0.0
 11
73.4791424461
 21
210.0342114827
 31
0.0
  0
LINE
  5
71
330
A
100
AcDbEntity
  8
1
  6
CONTINUOUS
370
    50
100
AcDbLine
 10
73.9791424461
 20
210.6688043149
 30
0.0
 11
79.8459809387
 21
210.6688043149
 31
0.0
  0
LINE
  5
72
330
A
100
AcDbEntity
  8
1
  6
CONTINUOUS
370
    50
100
AcDbLine
 10
73.4791424461
 20
210.0342114827
 30
0.0
 11
73.4791424461
 21
202.0077263633
 31
0.0
  0
LINE
  5
73
330
A
100
AcDbEntity
  8
1
  6
CONTINUOUS
370
    50
100
AcDbLine
 10
91.0291424461
 20
210.0342114827
 30
0.0
 11
91.0291424461
 21
202.0077263633
 31
0.0
  0
LINE
  5
74
330
A
100
AcDbEntity
  8
1
  6
CONTINUOUS
370
    50
100
AcDbLine
 10
84.5041424461
 20
215.8054926291
 30
0.0
 11
84.5041424461
 21
206.4976084248
 31
0.0
  0
LINE
  5
75
330
A
100
AcDbEntity
  8
1
  6
CONTINUOUS
370
    50
100
AcDbLine
 10
81.6541424461
 20
215.8054926291
 30
0.0
 11
81.6541424461
 21
206.4976084248
 31
0.0
  0
LINE
  5
76
330
A
100
AcDbEntity
  8
1
  6
CONTINUOUS
370
    50
100
AcDbLine
 10
84.5041424461
 20
215.8054926291
 30
0.0
 11
81.6541424461
 21
215.8054926291
 31
0.0
  0
ARC
  5
77
330
A
100
AcDbEntity
  8
1
  6
CONTINUOUS
370
    50
100
AcDbCircle
 10
84.4965832344
 20
216.3131696776
 30
0.0
 40
0.5077333229
100
AcDbArc
 50
270.8530598847
 51
1.5005330237
  0
ARC
  5
78
330
A
100
AcDbEntity
  8
1
  6
CONTINUOUS
370
    50
100
AcDbCircle
 10
81.6633796194
 20
216.3147800898
 30
0.0
 40
0.5093712232
100
AcDbArc
 50
178.685492207
 51
268.9609148846
  0
LINE
  5
79
330
A
100
AcDbEntity
  8
1
  6
CONTINUOUS
370
    50
100
AcDbLine
 10
85.0041424461
 20
216.804501842
 30
0.0
 11
85.7053845396
 21
218.0670636633
 31
0.0
  0
LINE
  5
7A
330
A
100
AcDbEntity
  8
1
  6
CONTINUOUS
370
    50
100
AcDbLine
 10
86.3123039536
 20
218.9170636655
 30
0.0
 11
85.7053845396
 21
218.0670636633
 31
0.0
  0
LINE
  5
7B
330
A
100
AcDbEntity
  8
1
  6
CONTINUOUS
370
    50
100
AcDbLine
 10
86.3123039536
 20
218.9170636655
 30
0.0
 11
86.3123039536
 21
210.6688043149
 31
0.0
  0
LINE
  5
7C
330
A
100
AcDbEntity
  8
1
  6
CONTINUOUS
370
    50
100
AcDbLine
 10
85.0041424461
 20
216.804501842
 30
0.0
 11
85.0041424461
 21
207.7587735479
 31
0.0
  0
LINE
  5
7D
330
A
100
AcDbEntity
  8
1
  6
CONTINUOUS
370
    50
100
AcDbLine
 10
81.1541424461
 20
207.7587735479
 30
0.0
 11
81.1541424461
 21
216.804501842
 31
0.0
  0
LINE
  5
7E
330
A
100
AcDbEntity
  8
1
  6
CONTINUOUS
370
    50
100
AcDbLine
 10
79.8459809387
 20
210.6688043149
 30
0.0
 11
79.8459809387
 21
218.9170636655
 31
0.0
  0
LINE
  5
7F
330
A
100
AcDbEntity
  8
1
  6
CONTINUOUS
370
    50
100
AcDbLine
 10
80.4529003527
 20
218.0670636633
 30
0.0
 11
79.8459809387
 21
218.9170636655
 31
0.0
  0
LINE
  5
80
330
A
100
AcDbEntity
  8
1
  6
CONTINUOUS
370
    50
100
AcDbLine
 10
80.4529003527
 20
218.0670636633
 30
0.0
 11
81.1541424461
 21
216.804501842
 31
0.0
  0
LINE
  5
81
330
A
100
AcDbEntity
  8
1
  6
CONTINUOUS
370
    50
100
AcDbLine
 10
73.4791424461
 20
217.9741876518
 30
0.0
 11
73.9791424461
 21
218.6595878851
 31
0.0
  0
LINE
  5
82
330
A
100
AcDbEntity
  8
1
  6
CONTINUOUS
370
    50
100
AcDbLine
 10
73.9791424461
 20
218.6595878851
 30
0.0
 11
73.9791424461
 21
210.6688043149
 31
0.0
  0
LINE
  5
83
330
A
100
AcDbEntity
  8
1
  6
CONTINUOUS
370
    50
100
AcDbLine
 10
73.4791424461
 20
210.0342114827
 30
0.0
 11
73.4791424461
 21
217.9741876518
 31
0.0
  0
LINE
  5
84
330
A
100
AcDbEntity
  8
1
  6
CONTINUOUS
370
    50
100
AcDbLine
 10
90.5291424461
 20
210.6688043149
 30
0.0
 11
90.5291424461
 21
218.9170636655
 31
0.0
  0
LINE
  5
85
330
A
100
AcDbEntity
  8
1
  6
CONTINUOUS
370
    50
100
AcDbLine
 10
90.5291424461
 20
218.9170636655
 30
0.0
 11
91.0291424461
 21
218.5134803551
 31
0.0
  0
LINE
  5
86
330
A
100
AcDbEntity
  8
1
  6
CONTINUOUS
370
    50
100
AcDbLine
 10
91.0291424461
 20
218.5134803551
 30
0.0
 11
91.0291424461
 21
210.0342114827
 31
0.0
  0
LINE
  5
87
330
A
100
AcDbEntity
  8
1
  6
CONTINUOUS
370
    50
100
AcDbLine
 10
90.5291424461
 20
218.9170636655
 30
0.0
 11
86.3123039536
 21
218.9170636655
 31
0.0
  0
LINE
  5
88
330
A
100
AcDbEntity
  8
1
  6
CONTINUOUS
370
    50
100
AcDbLine
 10
79.8459809387
 20
218.9170636655
 30
0.0
 11
74.8291424439
 21
218.9170636655
 31
0.0
  0
LINE
  5
89
330
A
100
AcDbEntity
  8
1
  6
CONTINUOUS
370
    50
100
AcDbLine
 10
73.9791424461
 20
218.6595878851
 30
0.0
 11
74.8291424439
 21
218.9170636655
 31
0.0
  0
LINE
  5
8A
330
A
100
AcDbEntity
  8
1
  6
CONTINUOUS
370
    50
100
AcDbLine
 10
117.5985561093
 20
147.1577263633
 30
0.0
 11
117.5985561093
 21
197.1577263633
 31
0.0
  0
LINE
  5
8B
330
A
100
AcDbEntity
  8
1
  6
CONTINUOUS
370
    50
100
AcDbLine
 10
174.8012211333
 20
151.1577263633
 30
0.0
 11
174.8012211333
 21
193.1577263633
 31
0.0
  0
LINE
  5
8C
330
A
100
AcDbEntity
  8
1
  6
CONTINUOUS
370
    50
100
AcDbLine
 10
230.9460143421
 20
188.7390353084
 30
0.0
 11
230.9460143421
 21
155.5764174181
 31
0.0
  0
LINE
  5
8D
330
A
100
AcDbEntity
  8
1
  6
CONTINUOUS
370
    50
100
AcDbLine
 10
-29.6208575539
 20
153.9950679551
 30
0.0
 11
-29.6208575539
 21
190.3203847896
 31
0.0
  0
LINE
  5
8E
330
A
100
AcDbEntity
  8
1
  6
CONTINUOUS
370
    50
100
AcDbLine
 10
231.9791424461
 20
157.3271768927
 30
0.0
 11
231.9791424461
 21
186.9882758342
 31
0.0
  0
LINE
  5
8F
330
A
100
AcDbEntity
  8
1
  6
CONTINUOUS
370
    50
100
AcDbLine
 10
73.2791424461
 20
137.5327263633
 30
0.0
 11
73.2791424461
 21
206.7827263633
 31
0.0
  0
LINE
  5
90
330
A
100
AcDbEntity
  8
1
  6
CONTINUOUS
370
    50
100
AcDbLine
 10
72.5220327227
 20
137.4858802568
 30
0.0
 11
72.5220327227
 21
206.8295724697
 31
0.0
  0
LINE
  5
91
330
A
100
AcDbEntity
  8
1
  6
CONTINUOUS
370
    50
100
AcDbLine
 10
72.7333418536
 20
137.5327263633
 30
0.0
 11
72.7333418536
 21
206.7827263633
 31
0.0
  0
LINE
  5
92
330
A
100
AcDbEntity
  8
1
  6
CONTINUOUS
370
    50
100
AcDbLine
 10
-27.8386588582
 20
151.7942358353
 30
0.0
 11
-27.8386588582
 21
192.5212168913
 31
0.0
  0
LWPOLYLINE
  5
93
330
A
100
AcDbEntity
  8
1
  6
CONTINUOUS
370
    50
100
AcDbPolyline
 90
       23
 70
   128
 43
0.0
 10
90.2016950557
 20
158.4923563447
 10
90.010028606
 20
157.7777727747
 10
89.7034697775
 20
157.1210805157
 10
89.3068541434
 20
156.5754808691
 10
88.8523131435
 20
156.1851750735
 10
88.3766709865
 20
155.9817833831
 10
87.918461371
 20
155.9817833831
 10
87.5148057151
 20
156.1851750735
 10
87.1984057993
 20
156.5754808691
 10
86.9948944632
 20
157.1210805157
 10
86.9207589849
 20
157.7777727747
 10
86.98200538
 20
158.4923563447
 10
87.1736718296
 20
159.2069399147
 10
87.4802306581
 20
159.8636321737
 10
87.8768462922
 20
160.4092318203
 10
88.3313872921
 20
160.7995376159
 10
88.8070294492
 20
161.0029293063
 10
89.2652390647
 20
161.0029293063
 10
89.6688947206
 20
160.7995376159
 10
89.9852946363
 20
160.4092318203
 10
90.1888059724
 20
159.8636321737
 10
90.2629414507
 20
159.2069399147
 10
90.2016950557
 20
158.4923563447
  0
LWPOLYLINE
  5
AC
330
A
100
AcDbEntity
  8
1
  6
CONTINUOUS
370
    50
100
AcDbPolyline
 90
       26
 70
   128
 43
0.0
 10
82.0932297891
 20
159.9274074229
 10
82.0985694301
 20
159.4129052531
 10
82.0929828178
 20
158.9592997936
 10
82.0754658308
 20
158.6109140955
 10
82.0357493122
 20
158.3593697324
 10
81.9298027454
 20
158.2428045855
 10
81.8084514031
 20
158.256504532
 10
81.6404246523
 20
158.3025689998
 10
81.3992002637
 20
158.3718435236
 10
80.9900639102
 20
158.4970702589
 10
80.1497224406
 20
158.8646612484
 10
79.5511670255
 20
159.3304894874
 10
79.2578308898
 20
159.7590046455
 10
79.146562249
 20
160.1729471712
 10
79.1913723129
 20
160.5965616034
 10
79.3703086189
 20
160.9676077933
 10
79.8056914737
 20
161.4118193344
 10
80.6160630115
 20
161.8170236164
 10
81.1449318016
 20
161.9245168516
 10
81.4609479709
 20
161.9180640393
 10
81.674281909
 20
161.8504003022
 10
81.8216707641
 20
161.7265407654
 10
81.9648405716
 20
161.4086756736
 10
82.0558906952
 20
160.7730580956
 10
82.0866404482
 20
160.177406816
 10
82.0932297891
 20
159.9274074229
  0
LWPOLYLINE
  5
C8
330
A
100
AcDbEntity
  8
1
  6
CONTINUOUS
370
    50
100
AcDbPolyline
 90
       21
 70
   128
 43
0.0
 10
89.5090872884
 20
158.6022794999
 10
89.3334186289
 20
157.9692203348
 10
89.0476672029
 20
157.3981294115
 10
88.6798043508
 20
156.9449090887
 10
88.2658390516
 20
156.6539237293
 10
87.8462931131
 20
156.5536570078
 10
87.4622346149
 20
156.6539237293
 10
87.1512578786
 20
156.9449090887
 10
86.9438034741
 20
157.3981294115
 10
86.8601784837
 20
157.9692203348
 10
86.9085687041
 20
158.6022794999
 10
87.0842373636
 20
159.235338665
 10
87.3699887896
 20
159.8064295883
 10
87.7378516417
 20
160.2596499111
 10
88.1518169409
 20
160.5506352704
 10
88.5713628794
 20
160.650901992
 10
88.9554213777
 20
160.5506352704
 10
89.2663981139
 20
160.2596499111
 10
89.4738525184
 20
159.8064295883
 10
89.5574775088
 20
159.235338665
 10
89.5090872884
 20
158.6022794999
  0
LWPOLYLINE
  5
DF
330
A
100
AcDbEntity
  8
1
  6
CONTINUOUS
370
    50
100
AcDbPolyline
 90
       21
 70
   128
 43
0.0
 10
80.3242144154
 20
161.2382367615
 10
80.1485457559
 20
160.6051775964
 10
79.8627943299
 20
160.0340866731
 10
79.4949314778
 20
159.5808663503
 10
79.0809661786
 20
159.289880991
 10
78.6614202401
 20
159.1896142694
 10
78.2773617419
 20
159.289880991
 10
77.9663850056
 20
159.5808663503
 10
77.7589306011
 20
160.0340866731
 10
77.6753056107
 20
160.6051775964
 10
77.7236958311
 20
161.2382367615
 10
77.8993644906
 20
161.8712959266
 10
78.1851159166
 20
162.4423868499
 10
78.5529787688
 20
162.8956071727
 10
78.9669440679
 20
163.186592532
 10
79.3864900064
 20
163.2868592536
 10
79.7705485047
 20
163.186592532
 10
80.0815252409
 20
162.8956071727
 10
80.2889796454
 20
162.4423868499
 10
80.3726046358
 20
161.8712959266
 10
80.3242144154
 20
161.2382367615
  0
LINE
  5
F6
330
A
100
AcDbEntity
  8
1
  6
CONTINUOUS
370
    50
100
AcDbLine
 10
73.7322963396
 20
136.8577263633
 30
0.0
 11
73.7322963396
 21
208.4003853946
 31
0.0
  0
LINE
  5
F7
330
A
100
AcDbEntity
  8
1
  6
CONTINUOUS
370
    50
100
AcDbLine
 10
73.7791424461
 20
136.8577263633
 30
0.0
 11
73.7791424461
 21
208.1890762637
 31
0.0
  0
LWPOLYLINE
  5
F8
330
A
100
AcDbEntity
  8
1
  6
CONTINUOUS
370
    50
100
AcDbPolyline
 90
       23
 70
   128
 43
0.0
 10
80.5642224075
 20
161.2404352246
 10
80.3799277444
 20
160.5533356381
 10
80.0851596401
 20
159.9219007737
 10
79.7037984535
 20
159.3972857289
 10
79.2667397997
 20
159.0219916946
 10
78.8093915717
 20
158.8264227615
 10
78.368805403
 20
158.8264227615
 10
77.9806749646
 20
159.0219916946
 10
77.6764442764
 20
159.3972857289
 10
77.4807602994
 20
159.9219007737
 10
77.4094761857
 20
160.5533356381
 10
77.4683669501
 20
161.2404352246
 10
77.6526616133
 20
161.9275348112
 10
77.9474297175
 20
162.5589696755
 10
78.3287909042
 20
163.0835847203
 10
78.7658495579
 20
163.4588787546
 10
79.2231977859
 20
163.6544476877
 10
79.6637839546
 20
163.6544476877
 10
80.051914393
 20
163.4588787546
 10
80.3561450812
 20
163.0835847203
 10
80.5518290582
 20
162.5589696755
 10
80.623113172
 20
161.9275348112
 10
80.5642224075
 20
161.2404352246
  0
LWPOLYLINE
  5
111
330
A
100
AcDbEntity
  8
1
  6
CONTINUOUS
370
    50
100
AcDbPolyline
 90
       23
 70
   128
 43
0.0
 10
80.571882852
 20
161.2382367615
 10
80.3875881888
 20
160.551137175
 10
80.0928200845
 20
159.9197023106
 10
79.7114588979
 20
159.3950872658
 10
79.2744002442
 20
159.0197932315
 10
78.8170520162
 20
158.8242242984
 10
78.3764658474
 20
158.8242242984
 10
77.9883354091
 20
159.0197932315
 10
77.6841047209
 20
159.3950872658
 10
77.4884207439
 20
159.9197023106
 10
77.4171366301
 20
160.551137175
 10
77.4760273946
 20
161.2382367615
 10
77.6603220577
 20
161.9253363481
 10
77.955090162
 20
162.5567712124
 10
78.3364513486
 20
163.0813862572
 10
78.7735100024
 20
163.4566802915
 10
79.2308582303
 20
163.6522492246
 10
79.6714443991
 20
163.6522492246
 10
80.0595748374
 20
163.4566802915
 10
80.3638055256
 20
163.0813862572
 10
80.5594895026
 20
162.5567712124
 10
80.6307736164
 20
161.9253363481
 10
80.571882852
 20
161.2382367615
  0
LWPOLYLINE
  5
12A
330
A
100
AcDbEntity
  8
1
  6
CONTINUOUS
370
    50
100
AcDbPolyline
 90
       21
 70
   128
 43
0.0
 10
80.3165539709
 20
161.2404352246
 10
80.1408853115
 20
160.6073760595
 10
79.8551338855
 20
160.0362851362
 10
79.4872710333
 20
159.5830648134
 10
79.0733057341
 20
159.2920794541
 10
78.6537597956
 20
159.1918127325
 10
78.2697012974
 20
159.2920794541
 10
77.9587245612
 20
159.5830648134
 10
77.7512701566
 20
160.0362851362
 10
77.6676451662
 20
160.6073760595
 10
77.7160353867
 20
161.2404352246
 10
77.8917040462
 20
161.8734943897
 10
78.1774554722
 20
162.444585313
 10
78.5453183243
 20
162.8978056358
 10
78.9592836235
 20
163.1887909951
 10
79.378829562
 20
163.2890577167
 10
79.7628880602
 20
163.1887909951
 10
80.0738647964
 20
162.8978056358
 10
80.281319201
 20
162.444585313
 10
80.3649441914
 20
161.8734943897
 10
80.3165539709
 20
161.2404352246
  0
LWPOLYLINE
  5
141
330
A
100
AcDbEntity
  8
1
  6
CONTINUOUS
370
    50
100
AcDbPolyline
 90
       21
 70
   128
 43
0.0
 10
56.6178261425
 20
168.0417088594
 10
56.1713356463
 20
167.5266362795
 10
55.2896268909
 20
167.0347682221
 10
53.7047645521
 20
166.6842062996
 10
52.0333451744
 20
166.8027095257
 10
51.173294615
 20
167.1345254954
 10
50.615715211
 20
167.576258508
 10
50.3197486252
 20
168.0520492579
 10
50.2224524069
 20
168.6065357667
 10
50.3270151067
 20
169.1098231024
 10
50.5916108772
 20
169.5645992126
 10
51.1403251333
 20
170.0576604137
 10
52.07341852
 20
170.4654018936
 10
53.5294352074
 20
170.6039826056
 10
55.0106036361
 20
170.3024146552
 10
55.9333420159
 20
169.8334558499
 10
56.4409598452
 20
169.3699972442
 10
56.6808066013
 20
168.9616926024
 10
56.7557821305
 20
168.5836643537
 10
56.6925618029
 20
168.2083316811
 10
56.6178261425
 20
168.0417088594
  0
LINE
  5
158
330
A
100
AcDbEntity
  8
1
  6
CONTINUOUS
370
    50
100
AcDbLine
 10
73.4791424461
 20
136.1077263633
 30
0.0
 11
75.6791424461
 21
136.1077263633
 31
0.0
  0
LINE
  5
159
330
A
100
AcDbEntity
  8
1
  6
CONTINUOUS
370
    50
100
AcDbLine
 10
75.6791424461
 20
210.4077263633
 30
0.0
 11
73.4791424461
 21
210.4077263633
 31
0.0
  0
LINE
  5
15A
330
A
100
AcDbEntity
  8
1
  6
CONTINUOUS
370
    50
100
AcDbLine
 10
-28.8603860611
 20
159.2273024461
 30
0.0
 11
-28.8603860611
 21
185.0881502805
 31
0.0
  0
LINE
  5
15B
330
A
100
AcDbEntity
  8
1
  6
CONTINUOUS
370
    50
100
AcDbLine
 10
75.3684822743
 20
136.8577263633
 30
0.0
 11
73.4791424461
 21
136.8577263633
 31
0.0
  0
LINE
  5
15C
330
A
100
AcDbEntity
  8
1
  6
CONTINUOUS
370
    50
100
AcDbLine
 10
73.4791424461
 20
209.6577263633
 30
0.0
 11
75.3684822743
 21
209.6577263633
 31
0.0
  0
LINE
  5
15D
330
A
100
AcDbEntity
  8
1
  6
CONTINUOUS
370
    50
100
AcDbLine
 10
74.8291424439
 20
125.3983890611
 30
0.0
 11
75.6791424461
 21
126.2483890633
 31
0.0
  0
LINE
  5
15E
330
A
100
AcDbEntity
  8
1
  6
CONTINUOUS
370
    50
100
AcDbLine
 10
74.8291424439
 20
218.9170636655
 30
0.0
 11
75.6791424461
 21
218.0670636633
 31
0.0
  0
LINE
  5
15F
330
A
100
AcDbEntity
  8
1
  6
CONTINUOUS
370
    50
100
AcDbLine
 10
-28.3603860611
 20
159.5159775807
 30
0.0
 11
-28.3603860611
 21
184.7994751459
 31
0.0
  0
LINE
  5
160
330
A
100
AcDbEntity
  8
1
  6
CONTINUOUS
370
    50
100
AcDbLine
 10
85.7053845396
 20
126.2483890633
 30
0.0
 11
91.0291424461
 21
126.2483890633
 31
0.0
  0
LINE
  5
161
330
A
100
AcDbEntity
  8
1
  6
CONTINUOUS
370
    50
100
AcDbLine
 10
75.6791424461
 20
126.2483890633
 30
0.0
 11
80.4529003527
 21
126.2483890633
 31
0.0
  0
LINE
  5
162
330
A
100
AcDbEntity
  8
1
  6
CONTINUOUS
370
    50
100
AcDbLine
 10
75.6791424461
 20
126.2483890633
 30
0.0
 11
75.6791424461
 21
136.1077263633
 31
0.0
  0
LINE
  5
163
330
A
100
AcDbEntity
  8
1
  6
CONTINUOUS
370
    50
100
AcDbLine
 10
75.6791424461
 20
136.1077263633
 30
0.0
 11
91.0291424461
 21
136.1077263633
 31
0.0
  0
LINE
  5
164
330
A
100
AcDbEntity
  8
1
  6
CONTINUOUS
370
    50
100
AcDbLine
 10
91.0291424461
 20
136.8577263633
 30
0.0
 11
75.3684822743
 21
136.8577263633
 31
0.0
  0
LINE
  5
165
330
A
100
AcDbEntity
  8
1
  6
CONTINUOUS
370
    50
100
AcDbLine
 10
75.6791424461
 20
136.1077263633
 30
0.0
 11
75.3684822743
 21
136.8577263633
 31
0.0
  0
LINE
  5
166
330
A
100
AcDbEntity
  8
1
  6
CONTINUOUS
370
    50
100
AcDbLine
 10
75.3684822743
 20
209.6577263633
 30
0.0
 11
91.0291424461
 21
209.6577263633
 31
0.0
  0
LINE
  5
167
330
A
100
AcDbEntity
  8
1
  6
CONTINUOUS
370
    50
100
AcDbLine
 10
75.6791424461
 20
210.4077263633
 30
0.0
 11
75.3684822743
 21
209.6577263633
 31
0.0
  0
LINE
  5
168
330
A
100
AcDbEntity
  8
1
  6
CONTINUOUS
370
    50
100
AcDbLine
 10
91.0291424461
 20
210.4077263633
 30
0.0
 11
75.6791424461
 21
210.4077263633
 31
0.0
  0
LINE
  5
169
330
A
100
AcDbEntity
  8
1
  6
CONTINUOUS
370
    50
100
AcDbLine
 10
85.7053845396
 20
218.0670636633
 30
0.0
 11
91.0291424461
 21
218.0670636633
 31
0.0
  0
LINE
  5
16A
330
A
100
AcDbEntity
  8
1
  6
CONTINUOUS
370
    50
100
AcDbLine
 10
75.6791424461
 20
218.0670636633
 30
0.0
 11
80.4529003527
 21
218.0670636633
 31
0.0
  0
LINE
  5
16B
330
A
100
AcDbEntity
  8
1
  6
CONTINUOUS
370
    50
100
AcDbLine
 10
75.6791424461
 20
218.0670636633
 30
0.0
 11
75.6791424461
 21
210.4077263633
 31
0.0
  0
LINE
  5
16C
330
A
100
AcDbEntity
  8
1
  6
CONTINUOUS
370
    50
100
AcDbLine
 10
-20.8909537433
 20
184.6577263633
 30
0.0
 11
-20.8909537433
 21
159.6577263633
 31
0.0
  0
LINE
  5
16D
330
A
100
AcDbEntity
  8
1
  6
CONTINUOUS
370
    50
100
AcDbLine
 10
-20.6311461222
 20
184.8077263633
 30
0.0
 11
-20.6311461222
 21
159.5077263633
 31
0.0
  0
LINE
  5
16E
330
A
100
AcDbEntity
  8
1
  6
CONTINUOUS
370
    50
100
AcDbLine
 10
-16.715638867
 20
182.7202263633
 30
0.0
 11
-16.715638867
 21
161.5952263633
 31
0.0
  0
LINE
  5
16F
330
A
100
AcDbEntity
  8
1
  6
CONTINUOUS
370
    50
100
AcDbLine
 10
-17.9208575539
 20
184.8077263633
 30
0.0
 11
-17.9208575539
 21
159.5077263633
 31
0.0
  0
LINE
  5
170
330
A
100
AcDbEntity
  8
1
  6
CONTINUOUS
370
    50
100
AcDbLine
 10
-27.6208575539
 20
184.6577263633
 30
0.0
 11
-27.6208575539
 21
159.6834089539
 31
0.0
  0
LINE
  5
171
330
A
100
AcDbEntity
  8
1
  6
CONTINUOUS
370
    50
100
AcDbLine
 10
19.3891424461
 20
184.1577263633
 30
0.0
 11
19.3891424461
 21
160.1577263633
 31
0.0
  0
LINE
  5
172
330
A
100
AcDbEntity
  8
1
  6
CONTINUOUS
370
    50
100
AcDbLine
 10
19.3791424461
 20
184.1577263633
 30
0.0
 11
19.3791424461
 21
160.1577263633
 31
0.0
  0
LINE
  5
173
330
A
100
AcDbEntity
  8
1
  6
CONTINUOUS
370
    50
100
AcDbLine
 10
230.4791424461
 20
182.1577263633
 30
0.0
 11
230.4791424461
 21
162.1577263633
 31
0.0
  0
LINE
  5
174
330
A
100
AcDbEntity
  8
1
  6
CONTINUOUS
370
    50
100
AcDbLine
 10
34.3791424461
 20
182.7202263633
 30
0.0
 11
34.3791424461
 21
161.5952263633
 31
0.0
  0
LINE
  5
175
330
A
100
AcDbEntity
  8
1
  6
CONTINUOUS
370
    50
100
AcDbLine
 10
34.4018905858
 20
182.6577263633
 30
0.0
 11
34.4018905858
 21
161.6577263633
 31
0.0
  0
LINE
  5
176
330
A
100
AcDbEntity
  8
1
  6
CONTINUOUS
370
    50
100
AcDbLine
 10
81.8225181191
 20
164.1577263633
 30
0.0
 11
81.8225181191
 21
180.1577263633
 31
0.0
  0
LINE
  5
177
330
A
100
AcDbEntity
  8
1
  6
CONTINUOUS
370
    50
100
AcDbLine
 10
80.3791424461
 20
182.6577263633
 30
0.0
 11
80.3791424461
 21
161.6577263633
 31
0.0
  0
LWPOLYLINE
  5
178
330
A
100
AcDbEntity
  8
1
  6
CONTINUOUS
370
    50
100
AcDbPolyline
 90
       21
 70
   128
 43
0.0
 10
56.6178261425
 20
176.2737438671
 10
56.1713356463
 20
176.7888164471
 10
55.2896268909
 20
177.2806845044
 10
53.7047645521
 20
177.631246427
 10
52.0333451744
 20
177.5127432009
 10
51.173294615
 20
177.1809272312
 10
50.615715211
 20
176.7391942185
 10
50.3197486252
 20
176.2634034687
 10
50.2224524069
 20
175.7089169598
 10
50.3270151067
 20
175.2056296241
 10
50.5916108772
 20
174.7508535139
 10
51.1403251333
 20
174.2577923128
 10
52.07341852
 20
173.8500508329
 10
53.5294352074
 20
173.711470121
 10
55.0106036361
 20
174.0130380713
 10
55.9333420159
 20
174.4819968766
 10
56.4409598452
 20
174.9454554824
 10
56.6808066013
 20
175.3537601241
 10
56.7557821305
 20
175.7317883728
 10
56.6925618029
 20
176.1071210454
 10
56.6178261425
 20
176.2737438671
  0
LINE
  5
18F
330
A
100
AcDbEntity
  8
1
  6
CONTINUOUS
370
    50
100
AcDbLine
 10
189.97914245
 20
182.1577263633
 30
0.0
 11
189.97914245
 21
162.1577263633
 31
0.0
  0
LINE
  5
190
330
A
100
AcDbEntity
  8
1
  6
CONTINUOUS
370
    50
100
AcDbLine
 10
189.8636723961
 20
161.9577263633
 30
0.0
 11
189.8636723961
 21
182.3577263633
 31
0.0
  0
LINE
  5
191
330
A
100
AcDbEntity
  8
1
  6
CONTINUOUS
370
    50
100
AcDbLine
 10
180.4791424461
 20
182.3577263633
 30
0.0
 11
180.4791424461
 21
161.9577263633
 31
0.0
  0
LINE
  5
192
330
A
100
AcDbEntity
  8
1
  6
CONTINUOUS
370
    50
100
AcDbLine
 10
179.9791424461
 20
162.4577264577
 30
0.0
 11
179.9791424461
 21
181.8577263633
 31
0.0
  0
LINE
  5
193
330
A
100
AcDbEntity
  8
1
  6
CONTINUOUS
370
    50
100
AcDbLine
 10
160.3791424461
 20
164.1577263633
 30
0.0
 11
160.3791424461
 21
180.1577263633
 31
0.0
  0
LINE
  5
194
330
A
100
AcDbEntity
  8
1
  6
CONTINUOUS
370
    50
100
AcDbLine
 10
160.6678175807
 20
164.6577263633
 30
0.0
 11
160.6678175807
 21
179.6577263633
 31
0.0
  0
LINE
  5
195
330
A
100
AcDbEntity
  8
1
  6
CONTINUOUS
370
    50
100
AcDbLine
 10
78.0791424461
 20
209.4577263633
 30
0.0
 11
88.0791424461
 21
209.4577263633
 31
0.0
  0
LINE
  5
196
330
A
100
AcDbEntity
  8
1
  6
CONTINUOUS
370
    50
100
AcDbLine
 10
88.0791424461
 20
205.2577263633
 30
0.0
 11
78.1047958292
 21
205.2577263633
 31
0.0
  0
LINE
  5
197
330
A
100
AcDbEntity
  8
1
  6
CONTINUOUS
370
    50
100
AcDbLine
 10
78.3791430122
 20
204.9577263633
 30
0.0
 11
87.7791424461
 21
204.9577263633
 31
0.0
  0
LINE
  5
198
330
A
100
AcDbEntity
  8
1
  6
CONTINUOUS
370
    50
100
AcDbLine
 10
81.9791424461
 20
204.5577263633
 30
0.0
 11
84.1791424461
 21
204.5577263633
 31
0.0
  0
LINE
  5
199
330
A
100
AcDbEntity
  8
1
  6
CONTINUOUS
370
    50
100
AcDbLine
 10
81.8291424461
 20
201.1477263633
 30
0.0
 11
84.3291424461
 21
201.1477263633
 31
0.0
  0
LINE
  5
19A
330
A
100
AcDbEntity
  8
1
  6
CONTINUOUS
370
    50
100
AcDbLine
 10
81.8291424461
 20
201.1577263633
 30
0.0
 11
84.3291424461
 21
201.1577263633
 31
0.0
  0
LINE
  5
19B
330
A
100
AcDbEntity
  8
1
  6
CONTINUOUS
370
    50
100
AcDbLine
 10
81.9791424461
 20
198.5577263633
 30
0.0
 11
84.1791424461
 21
198.5577263633
 31
0.0
  0
LWPOLYLINE
  5
19C
330
A
100
AcDbEntity
  8
1
  6
CONTINUOUS
370
    50
100
AcDbPolyline
 90
       21
 70
   128
 43
0.0
 10
80.3165539709
 20
183.0750175019
 10
80.1408853115
 20
183.708076667
 10
79.8551338855
 20
184.2791675903
 10
79.4872710333
 20
184.7323879131
 10
79.0733057341
 20
185.0233732725
 10
78.6537597956
 20
185.123639994
 10
78.2697012974
 20
185.0233732725
 10
77.9587245612
 20
184.7323879131
 10
77.7512701566
 20
184.2791675903
 10
77.6676451662
 20
183.708076667
 10
77.7160353867
 20
183.0750175019
 10
77.8917040462
 20
182.4419583368
 10
78.1774554722
 20
181.8708674136
 10
78.5453183243
 20
181.4176470908
 10
78.9592836235
 20
181.1266617314
 10
79.378829562
 20
181.0263950098
 10
79.7628880602
 20
181.1266617314
 10
80.0738647964
 20
181.4176470908
 10
80.281319201
 20
181.8708674136
 10
80.3649441914
 20
182.4419583368
 10
80.3165539709
 20
183.0750175019
  0
LINE
  5
1B3
330
A
100
AcDbEntity
  8
1
  6
CONTINUOUS
370
    50
100
AcDbLine
 10
81.6541424461
 20
128.5099600974
 30
0.0
 11
81.6541424461
 21
215.8054926291
 31
0.0
  0
LINE
  5
1B4
330
A
100
AcDbEntity
  8
1
  6
CONTINUOUS
370
    50
100
AcDbLine
 10
81.1541424461
 20
202.0077263633
 30
0.0
 11
81.1541424461
 21
207.1574049332
 31
0.0
  0
LINE
  5
1B5
330
A
100
AcDbEntity
  8
1
  6
CONTINUOUS
370
    50
100
AcDbLine
 10
84.5041424461
 20
128.5099600974
 30
0.0
 11
84.5041424461
 21
215.8054926291
 31
0.0
  0
LINE
  5
1B6
330
A
100
AcDbEntity
  8
1
  6
CONTINUOUS
370
    50
100
AcDbLine
 10
85.0041424461
 20
202.0077263633
 30
0.0
 11
85.0041424461
 21
207.1574049332
 31
0.0
  0
LINE
  5
1B7
330
A
100
AcDbEntity
  8
1
  6
CONTINUOUS
370
    50
100
AcDbLine
 10
79.8459809387
 20
210.6688043149
 30
0.0
 11
79.8459809387
 21
202.0077263633
 31
0.0
  0
LINE
  5
1B8
330
A
100
AcDbEntity
  8
1
  6
CONTINUOUS
370
    50
100
AcDbLine
 10
90.5291424461
 20
210.6688043149
 30
0.0
 11
90.5291424461
 21
202.0077263633
 31
0.0
  0
LINE
  5
1B9
330
A
100
AcDbEntity
  8
1
  6
CONTINUOUS
370
    50
100
AcDbLine
 10
86.3123039536
 20
202.0077263633
 30
0.0
 11
86.3123039536
 21
210.6688043149
 31
0.0
  0
LINE
  5
1BA
330
A
100
AcDbEntity
  8
1
  6
CONTINUOUS
370
    50
100
AcDbLine
 10
73.9791424461
 20
202.0077263633
 30
0.0
 11
73.9791424461
 21
210.6688043149
 31
0.0
  0
LWPOLYLINE
  5
1BB
330
A
100
AcDbEntity
  8
1
  6
CONTINUOUS
370
    50
100
AcDbPolyline
 90
       13
 70
   128
 43
0.0
 10
91.0291424461
 20
184.1967134064
 10
89.8255824571
 20
185.5231667273
 10
88.8187916224
 20
186.9503612355
 10
88.0218431328
 20
188.4597647937
 10
87.4450853739
 20
190.0317777789
 10
87.0960075517
 20
191.645987584
 10
86.9791424461
 20
193.2814336759
 10
87.0960075517
 20
194.9168797678
 10
87.4450853739
 20
196.5310895729
 10
88.0218431328
 20
198.1031025581
 10
88.8187916224
 20
199.6125061163
 10
89.8255824571
 20
201.0397006245
 10
91.0291424461
 20
202.3661539454
  0
LWPOLYLINE
  5
1CA
330
A
100
AcDbEntity
  8
1
  6
CONTINUOUS
370
    50
100
AcDbPolyline
 90
       13
 70
   128
 43
0.0
 10
91.0291424461
 20
181.1876382907
 10
89.8255824571
 20
182.5140916115
 10
88.8187916224
 20
183.9412861197
 10
88.0218431328
 20
185.4506896779
 10
87.4450853739
 20
187.0227026631
 10
87.0960075517
 20
188.6369124683
 10
86.9791424461
 20
190.2723585601
 10
87.0960075517
 20
191.907804652
 10
87.4450853739
 20
193.5220144572
 10
88.0218431328
 20
195.0940274424
 10
88.8187916224
 20
196.6034310005
 10
89.8255824571
 20
198.0306255088
 10
91.0291424461
 20
199.3570788296
  0
LWPOLYLINE
  5
1D9
330
A
100
AcDbEntity
  8
1
  6
CONTINUOUS
370
    50
100
AcDbPolyline
 90
       13
 70
   128
 43
0.0
 10
91.0291424461
 20
155.2480697491
 10
89.8255824571
 20
156.8784538491
 10
88.8187916224
 20
158.6326620051
 10
88.0218431328
 20
160.4879158034
 10
87.4450853739
 20
162.4201247518
 10
87.0960075517
 20
164.4041990943
 10
86.9791424461
 20
166.4143756024
 10
87.0960075517
 20
168.4245521105
 10
87.4450853739
 20
170.4086264531
 10
88.0218431328
 20
172.3408354015
 10
88.8187916224
 20
174.1960891998
 10
89.8255824571
 20
175.9502973557
 10
91.0291424461
 20
177.5806814558
  0
LWPOLYLINE
  5
1E8
330
A
100
AcDbEntity
  8
1
  6
CONTINUOUS
370
    50
100
AcDbPolyline
 90
       13
 70
   128
 43
0.0
 10
91.0291424461
 20
154.2940247722
 10
89.8255824571
 20
155.9244088723
 10
88.8187916224
 20
157.6786170282
 10
88.0218431328
 20
159.5338708265
 10
87.4450853739
 20
161.4660797749
 10
87.0960075517
 20
163.4501541175
 10
86.9791424461
 20
165.4603306256
 10
87.0960075517
 20
167.4705071337
 10
87.4450853739
 20
169.4545814762
 10
88.0218431328
 20
171.3867904246
 10
88.8187916224
 20
173.2420442229
 10
89.8255824571
 20
174.9962523788
 10
91.0291424461
 20
176.6266364789
  0
LWPOLYLINE
  5
1F7
330
A
100
AcDbEntity
  8
1
  6
CONTINUOUS
370
    50
100
AcDbPolyline
 90
       23
 70
   128
 43
0.0
 10
80.571882852
 20
183.077215965
 10
80.3875881888
 20
183.7643155516
 10
80.0928200845
 20
184.395750416
 10
79.7114588979
 20
184.9203654608
 10
79.2744002442
 20
185.2956594951
 10
78.8170520162
 20
185.4912284281
 10
78.3764658474
 20
185.4912284281
 10
77.9883354091
 20
185.2956594951
 10
77.6841047209
 20
184.9203654608
 10
77.4884207439
 20
184.395750416
 10
77.4171366301
 20
183.7643155516
 10
77.4760273946
 20
183.077215965
 10
77.6603220577
 20
182.3901163785
 10
77.955090162
 20
181.7586815141
 10
78.3364513486
 20
181.2340664693
 10
78.7735100024
 20
180.858772435
 10
79.2308582303
 20
180.6632035019
 10
79.6714443991
 20
180.6632035019
 10
80.0595748374
 20
180.858772435
 10
80.3638055256
 20
181.2340664693
 10
80.5594895026
 20
181.7586815141
 10
80.6307736164
 20
182.3901163785
 10
80.571882852
 20
183.077215965
  0
LWPOLYLINE
  5
210
330
A
100
AcDbEntity
  8
1
  6
CONTINUOUS
370
    50
100
AcDbPolyline
 90
       23
 70
   128
 43
0.0
 10
80.5642224075
 20
183.0750175019
 10
80.3799277444
 20
183.7621170885
 10
80.0851596401
 20
184.3935519529
 10
79.7037984535
 20
184.9181669977
 10
79.2667397997
 20
185.293461032
 10
78.8093915717
 20
185.489029965
 10
78.368805403
 20
185.489029965
 10
77.9806749646
 20
185.293461032
 10
77.6764442764
 20
184.9181669977
 10
77.4807602994
 20
184.3935519529
 10
77.4094761857
 20
183.7621170885
 10
77.4683669501
 20
183.0750175019
 10
77.6526616133
 20
182.3879179154
 10
77.9474297175
 20
181.756483051
 10
78.3287909042
 20
181.2318680062
 10
78.7658495579
 20
180.8565739719
 10
79.2231977859
 20
180.6610050388
 10
79.6637839546
 20
180.6610050388
 10
80.051914393
 20
180.8565739719
 10
80.3561450812
 20
181.2318680062
 10
80.5518290582
 20
181.756483051
 10
80.623113172
 20
182.3879179154
 10
80.5642224075
 20
183.0750175019
  0
LWPOLYLINE
  5
229
330
A
100
AcDbEntity
  8
1
  6
CONTINUOUS
370
    50
100
AcDbPolyline
 90
       21
 70
   128
 43
0.0
 10
80.3242144154
 20
183.077215965
 10
80.1485457559
 20
183.7102751302
 10
79.8627943299
 20
184.2813660534
 10
79.4949314778
 20
184.7345863762
 10
79.0809661786
 20
185.0255717356
 10
78.6614202401
 20
185.1258384571
 10
78.2773617419
 20
185.0255717356
 10
77.9663850056
 20
184.7345863762
 10
77.7589306011
 20
184.2813660534
 10
77.6753056107
 20
183.7102751301
 10
77.7236958311
 20
183.077215965
 10
77.8993644906
 20
182.4441567999
 10
78.1851159166
 20
181.8730658767
 10
78.5529787688
 20
181.4198455539
 10
78.9669440679
 20
181.1288601945
 10
79.3864900064
 20
181.0285934729
 10
79.7705485047
 20
181.1288601945
 10
80.0815252409
 20
181.4198455539
 10
80.2889796454
 20
181.8730658767
 10
80.3726046358
 20
182.4441567999
 10
80.3242144154
 20
183.077215965
  0
LWPOLYLINE
  5
240
330
A
100
AcDbEntity
  8
1
  6
CONTINUOUS
370
    50
100
AcDbPolyline
 90
       25
 70
   128
 43
0.0
 10
82.0932297891
 20
184.3880453036
 10
82.0704240545
 20
183.7624654311
 10
82.0212744876
 20
183.2062756727
 10
81.8841861293
 20
182.6867014996
 10
81.7482898202
 20
182.5143605479
 10
81.5630827107
 20
182.4198596348
 10
81.3230708539
 20
182.3853897974
 10
80.8310011697
 20
182.440599087
 10
79.9305808401
 20
182.8169073236
 10
79.4528207513
 20
183.2371635624
 10
79.2114607651
 20
183.6574772454
 10
79.1461339878
 20
184.1371704545
 10
79.251040789
 20
184.5414764157
 10
79.5514469306
 20
184.9852642198
 10
80.1603126986
 20
185.45691726
 10
81.077538327
 20
185.8468638556
 10
81.404749001
 20
185.9452100933
 10
81.6348465405
 20
186.0112827293
 10
81.7993303551
 20
186.0567349495
 10
81.9456272111
 20
186.0694721612
 10
82.0479207689
 20
185.9088381857
 10
82.0840671892
 20
185.5793239795
 10
82.0968713564
 20
185.1626780314
 10
82.0972486923
 20
184.646582491
 10
82.0932297891
 20
184.3880453036
  0
LWPOLYLINE
  5
25B
330
A
100
AcDbEntity
  8
1
  6
CONTINUOUS
370
    50
100
AcDbPolyline
 90
       21
 70
   128
 43
0.0
 10
89.5090872884
 20
185.7131732266
 10
89.3334186289
 20
186.3462323918
 10
89.0476672029
 20
186.917323315
 10
88.6798043508
 20
187.3705436378
 10
88.2658390516
 20
187.6615289972
 10
87.8462931131
 20
187.7617957187
 10
87.4622346149
 20
187.6615289972
 10
87.1512578786
 20
187.3705436378
 10
86.9438034741
 20
186.917323315
 10
86.8601784837
 20
186.3462323918
 10
86.9085687041
 20
185.7131732266
 10
87.0842373636
 20
185.0801140615
 10
87.3699887896
 20
184.5090231383
 10
87.7378516417
 20
184.0558028155
 10
88.1518169409
 20
183.7648174561
 10
88.5713628794
 20
183.6645507345
 10
88.9554213777
 20
183.7648174561
 10
89.2663981139
 20
184.0558028155
 10
89.4738525184
 20
184.5090231383
 10
89.5574775088
 20
185.0801140615
 10
89.5090872884
 20
185.7131732266
  0
LWPOLYLINE
  5
272
330
A
100
AcDbEntity
  8
1
  6
CONTINUOUS
370
    50
100
AcDbPolyline
 90
       23
 70
   128
 43
0.0
 10
90.2016950557
 20
185.8230963818
 10
90.010028606
 20
186.5376799519
 10
89.7034697775
 20
187.1943722108
 10
89.3068541434
 20
187.7399718574
 10
88.8523131435
 20
188.1302776531
 10
88.3766709865
 20
188.3336693435
 10
87.918461371
 20
188.3336693435
 10
87.5148057151
 20
188.1302776531
 10
87.1984057993
 20
187.7399718574
 10
86.9948944632
 20
187.1943722108
 10
86.9207589849
 20
186.5376799519
 10
86.98200538
 20
185.8230963818
 10
87.1736718296
 20
185.1085128118
 10
87.4802306581
 20
184.4518205529
 10
87.8768462922
 20
183.9062209063
 10
88.3313872921
 20
183.5159151106
 10
88.8070294492
 20
183.3125234202
 10
89.2652390647
 20
183.3125234202
 10
89.6688947206
 20
183.5159151106
 10
89.9852946363
 20
183.9062209063
 10
90.1888059724
 20
184.4518205529
 10
90.2629414507
 20
185.1085128118
 10
90.2016950557
 20
185.8230963818
  0
LINE
  5
28B
330
A
100
AcDbEntity
  8
1
  6
CONTINUOUS
370
    50
100
AcDbLine
 10
74.6791424461
 20
152.1577263633
 30
0.0
 11
79.2791424461
 21
152.1577263633
 31
0.0
  0
LINE
  5
28C
330
A
100
AcDbEntity
  8
1
  6
CONTINUOUS
370
    50
100
AcDbLine
 10
79.2791424461
 20
152.1577263633
 30
0.0
 11
79.2791424461
 21
192.1577263633
 31
0.0
  0
LINE
  5
28D
330
A
100
AcDbEntity
  8
1
  6
CONTINUOUS
370
    50
100
AcDbLine
 10
88.0791424461
 20
192.1577263633
 30
0.0
 11
88.0791424461
 21
152.1577263633
 31
0.0
  0
LINE
  5
28E
330
A
100
AcDbEntity
  8
1
  6
CONTINUOUS
370
    50
100
AcDbLine
 10
88.0791424461
 20
152.1577263633
 30
0.0
 11
90.0791424461
 21
152.1577263633
 31
0.0
  0
LINE
  5
28F
330
A
100
AcDbEntity
  8
1
  6
CONTINUOUS
370
    50
100
AcDbLine
 10
90.0791424461
 20
152.1577263633
 30
0.0
 11
90.0791424461
 21
192.1577263633
 31
0.0
  0
LINE
  5
290
330
A
100
AcDbEntity
  8
1
  6
CONTINUOUS
370
    50
100
AcDbLine
 10
74.6791424461
 20
192.1577263633
 30
0.0
 11
74.6791424461
 21
152.1577263633
 31
0.0
  0
LINE
  5
291
330
A
100
AcDbEntity
  8
1
  6
CONTINUOUS
370
    50
100
AcDbLine
 10
90.0791424461
 20
192.1577263633
 30
0.0
 11
88.0791424461
 21
192.1577263633
 31
0.0
  0
LINE
  5
292
330
A
100
AcDbEntity
  8
1
  6
CONTINUOUS
370
    50
100
AcDbLine
 10
79.2791424461
 20
192.1577263633
 30
0.0
 11
74.6791424461
 21
192.1577263633
 31
0.0
  0
LINE
  5
293
330
A
100
AcDbEntity
  8
1
  6
CONTINUOUS
370
    50
100
AcDbLine
 10
87.8746306007
 20
155.9932372957
 30
0.0
 11
91.0291424461
 21
155.0879271711
 31
0.0
  0
LINE
  5
294
330
A
100
AcDbEntity
  8
1
  6
CONTINUOUS
370
    50
100
AcDbLine
 10
91.0291424461
 20
160.4978335161
 30
0.0
 11
89.3090698349
 21
160.9914753937
 31
0.0
  0
LINE
  5
295
330
A
100
AcDbEntity
  8
1
  6
CONTINUOUS
370
    50
100
AcDbLine
 10
73.4791424461
 20
155.8161837944
 30
0.0
 11
81.9451665524
 21
158.2458393845
 31
0.0
  0
LINE
  5
296
330
A
100
AcDbEntity
  8
1
  6
CONTINUOUS
370
    50
100
AcDbLine
 10
80.6756806726
 20
161.83490403
 30
0.0
 11
73.4791424461
 21
159.7695768927
 31
0.0
  0
LINE
  5
297
330
A
100
AcDbEntity
  8
1
  6
CONTINUOUS
370
    50
100
AcDbLine
 10
87.9156702163
 20
160.4510391856
 30
0.0
 11
87.6626826104
 21
160.1842925637
 31
0.0
  0
LINE
  5
298
330
A
100
AcDbEntity
  8
1
  6
CONTINUOUS
370
    50
100
AcDbLine
 10
86.9068577352
 20
157.5506552533
 30
0.0
 11
86.9798870375
 21
157.1903453727
 31
0.0
  0
LINE
  5
299
330
A
100
AcDbEntity
  8
1
  6
CONTINUOUS
370
    50
100
AcDbLine
 10
81.5596495564
 20
158.3257505423
 30
0.0
 11
87.6295352286
 21
156.583760268
 31
0.0
  0
LINE
  5
29A
330
A
100
AcDbEntity
  8
1
  6
CONTINUOUS
370
    50
100
AcDbLine
 10
78.4446623556
 20
159.2197175296
 30
0.0
 11
81.5596495564
 21
158.3257505423
 31
0.0
  0
LINE
  5
29B
330
A
100
AcDbEntity
  8
1
  6
CONTINUOUS
370
    50
100
AcDbLine
 10
88.7881207639
 20
160.6207987317
 30
0.0
 11
79.6032478909
 21
163.2567559934
 31
0.0
  0
LINE
  5
29C
330
A
100
AcDbEntity
  8
1
  6
CONTINUOUS
370
    50
100
AcDbLine
 10
73.7322963396
 20
208.4003853946
 30
0.0
 11
73.4791424461
 21
208.9432756712
 31
0.0
  0
ARC
  5
29D
330
A
100
AcDbEntity
  8
1
  6
CONTINUOUS
370
    50
100
AcDbCircle
 10
73.2791424461
 20
137.0327263633
 30
0.0
 40
0.5
100
AcDbArc
 50
0.0
 51
66.4218215218
  0
ARC
  5
29E
330
A
100
AcDbEntity
  8
1
  6
CONTINUOUS
370
    50
100
AcDbCircle
 10
73.2791424461
 20
207.2827263633
 30
0.0
 40
0.5
100
AcDbArc
 50
293.5781784782001
 51
0.0
  0
LINE
  5
29F
330
A
100
AcDbEntity
  8
1
  6
CONTINUOUS
370
    50
100
AcDbLine
 10
51.8907235445
 20
166.840405241
 30
0.0
 11
78.4370019112
 21
159.2219159928
 31
0.0
  0
LINE
  5
2A0
330
A
100
AcDbEntity
  8
1
  6
CONTINUOUS
370
    50
100
AcDbLine
 10
79.5955874465
 20
163.2589544565
 30
0.0
 11
54.6809834807
 21
170.409171139
 31
0.0
  0
ARC
  5
2A1
330
A
100
AcDbEntity
  8
1
  6
CONTINUOUS
370
    50
100
AcDbCircle
 10
-27.6208575539
 20
157.6577263633
 30
0.0
 40
2.0
100
AcDbArc
 50
128.2989210679
 51
180.0
  0
ARC
  5
2A2
330
A
100
AcDbEntity
  8
1
  6
CONTINUOUS
370
    50
100
AcDbCircle
 10
-27.6208575539
 20
186.6577263633
 30
0.0
 40
2.0
100
AcDbArc
 50
180.0
 51
231.7010789321
  0
LINE
  5
2A3
330
A
100
AcDbEntity
  8
1
  6
CONTINUOUS
370
    50
100
AcDbLine
 10
-28.8603860611
 20
159.2273024461
 30
0.0
 11
-28.3603860611
 21
159.5159775807
 31
0.0
  0
LINE
  5
2A4
330
A
100
AcDbEntity
  8
1
  6
CONTINUOUS
370
    50
100
AcDbLine
 10
-28.3603860611
 20
184.7994751459
 30
0.0
 11
-28.8603860611
 21
185.0881502805
 31
0.0
  0
LINE
  5
2A5
330
A
100
AcDbEntity
  8
1
  6
CONTINUOUS
370
    50
100
AcDbLine
 10
-20.6311461222
 20
184.8077263633
 30
0.0
 11
-20.8909537433
 21
184.6577263633
 31
0.0
  0
LINE
  5
2A6
330
A
100
AcDbEntity
  8
1
  6
CONTINUOUS
370
    50
100
AcDbLine
 10
-20.8909537433
 20
159.6577263633
 30
0.0
 11
-20.6311461222
 21
159.5077263633
 31
0.0
  0
LINE
  5
2A7
330
A
100
AcDbEntity
  8
1
  6
CONTINUOUS
370
    50
100
AcDbLine
 10
-17.9208575539
 20
159.5077263633
 30
0.0
 11
-16.715638867
 21
161.5952263633
 31
0.0
  0
LINE
  5
2A8
330
A
100
AcDbEntity
  8
1
  6
CONTINUOUS
370
    50
100
AcDbLine
 10
-16.715638867
 20
182.7202263633
 30
0.0
 11
-17.9208575539
 21
184.8077263633
 31
0.0
  0
LINE
  5
2A9
330
A
100
AcDbEntity
  8
1
  6
CONTINUOUS
370
    50
100
AcDbLine
 10
-17.9208575539
 20
184.8077263633
 30
0.0
 11
-20.6311461222
 21
184.8077263633
 31
0.0
  0
LINE
  5
2AA
330
A
100
AcDbEntity
  8
1
  6
CONTINUOUS
370
    50
100
AcDbLine
 10
-20.6311461222
 20
159.5077263633
 30
0.0
 11
-17.9208575539
 21
159.5077263633
 31
0.0
  0
ARC
  5
2AB
330
A
100
AcDbEntity
  8
1
  6
CONTINUOUS
370
    50
100
AcDbCircle
 10
-27.6208575539
 20
157.6577263633
 30
0.0
 40
2.0
100
AcDbArc
 50
90.0
 51
111.7010789321
  0
ARC
  5
2AC
330
A
100
AcDbEntity
  8
1
  6
CONTINUOUS
370
    50
100
AcDbCircle
 10
-27.6208575539
 20
186.6577263633
 30
0.0
 40
2.0
100
AcDbArc
 50
248.2989210679
 51
270.0
  0
LINE
  5
2AD
330
A
100
AcDbEntity
  8
1
  6
CONTINUOUS
370
    50
100
AcDbLine
 10
-27.6208575539
 20
159.6577263633
 30
0.0
 11
-20.8909537433
 21
159.6577263633
 31
0.0
  0
LINE
  5
2AE
330
A
100
AcDbEntity
  8
1
  6
CONTINUOUS
370
    50
100
AcDbLine
 10
-20.8909537433
 20
184.6577263633
 30
0.0
 11
-27.6208575539
 21
184.6577263633
 31
0.0
  0
ARC
  5
2AF
330
A
100
AcDbEntity
  8
1
  6
CONTINUOUS
370
    50
100
AcDbCircle
 10
230.4791424461
 20
160.6577263633
 30
0.0
 40
1.5
100
AcDbArc
 50
0.0
 51
90.0
  0
ARC
  5
2B0
330
A
100
AcDbEntity
  8
1
  6
CONTINUOUS
370
    50
100
AcDbCircle
 10
230.4791424461
 20
183.6577263633
 30
0.0
 40
1.5
100
AcDbArc
 50
270.0
 51
0.0
  0
LINE
  5
2B1
330
A
100
AcDbEntity
  8
1
  6
CONTINUOUS
370
    50
100
AcDbLine
 10
19.3791424461
 20
182.7202263633
 30
0.0
 11
-16.715638867
 21
182.7202263633
 31
0.0
  0
LINE
  5
2B2
330
A
100
AcDbEntity
  8
1
  6
CONTINUOUS
370
    50
100
AcDbLine
 10
-16.715638867
 20
161.5952263633
 30
0.0
 11
19.3791424461
 21
161.5952263633
 31
0.0
  0
LINE
  5
2B3
330
A
100
AcDbEntity
  8
1
  6
CONTINUOUS
370
    50
100
AcDbLine
 10
34.3791424461
 20
182.7202263633
 30
0.0
 11
19.3891424461
 21
182.7202263633
 31
0.0
  0
LINE
  5
2B4
330
A
100
AcDbEntity
  8
1
  6
CONTINUOUS
370
    50
100
AcDbLine
 10
19.3891424461
 20
161.5952263633
 30
0.0
 11
34.3791424461
 21
161.5952263633
 31
0.0
  0
LINE
  5
2B5
330
A
100
AcDbEntity
  8
1
  6
CONTINUOUS
370
    50
100
AcDbLine
 10
80.3791424461
 20
161.6577263633
 30
0.0
 11
81.8225181191
 21
164.1577263633
 31
0.0
  0
LINE
  5
2B6
330
A
100
AcDbEntity
  8
1
  6
CONTINUOUS
370
    50
100
AcDbLine
 10
81.8225181191
 20
180.1577263633
 30
0.0
 11
80.3791424461
 21
182.6577263633
 31
0.0
  0
LINE
  5
2B7
330
A
100
AcDbEntity
  8
1
  6
CONTINUOUS
370
    50
100
AcDbLine
 10
80.3791424461
 20
182.6577263633
 30
0.0
 11
34.4018905858
 21
182.6577263633
 31
0.0
  0
LINE
  5
2B8
330
A
100
AcDbEntity
  8
1
  6
CONTINUOUS
370
    50
100
AcDbLine
 10
34.4018905858
 20
161.6577263633
 30
0.0
 11
80.3791424461
 21
161.6577263633
 31
0.0
  0
LINE
  5
2B9
330
A
100
AcDbEntity
  8
1
  6
CONTINUOUS
370
    50
100
AcDbLine
 10
189.8636723961
 20
161.9577263633
 30
0.0
 11
189.97914245
 21
162.1577263633
 31
0.0
  0
LINE
  5
2BA
330
A
100
AcDbEntity
  8
1
  6
CONTINUOUS
370
    50
100
AcDbLine
 10
189.97914245
 20
182.1577263633
 30
0.0
 11
189.8636723961
 21
182.3577263633
 31
0.0
  0
ARC
  5
2BB
330
A
100
AcDbEntity
  8
1
  6
CONTINUOUS
370
    50
100
AcDbCircle
 10
180.4791424461
 20
162.4577263633
 30
0.0
 40
0.5
100
AcDbArc
 50
180.0
 51
270.0
  0
ARC
  5
2BC
330
A
100
AcDbEntity
  8
1
  6
CONTINUOUS
370
    50
100
AcDbCircle
 10
180.4791424461
 20
181.8577263633
 30
0.0
 40
0.5
100
AcDbArc
 50
90.0
 51
180.0
  0
LINE
  5
2BD
330
A
100
AcDbEntity
  8
1
  6
CONTINUOUS
370
    50
100
AcDbLine
 10
180.4791424461
 20
161.9577263633
 30
0.0
 11
189.8636723961
 21
161.9577263633
 31
0.0
  0
LINE
  5
2BE
330
A
100
AcDbEntity
  8
1
  6
CONTINUOUS
370
    50
100
AcDbLine
 10
189.8636723961
 20
182.3577263633
 30
0.0
 11
180.4791424461
 21
182.3577263633
 31
0.0
  0
LINE
  5
2BF
330
A
100
AcDbEntity
  8
1
  6
CONTINUOUS
370
    50
100
AcDbLine
 10
189.97914245
 20
162.1577263633
 30
0.0
 11
230.4791424461
 21
162.1577263633
 31
0.0
  0
LINE
  5
2C0
330
A
100
AcDbEntity
  8
1
  6
CONTINUOUS
370
    50
100
AcDbLine
 10
230.4791424461
 20
182.1577263633
 30
0.0
 11
189.97914245
 21
182.1577263633
 31
0.0
  0
LINE
  5
2C1
330
A
100
AcDbEntity
  8
1
  6
CONTINUOUS
370
    50
100
AcDbLine
 10
160.3791424461
 20
164.1577263633
 30
0.0
 11
160.6678175807
 21
164.6577263633
 31
0.0
  0
LINE
  5
2C2
330
A
100
AcDbEntity
  8
1
  6
CONTINUOUS
370
    50
100
AcDbLine
 10
160.6678175807
 20
179.6577263633
 30
0.0
 11
160.3791424461
 21
180.1577263633
 31
0.0
  0
LINE
  5
2C3
330
A
100
AcDbEntity
  8
1
  6
CONTINUOUS
370
    50
100
AcDbLine
 10
81.8225181191
 20
164.1577263633
 30
0.0
 11
160.3791424461
 21
164.1577263633
 31
0.0
  0
LINE
  5
2C4
330
A
100
AcDbEntity
  8
1
  6
CONTINUOUS
370
    50
100
AcDbLine
 10
160.3791424461
 20
180.1577263633
 30
0.0
 11
81.8225181191
 21
180.1577263633
 31
0.0
  0
LINE
  5
2C5
330
A
100
AcDbEntity
  8
1
  6
CONTINUOUS
370
    50
100
AcDbLine
 10
160.6678175807
 20
164.6577263633
 30
0.0
 11
179.9791424461
 21
164.6577263633
 31
0.0
  0
LINE
  5
2C6
330
A
100
AcDbEntity
  8
1
  6
CONTINUOUS
370
    50
100
AcDbLine
 10
179.9791424461
 20
179.6577263633
 30
0.0
 11
160.6678175807
 21
179.6577263633
 31
0.0
  0
LINE
  5
2C7
330
A
100
AcDbEntity
  8
1
  6
CONTINUOUS
370
    50
100
AcDbLine
 10
77.8791424461
 20
209.6577263633
 30
0.0
 11
78.0791424461
 21
209.4577263633
 31
0.0
  0
LINE
  5
2C8
330
A
100
AcDbEntity
  8
1
  6
CONTINUOUS
370
    50
100
AcDbLine
 10
88.0791424461
 20
209.4577263633
 30
0.0
 11
88.2791424461
 21
209.6577263633
 31
0.0
  0
LINE
  5
2C9
330
A
100
AcDbEntity
  8
1
  6
CONTINUOUS
370
    50
100
AcDbLine
 10
78.0791424461
 20
209.4577263633
 30
0.0
 11
78.0791424461
 21
205.2577263633
 31
0.0
  0
LINE
  5
2CA
330
A
100
AcDbEntity
  8
1
  6
CONTINUOUS
370
    50
100
AcDbLine
 10
88.0791424461
 20
205.2577263633
 30
0.0
 11
88.0791424461
 21
209.4577263633
 31
0.0
  0
ARC
  5
2CB
330
A
100
AcDbEntity
  8
1
  6
CONTINUOUS
370
    50
100
AcDbCircle
 10
78.3791424461
 20
205.2577263633
 30
0.0
 40
0.3
100
AcDbArc
 50
180.0
 51
270.0
  0
ARC
  5
2CC
330
A
100
AcDbEntity
  8
1
  6
CONTINUOUS
370
    50
100
AcDbCircle
 10
87.7791424461
 20
205.2577263633
 30
0.0
 40
0.3
100
AcDbArc
 50
270.0
 51
0.0
  0
LINE
  5
2CD
330
A
100
AcDbEntity
  8
1
  6
CONTINUOUS
370
    50
100
AcDbLine
 10
81.5791424461
 20
204.9577263633
 30
0.0
 11
81.9791424461
 21
204.5577263633
 31
0.0
  0
LINE
  5
2CE
330
A
100
AcDbEntity
  8
1
  6
CONTINUOUS
370
    50
100
AcDbLine
 10
84.1791424461
 20
204.5577263633
 30
0.0
 11
84.5791424461
 21
204.9577263633
 31
0.0
  0
LINE
  5
2CF
330
A
100
AcDbEntity
  8
1
  6
CONTINUOUS
370
    50
100
AcDbLine
 10
81.9791424461
 20
198.5577263633
 30
0.0
 11
83.0791424461
 21
198.1573591056
 31
0.0
  0
LINE
  5
2D0
330
A
100
AcDbEntity
  8
1
  6
CONTINUOUS
370
    50
100
AcDbLine
 10
83.0791424461
 20
198.1573591056
 30
0.0
 11
84.1791424461
 21
198.5577263633
 31
0.0
  0
LINE
  5
2D1
330
A
100
AcDbEntity
  8
1
  6
CONTINUOUS
370
    50
100
AcDbLine
 10
81.9791424461
 20
201.1477263633
 30
0.0
 11
81.9791424461
 21
198.5577263633
 31
0.0
  0
LINE
  5
2D2
330
A
100
AcDbEntity
  8
1
  6
CONTINUOUS
370
    50
100
AcDbLine
 10
84.1791424461
 20
198.5577263633
 30
0.0
 11
84.1791424461
 21
201.1477263633
 31
0.0
  0
LINE
  5
2D3
330
A
100
AcDbEntity
  8
1
  6
CONTINUOUS
370
    50
100
AcDbLine
 10
81.9791424461
 20
204.5577263633
 30
0.0
 11
81.9791424461
 21
201.1577263633
 31
0.0
  0
LINE
  5
2D4
330
A
100
AcDbEntity
  8
1
  6
CONTINUOUS
370
    50
100
AcDbLine
 10
84.1791424461
 20
201.1577263633
 30
0.0
 11
84.1791424461
 21
204.5577263633
 31
0.0
  0
LINE
  5
2D5
330
A
100
AcDbEntity
  8
1
  6
CONTINUOUS
370
    50
100
AcDbLine
 10
54.6809834807
 20
173.9062815875
 30
0.0
 11
79.5955874465
 21
181.0564982701
 31
0.0
  0
LINE
  5
2D6
330
A
100
AcDbEntity
  8
1
  6
CONTINUOUS
370
    50
100
AcDbLine
 10
78.4370019112
 20
185.0935367338
 30
0.0
 11
51.8907235445
 21
177.4750474855
 31
0.0
  0
LINE
  5
2D7
330
A
100
AcDbEntity
  8
1
  6
CONTINUOUS
370
    50
100
AcDbLine
 10
86.9791424461
 20
193.2814336759
 30
0.0
 11
86.9791424461
 21
190.2723585601
 31
0.0
  0
LINE
  5
2D8
330
A
100
AcDbEntity
  8
1
  6
CONTINUOUS
370
    50
100
AcDbLine
 10
86.9791424461
 20
166.4143756024
 30
0.0
 11
86.9791424461
 21
165.4603306256
 31
0.0
  0
LINE
  5
2D9
330
A
100
AcDbEntity
  8
1
  6
CONTINUOUS
370
    50
100
AcDbLine
 10
79.6032478909
 20
181.0586967332
 30
0.0
 11
88.7881207639
 21
183.6946539948
 31
0.0
  0
LINE
  5
2DA
330
A
100
AcDbEntity
  8
1
  6
CONTINUOUS
370
    50
100
AcDbLine
 10
81.6206930569
 20
186.007220996
 30
0.0
 11
78.4446623556
 21
185.0957351969
 31
0.0
  0
LINE
  5
2DB
330
A
100
AcDbEntity
  8
1
  6
CONTINUOUS
370
    50
100
AcDbLine
 10
87.6295352286
 20
187.7316924585
 30
0.0
 11
81.6206930569
 21
186.007220996
 31
0.0
  0
LINE
  5
2DC
330
A
100
AcDbEntity
  8
1
  6
CONTINUOUS
370
    50
100
AcDbLine
 10
73.4791424461
 20
184.5458758338
 30
0.0
 11
80.678222145
 21
182.479819322
 31
0.0
  0
LINE
  5
2DD
330
A
100
AcDbEntity
  8
1
  6
CONTINUOUS
370
    50
100
AcDbLine
 10
81.9468448183
 20
186.0691316982
 30
0.0
 11
73.4791424461
 21
188.4992689321
 31
0.0
  0
LINE
  5
2DE
330
A
100
AcDbEntity
  8
1
  6
CONTINUOUS
370
    50
100
AcDbLine
 10
89.3090698349
 20
183.3239773329
 30
0.0
 11
91.0291424461
 21
183.8176192104
 31
0.0
  0
LINE
  5
2DF
330
A
100
AcDbEntity
  8
1
  6
CONTINUOUS
370
    50
100
AcDbLine
 10
91.0291424461
 20
189.2275255555
 30
0.0
 11
87.8746306007
 21
188.3222154308
 31
0.0
  0
LINE
  5
2E0
330
A
100
AcDbEntity
  8
1
  6
CONTINUOUS
370
    50
100
AcDbLine
 10
86.9798870375
 20
187.1251073538
 30
0.0
 11
86.9068577352
 21
186.7647974732
 31
0.0
  0
LINE
  5
2E1
330
A
100
AcDbEntity
  8
1
  6
CONTINUOUS
370
    50
100
AcDbLine
 10
87.6626826104
 20
184.1311601628
 30
0.0
 11
87.9156702163
 21
183.8644135409
 31
0.0
  0
LINE
  5
2E2
330
A
100
AcDbEntity
  8
1
  6
CONTINUOUS
370
    50
100
AcDbLine
 10
73.2791424461
 20
206.7827263633
 30
0.0
 11
73.2791424461
 21
137.5327263633
 31
0.0
  0
LINE
  5
2E3
330
A
100
AcDbEntity
  8
1
  6
CONTINUOUS
370
    50
100
AcDbLine
 10
72.5220327227
 20
206.8295724697
 30
0.0
 11
72.5220327227
 21
137.4858802568
 31
0.0
  0
LINE
  5
2E4
330
A
100
AcDbEntity
  8
1
  6
CONTINUOUS
370
    50
100
AcDbLine
 10
72.7333418536
 20
206.7827263633
 30
0.0
 11
72.7333418536
 21
137.5327263633
 31
0.0
  0
LINE
  5
2E5
330
A
100
AcDbEntity
  8
1
  6
CONTINUOUS
370
    50
100
AcDbLine
 10
-27.8386588582
 20
192.5212168913
 30
0.0
 11
-27.8386588582
 21
151.7942358353
 31
0.0
  0
LINE
  5
2E6
330
A
100
AcDbEntity
  8
1
  6
CONTINUOUS
370
    50
100
AcDbLine
 10
19.2791424461
 20
184.1577263633
 30
0.0
 11
-17.5455798789
 21
184.1577263633
 31
0.0
  0
LINE
  5
2E7
330
A
100
AcDbEntity
  8
1
  6
CONTINUOUS
370
    50
100
AcDbLine
 10
-17.5455798789
 20
160.1577263633
 30
0.0
 11
19.2791424461
 21
160.1577263633
 31
0.0
  0
LINE
  5
2E8
330
A
100
AcDbEntity
  8
1
  6
CONTINUOUS
370
    50
100
AcDbLine
 10
19.2791424461
 20
184.1577263633
 30
0.0
 11
19.2791424461
 21
184.0099864504
 31
0.0
  0
LINE
  5
2E9
330
A
100
AcDbEntity
  8
1
  6
CONTINUOUS
370
    50
100
AcDbLine
 10
19.2791424461
 20
184.0099864504
 30
0.0
 11
19.2791424461
 21
160.1577263633
 31
0.0
  0
LINE
  5
2EA
330
A
100
AcDbEntity
  8
1
  6
CONTINUOUS
370
    50
100
AcDbLine
 10
77.4760273946
 20
183.077215965
 30
0.0
 11
77.7169910409
 21
182.2430848241
 31
0.0
  0
LINE
  5
2EB
330
A
100
AcDbEntity
  8
1
  6
CONTINUOUS
370
    50
100
AcDbLine
 10
77.7169910409
 20
182.2430848241
 30
0.0
 11
78.1155938443
 21
181.5095622093
 31
0.0
  0
LINE
  5
2EC
330
A
100
AcDbEntity
  8
1
  6
CONTINUOUS
370
    50
100
AcDbLine
 10
78.1155938443
 20
181.5095622093
 30
0.0
 11
78.6237584239
 21
180.9651217735
 31
0.0
  0
LINE
  5
2ED
330
A
100
AcDbEntity
  8
1
  6
CONTINUOUS
370
    50
100
AcDbLine
 10
78.6237584239
 20
180.9651217735
 30
0.0
 11
79.1801926317
 21
180.6754310683
 31
0.0
  0
LINE
  5
2EE
330
A
100
AcDbEntity
  8
1
  6
CONTINUOUS
370
    50
100
AcDbLine
 10
79.1801926317
 20
180.6754310683
 30
0.0
 11
79.7177822902
 21
180.6754310683
 31
0.0
  0
LINE
  5
2EF
330
A
100
AcDbEntity
  8
1
  6
CONTINUOUS
370
    50
100
AcDbLine
 10
79.7177822902
 20
180.6754310683
 30
0.0
 11
80.1716861526
 21
180.9651217735
 31
0.0
  0
LINE
  5
2F0
330
A
100
AcDbEntity
  8
1
  6
CONTINUOUS
370
    50
100
AcDbLine
 10
80.1716861526
 20
180.9651217735
 30
0.0
 11
80.4871567141
 21
181.5095622093
 31
0.0
  0
LINE
  5
2F1
330
A
100
AcDbEntity
  8
1
  6
CONTINUOUS
370
    50
100
AcDbLine
 10
80.4871567141
 20
181.5095622093
 30
0.0
 11
80.6261435692
 21
182.2430848241
 31
0.0
  0
LINE
  5
2F2
330
A
100
AcDbEntity
  8
1
  6
CONTINUOUS
370
    50
100
AcDbLine
 10
80.6261435692
 20
182.2430848241
 30
0.0
 11
80.571882852
 21
183.077215965
 31
0.0
  0
LINE
  5
2F3
330
A
100
AcDbEntity
  8
1
  6
CONTINUOUS
370
    50
100
AcDbLine
 10
80.571882852
 20
183.077215965
 30
0.0
 11
80.3309192056
 21
183.9113471059
 31
0.0
  0
LINE
  5
2F4
330
A
100
AcDbEntity
  8
1
  6
CONTINUOUS
370
    50
100
AcDbLine
 10
80.3309192056
 20
183.9113471059
 30
0.0
 11
79.9323164022
 21
184.6448697208
 31
0.0
  0
LINE
  5
2F5
330
A
100
AcDbEntity
  8
1
  6
CONTINUOUS
370
    50
100
AcDbLine
 10
79.9323164022
 20
184.6448697208
 30
0.0
 11
79.4241518226
 21
185.1893101566
 31
0.0
  0
LINE
  5
2F6
330
A
100
AcDbEntity
  8
1
  6
CONTINUOUS
370
    50
100
AcDbLine
 10
79.4241518226
 20
185.1893101566
 30
0.0
 11
78.8677176148
 21
185.4790008617
 31
0.0
  0
LINE
  5
2F7
330
A
100
AcDbEntity
  8
1
  6
CONTINUOUS
370
    50
100
AcDbLine
 10
78.8677176148
 20
185.4790008617
 30
0.0
 11
78.3301279563
 21
185.4790008617
 31
0.0
  0
LINE
  5
2F8
330
A
100
AcDbEntity
  8
1
  6
CONTINUOUS
370
    50
100
AcDbLine
 10
78.3301279563
 20
185.4790008617
 30
0.0
 11
77.8762240939
 21
185.1893101566
 31
0.0
  0
LINE
  5
2F9
330
A
100
AcDbEntity
  8
1
  6
CONTINUOUS
370
    50
100
AcDbLine
 10
77.8762240939
 20
185.1893101566
 30
0.0
 11
77.5607535324
 21
184.6448697208
 31
0.0
  0
LINE
  5
2FA
330
A
100
AcDbEntity
  8
1
  6
CONTINUOUS
370
    50
100
AcDbLine
 10
77.5607535324
 20
184.6448697208
 30
0.0
 11
77.4217666773
 21
183.9113471059
 31
0.0
  0
LINE
  5
2FB
330
A
100
AcDbEntity
  8
1
  6
CONTINUOUS
370
    50
100
AcDbLine
 10
77.4217666773
 20
183.9113471059
 30
0.0
 11
77.4760273946
 21
183.077215965
 31
0.0
  0
LINE
  5
2FC
330
A
100
AcDbEntity
  8
1
  6
CONTINUOUS
370
    50
100
AcDbLine
 10
86.9673180448
 20
185.8011117508
 30
0.0
 11
86.9130573275
 21
186.6352428917
 31
0.0
  0
LINE
  5
2FD
330
A
100
AcDbEntity
  8
1
  6
CONTINUOUS
370
    50
100
AcDbLine
 10
86.9130573275
 20
186.6352428917
 30
0.0
 11
87.0520441826
 21
187.3687655066
 31
0.0
  0
LINE
  5
2FE
330
A
100
AcDbEntity
  8
1
  6
CONTINUOUS
370
    50
100
AcDbLine
 10
87.0520441826
 20
187.3687655066
 30
0.0
 11
87.3675147441
 21
187.9132059424
 31
0.0
  0
LINE
  5
2FF
330
A
100
AcDbEntity
  8
1
  6
CONTINUOUS
370
    50
100
AcDbLine
 10
87.3675147441
 20
187.9132059424
 30
0.0
 11
87.8214186065
 21
188.2028966475
 31
0.0
  0
LINE
  5
300
330
A
100
AcDbEntity
  8
1
  6
CONTINUOUS
370
    50
100
AcDbLine
 10
87.8214186065
 20
188.2028966475
 30
0.0
 11
88.359008265
 21
188.2028966475
 31
0.0
  0
LINE
  5
301
330
A
100
AcDbEntity
  8
1
  6
CONTINUOUS
370
    50
100
AcDbLine
 10
88.359008265
 20
188.2028966475
 30
0.0
 11
88.9154424728
 21
187.9132059424
 31
0.0
  0
LINE
  5
302
330
A
100
AcDbEntity
  8
1
  6
CONTINUOUS
370
    50
100
AcDbLine
 10
88.9154424728
 20
187.9132059424
 30
0.0
 11
89.4236070525
 21
187.3687655066
 31
0.0
  0
LINE
  5
303
330
A
100
AcDbEntity
  8
1
  6
CONTINUOUS
370
    50
100
AcDbLine
 10
89.4236070525
 20
187.3687655066
 30
0.0
 11
89.8222098559
 21
186.6352428917
 31
0.0
  0
LINE
  5
304
330
A
100
AcDbEntity
  8
1
  6
CONTINUOUS
370
    50
100
AcDbLine
 10
89.8222098559
 20
186.6352428917
 30
0.0
 11
90.0631735022
 21
185.8011117508
 31
0.0
  0
LINE
  5
305
330
A
100
AcDbEntity
  8
1
  6
CONTINUOUS
370
    50
100
AcDbLine
 10
90.0631735022
 20
185.8011117508
 30
0.0
 11
90.1174342195
 21
184.9669806099
 31
0.0
  0
LINE
  5
306
330
A
100
AcDbEntity
  8
1
  6
CONTINUOUS
370
    50
100
AcDbLine
 10
90.1174342195
 20
184.9669806099
 30
0.0
 11
89.9784473644
 21
184.233457995
 31
0.0
  0
LINE
  5
307
330
A
100
AcDbEntity
  8
1
  6
CONTINUOUS
370
    50
100
AcDbLine
 10
89.9784473644
 20
184.233457995
 30
0.0
 11
89.6629768029
 21
183.6890175592
 31
0.0
  0
LINE
  5
308
330
A
100
AcDbEntity
  8
1
  6
CONTINUOUS
370
    50
100
AcDbLine
 10
89.6629768029
 20
183.6890175592
 30
0.0
 11
89.2090729405
 21
183.3993268541
 31
0.0
  0
LINE
  5
309
330
A
100
AcDbEntity
  8
1
  6
CONTINUOUS
370
    50
100
AcDbLine
 10
89.2090729405
 20
183.3993268541
 30
0.0
 11
88.671483282
 21
183.3993268541
 31
0.0
  0
LINE
  5
30A
330
A
100
AcDbEntity
  8
1
  6
CONTINUOUS
370
    50
100
AcDbLine
 10
88.671483282
 20
183.3993268541
 30
0.0
 11
88.1150490742
 21
183.6890175592
 31
0.0
  0
LINE
  5
30B
330
A
100
AcDbEntity
  8
1
  6
CONTINUOUS
370
    50
100
AcDbLine
 10
88.1150490742
 20
183.6890175592
 30
0.0
 11
87.6068844945
 21
184.233457995
 31
0.0
  0
LINE
  5
30C
330
A
100
AcDbEntity
  8
1
  6
CONTINUOUS
370
    50
100
AcDbLine
 10
87.6068844945
 20
184.233457995
 30
0.0
 11
87.2082816911
 21
184.9669806099
 31
0.0
  0
LINE
  5
30D
330
A
100
AcDbEntity
  8
1
  6
CONTINUOUS
370
    50
100
AcDbLine
 10
87.2082816911
 20
184.9669806099
 30
0.0
 11
86.9673180448
 21
185.8011117508
 31
0.0
  0
LINE
  5
30E
330
A
100
AcDbEntity
  8
1
  6
CONTINUOUS
370
    50
100
AcDbLine
 10
80.571882852
 20
161.2382367615
 30
0.0
 11
80.3309192056
 21
160.4041056206
 31
0.0
  0
LINE
  5
30F
330
A
100
AcDbEntity
  8
1
  6
CONTINUOUS
370
    50
100
AcDbLine
 10
80.3309192056
 20
160.4041056206
 30
0.0
 11
79.9323164022
 21
159.6705830057
 31
0.0
  0
LINE
  5
310
330
A
100
AcDbEntity
  8
1
  6
CONTINUOUS
370
    50
100
AcDbLine
 10
79.9323164022
 20
159.6705830057
 30
0.0
 11
79.4241518226
 21
159.1261425699
 31
0.0
  0
LINE
  5
311
330
A
100
AcDbEntity
  8
1
  6
CONTINUOUS
370
    50
100
AcDbLine
 10
79.4241518226
 20
159.1261425699
 30
0.0
 11
78.8677176148
 21
158.8364518648
 31
0.0
  0
LINE
  5
312
330
A
100
AcDbEntity
  8
1
  6
CONTINUOUS
370
    50
100
AcDbLine
 10
78.8677176148
 20
158.8364518648
 30
0.0
 11
78.3301279563
 21
158.8364518648
 31
0.0
  0
LINE
  5
313
330
A
100
AcDbEntity
  8
1
  6
CONTINUOUS
370
    50
100
AcDbLine
 10
78.3301279563
 20
158.8364518648
 30
0.0
 11
77.8762240939
 21
159.1261425699
 31
0.0
  0
LINE
  5
314
330
A
100
AcDbEntity
  8
1
  6
CONTINUOUS
370
    50
100
AcDbLine
 10
77.8762240939
 20
159.1261425699
 30
0.0
 11
77.5607535324
 21
159.6705830057
 31
0.0
  0
LINE
  5
315
330
A
100
AcDbEntity
  8
1
  6
CONTINUOUS
370
    50
100
AcDbLine
 10
77.5607535324
 20
159.6705830057
 30
0.0
 11
77.4217666773
 21
160.4041056206
 31
0.0
  0
LINE
  5
316
330
A
100
AcDbEntity
  8
1
  6
CONTINUOUS
370
    50
100
AcDbLine
 10
77.4217666773
 20
160.4041056206
 30
0.0
 11
77.4760273946
 21
161.2382367615
 31
0.0
  0
LINE
  5
317
330
A
100
AcDbEntity
  8
1
  6
CONTINUOUS
370
    50
100
AcDbLine
 10
77.4760273946
 20
161.2382367615
 30
0.0
 11
77.7169910409
 21
162.0723679024
 31
0.0
  0
LINE
  5
318
330
A
100
AcDbEntity
  8
1
  6
CONTINUOUS
370
    50
100
AcDbLine
 10
77.7169910409
 20
162.0723679024
 30
0.0
 11
78.1155938443
 21
162.8058905173
 31
0.0
  0
LINE
  5
319
330
A
100
AcDbEntity
  8
1
  6
CONTINUOUS
370
    50
100
AcDbLine
 10
78.1155938443
 20
162.8058905173
 30
0.0
 11
78.6237584239
 21
163.3503309531
 31
0.0
  0
LINE
  5
31A
330
A
100
AcDbEntity
  8
1
  6
CONTINUOUS
370
    50
100
AcDbLine
 10
78.6237584239
 20
163.3503309531
 30
0.0
 11
79.1801926317
 21
163.6400216582
 31
0.0
  0
LINE
  5
31B
330
A
100
AcDbEntity
  8
1
  6
CONTINUOUS
370
    50
100
AcDbLine
 10
79.1801926317
 20
163.6400216582
 30
0.0
 11
79.7177822902
 21
163.6400216582
 31
0.0
  0
LINE
  5
31C
330
A
100
AcDbEntity
  8
1
  6
CONTINUOUS
370
    50
100
AcDbLine
 10
79.7177822902
 20
163.6400216582
 30
0.0
 11
80.1716861526
 21
163.3503309531
 31
0.0
  0
LINE
  5
31D
330
A
100
AcDbEntity
  8
1
  6
CONTINUOUS
370
    50
100
AcDbLine
 10
80.1716861526
 20
163.3503309531
 30
0.0
 11
80.4871567141
 21
162.8058905173
 31
0.0
  0
LINE
  5
31E
330
A
100
AcDbEntity
  8
1
  6
CONTINUOUS
370
    50
100
AcDbLine
 10
80.4871567141
 20
162.8058905173
 30
0.0
 11
80.6261435692
 21
162.0723679024
 31
0.0
  0
LINE
  5
31F
330
A
100
AcDbEntity
  8
1
  6
CONTINUOUS
370
    50
100
AcDbLine
 10
80.6261435692
 20
162.0723679024
 30
0.0
 11
80.571882852
 21
161.2382367615
 31
0.0
  0
LINE
  5
320
330
A
100
AcDbEntity
  8
1
  6
CONTINUOUS
370
    50
100
AcDbLine
 10
90.0631735022
 20
158.5143409757
 30
0.0
 11
90.1174342195
 21
159.3484721166
 31
0.0
  0
LINE
  5
321
330
A
100
AcDbEntity
  8
1
  6
CONTINUOUS
370
    50
100
AcDbLine
 10
90.1174342195
 20
159.3484721166
 30
0.0
 11
89.9784473644
 21
160.0819947315
 31
0.0
  0
LINE
  5
322
330
A
100
AcDbEntity
  8
1
  6
CONTINUOUS
370
    50
100
AcDbLine
 10
89.9784473644
 20
160.0819947315
 30
0.0
 11
89.6629768029
 21
160.6264351673
 31
0.0
  0
LINE
  5
323
330
A
100
AcDbEntity
  8
1
  6
CONTINUOUS
370
    50
100
AcDbLine
 10
89.6629768029
 20
160.6264351673
 30
0.0
 11
89.2090729405
 21
160.9161258724
 31
0.0
  0
LINE
  5
324
330
A
100
AcDbEntity
  8
1
  6
CONTINUOUS
370
    50
100
AcDbLine
 10
89.2090729405
 20
160.9161258724
 30
0.0
 11
88.671483282
 21
160.9161258724
 31
0.0
  0
LINE
  5
325
330
A
100
AcDbEntity
  8
1
  6
CONTINUOUS
370
    50
100
AcDbLine
 10
88.671483282
 20
160.9161258724
 30
0.0
 11
88.1150490742
 21
160.6264351673
 31
0.0
  0
LINE
  5
326
330
A
100
AcDbEntity
  8
1
  6
CONTINUOUS
370
    50
100
AcDbLine
 10
88.1150490742
 20
160.6264351673
 30
0.0
 11
87.6068844945
 21
160.0819947315
 31
0.0
  0
LINE
  5
327
330
A
100
AcDbEntity
  8
1
  6
CONTINUOUS
370
    50
100
AcDbLine
 10
87.6068844945
 20
160.0819947315
 30
0.0
 11
87.2082816911
 21
159.3484721166
 31
0.0
  0
LINE
  5
328
330
A
100
AcDbEntity
  8
1
  6
CONTINUOUS
370
    50
100
AcDbLine
 10
87.2082816911
 20
159.3484721166
 30
0.0
 11
86.9673180448
 21
158.5143409757
 31
0.0
  0
LINE
  5
329
330
A
100
AcDbEntity
  8
1
  6
CONTINUOUS
370
    50
100
AcDbLine
 10
86.9673180448
 20
158.5143409757
 30
0.0
 11
86.9130573275
 21
157.6802098348
 31
0.0
  0
LINE
  5
32A
330
A
100
AcDbEntity
  8
1
  6
CONTINUOUS
370
    50
100
AcDbLine
 10
86.9130573275
 20
157.6802098348
 30
0.0
 11
87.0520441826
 21
156.94668722
 31
0.0
  0
LINE
  5
32B
330
A
100
AcDbEntity
  8
1
  6
CONTINUOUS
370
    50
100
AcDbLine
 10
87.0520441826
 20
156.94668722
 30
0.0
 11
87.3675147441
 21
156.4022467842
 31
0.0
  0
LINE
  5
32C
330
A
100
AcDbEntity
  8
1
  6
CONTINUOUS
370
    50
100
AcDbLine
 10
87.3675147441
 20
156.4022467842
 30
0.0
 11
87.8214186065
 21
156.112556079
 31
0.0
  0
LINE
  5
32D
330
A
100
AcDbEntity
  8
1
  6
CONTINUOUS
370
    50
100
AcDbLine
 10
87.8214186065
 20
156.112556079
 30
0.0
 11
88.359008265
 21
156.112556079
 31
0.0
  0
LINE
  5
32E
330
A
100
AcDbEntity
  8
1
  6
CONTINUOUS
370
    50
100
AcDbLine
 10
88.359008265
 20
156.112556079
 30
0.0
 11
88.9154424728
 21
156.4022467842
 31
0.0
  0
LINE
  5
32F
330
A
100
AcDbEntity
  8
1
  6
CONTINUOUS
370
    50
100
AcDbLine
 10
88.9154424728
 20
156.4022467842
 30
0.0
 11
89.4236070525
 21
156.94668722
 31
0.0
  0
LINE
  5
330
330
A
100
AcDbEntity
  8
1
  6
CONTINUOUS
370
    50
100
AcDbLine
 10
89.4236070525
 20
156.94668722
 30
0.0
 11
89.8222098559
 21
157.6802098348
 31
0.0
  0
LINE
  5
331
330
A
100
AcDbEntity
  8
1
  6
CONTINUOUS
370
    50
100
AcDbLine
 10
89.8222098559
 20
157.6802098348
 30
0.0
 11
90.0631735022
 21
158.5143409757
 31
0.0
  0
LINE
  5
332
330
A
100
AcDbEntity
  8
1
  6
CONTINUOUS
370
    50
100
AcDbLine
 10
80.5642224075
 20
161.2404352246
 30
0.0
 11
80.3232587612
 21
160.4063040837
 31
0.0
  0
LINE
  5
333
330
A
100
AcDbEntity
  8
1
  6
CONTINUOUS
370
    50
100
AcDbLine
 10
80.3232587612
 20
160.4063040837
 30
0.0
 11
79.9246559578
 21
159.6727814688
 31
0.0
  0
LINE
  5
334
330
A
100
AcDbEntity
  8
1
  6
CONTINUOUS
370
    50
100
AcDbLine
 10
79.9246559578
 20
159.6727814688
 30
0.0
 11
79.4164913782
 21
159.128341033
 31
0.0
  0
LINE
  5
335
330
A
100
AcDbEntity
  8
1
  6
CONTINUOUS
370
    50
100
AcDbLine
 10
79.4164913782
 20
159.128341033
 30
0.0
 11
78.8600571703
 21
158.8386503279
 31
0.0
  0
LINE
  5
336
330
A
100
AcDbEntity
  8
1
  6
CONTINUOUS
370
    50
100
AcDbLine
 10
78.8600571703
 20
158.8386503279
 30
0.0
 11
78.3224675118
 21
158.8386503279
 31
0.0
  0
LINE
  5
337
330
A
100
AcDbEntity
  8
1
  6
CONTINUOUS
370
    50
100
AcDbLine
 10
78.3224675118
 20
158.8386503279
 30
0.0
 11
77.8685636495
 21
159.128341033
 31
0.0
  0
LINE
  5
338
330
A
100
AcDbEntity
  8
1
  6
CONTINUOUS
370
    50
100
AcDbLine
 10
77.8685636495
 20
159.128341033
 30
0.0
 11
77.553093088
 21
159.6727814688
 31
0.0
  0
LINE
  5
339
330
A
100
AcDbEntity
  8
1
  6
CONTINUOUS
370
    50
100
AcDbLine
 10
77.553093088
 20
159.6727814688
 30
0.0
 11
77.4141062329
 21
160.4063040837
 31
0.0
  0
LINE
  5
33A
330
A
100
AcDbEntity
  8
1
  6
CONTINUOUS
370
    50
100
AcDbLine
 10
77.4141062329
 20
160.4063040837
 30
0.0
 11
77.4683669501
 21
161.2404352246
 31
0.0
  0
LINE
  5
33B
330
A
100
AcDbEntity
  8
1
  6
CONTINUOUS
370
    50
100
AcDbLine
 10
77.4683669501
 20
161.2404352246
 30
0.0
 11
77.7093305965
 21
162.0745663655
 31
0.0
  0
LINE
  5
33C
330
A
100
AcDbEntity
  8
1
  6
CONTINUOUS
370
    50
100
AcDbLine
 10
77.7093305965
 20
162.0745663655
 30
0.0
 11
78.1079333998
 21
162.8080889804
 31
0.0
  0
LINE
  5
33D
330
A
100
AcDbEntity
  8
1
  6
CONTINUOUS
370
    50
100
AcDbLine
 10
78.1079333998
 20
162.8080889804
 30
0.0
 11
78.6160979795
 21
163.3525294162
 31
0.0
  0
LINE
  5
33E
330
A
100
AcDbEntity
  8
1
  6
CONTINUOUS
370
    50
100
AcDbLine
 10
78.6160979795
 20
163.3525294162
 30
0.0
 11
79.1725321873
 21
163.6422201213
 31
0.0
  0
LINE
  5
33F
330
A
100
AcDbEntity
  8
1
  6
CONTINUOUS
370
    50
100
AcDbLine
 10
79.1725321873
 20
163.6422201213
 30
0.0
 11
79.7101218458
 21
163.6422201213
 31
0.0
  0
LINE
  5
340
330
A
100
AcDbEntity
  8
1
  6
CONTINUOUS
370
    50
100
AcDbLine
 10
79.7101218458
 20
163.6422201213
 30
0.0
 11
80.1640257082
 21
163.3525294162
 31
0.0
  0
LINE
  5
341
330
A
100
AcDbEntity
  8
1
  6
CONTINUOUS
370
    50
100
AcDbLine
 10
80.1640257082
 20
163.3525294162
 30
0.0
 11
80.4794962697
 21
162.8080889804
 31
0.0
  0
LINE
  5
342
330
A
100
AcDbEntity
  8
1
  6
CONTINUOUS
370
    50
100
AcDbLine
 10
80.4794962697
 20
162.8080889804
 30
0.0
 11
80.6184831248
 21
162.0745663655
 31
0.0
  0
LINE
  5
343
330
A
100
AcDbEntity
  8
1
  6
CONTINUOUS
370
    50
100
AcDbLine
 10
80.6184831248
 20
162.0745663655
 30
0.0
 11
80.5642224075
 21
161.2404352246
 31
0.0
  0
LINE
  5
344
330
A
100
AcDbEntity
  8
1
  6
CONTINUOUS
370
    50
100
AcDbLine
 10
90.0631735022
 20
158.5143409757
 30
0.0
 11
90.1174342195
 21
159.3484721166
 31
0.0
  0
LINE
  5
345
330
A
100
AcDbEntity
  8
1
  6
CONTINUOUS
370
    50
100
AcDbLine
 10
90.1174342195
 20
159.3484721166
 30
0.0
 11
89.9784473644
 21
160.0819947315
 31
0.0
  0
LINE
  5
346
330
A
100
AcDbEntity
  8
1
  6
CONTINUOUS
370
    50
100
AcDbLine
 10
89.9784473644
 20
160.0819947315
 30
0.0
 11
89.6629768029
 21
160.6264351673
 31
0.0
  0
LINE
  5
347
330
A
100
AcDbEntity
  8
1
  6
CONTINUOUS
370
    50
100
AcDbLine
 10
89.6629768029
 20
160.6264351673
 30
0.0
 11
89.2090729405
 21
160.9161258724
 31
0.0
  0
LINE
  5
348
330
A
100
AcDbEntity
  8
1
  6
CONTINUOUS
370
    50
100
AcDbLine
 10
89.2090729405
 20
160.9161258724
 30
0.0
 11
88.671483282
 21
160.9161258724
 31
0.0
  0
LINE
  5
349
330
A
100
AcDbEntity
  8
1
  6
CONTINUOUS
370
    50
100
AcDbLine
 10
88.671483282
 20
160.9161258724
 30
0.0
 11
88.1150490742
 21
160.6264351673
 31
0.0
  0
LINE
  5
34A
330
A
100
AcDbEntity
  8
1
  6
CONTINUOUS
370
    50
100
AcDbLine
 10
88.1150490742
 20
160.6264351673
 30
0.0
 11
87.6068844945
 21
160.0819947315
 31
0.0
  0
LINE
  5
34B
330
A
100
AcDbEntity
  8
1
  6
CONTINUOUS
370
    50
100
AcDbLine
 10
87.6068844945
 20
160.0819947315
 30
0.0
 11
87.2082816911
 21
159.3484721166
 31
0.0
  0
LINE
  5
34C
330
A
100
AcDbEntity
  8
1
  6
CONTINUOUS
370
    50
100
AcDbLine
 10
87.2082816911
 20
159.3484721166
 30
0.0
 11
86.9673180448
 21
158.5143409757
 31
0.0
  0
LINE
  5
34D
330
A
100
AcDbEntity
  8
1
  6
CONTINUOUS
370
    50
100
AcDbLine
 10
86.9673180448
 20
158.5143409757
 30
0.0
 11
86.9130573275
 21
157.6802098348
 31
0.0
  0
LINE
  5
34E
330
A
100
AcDbEntity
  8
1
  6
CONTINUOUS
370
    50
100
AcDbLine
 10
86.9130573275
 20
157.6802098348
 30
0.0
 11
87.0520441826
 21
156.94668722
 31
0.0
  0
LINE
  5
34F
330
A
100
AcDbEntity
  8
1
  6
CONTINUOUS
370
    50
100
AcDbLine
 10
87.0520441826
 20
156.94668722
 30
0.0
 11
87.3675147441
 21
156.4022467842
 31
0.0
  0
LINE
  5
350
330
A
100
AcDbEntity
  8
1
  6
CONTINUOUS
370
    50
100
AcDbLine
 10
87.3675147441
 20
156.4022467842
 30
0.0
 11
87.8214186065
 21
156.112556079
 31
0.0
  0
LINE
  5
351
330
A
100
AcDbEntity
  8
1
  6
CONTINUOUS
370
    50
100
AcDbLine
 10
87.8214186065
 20
156.112556079
 30
0.0
 11
88.359008265
 21
156.112556079
 31
0.0
  0
LINE
  5
352
330
A
100
AcDbEntity
  8
1
  6
CONTINUOUS
370
    50
100
AcDbLine
 10
88.359008265
 20
156.112556079
 30
0.0
 11
88.9154424728
 21
156.4022467842
 31
0.0
  0
LINE
  5
353
330
A
100
AcDbEntity
  8
1
  6
CONTINUOUS
370
    50
100
AcDbLine
 10
88.9154424728
 20
156.4022467842
 30
0.0
 11
89.4236070525
 21
156.94668722
 31
0.0
  0
LINE
  5
354
330
A
100
AcDbEntity
  8
1
  6
CONTINUOUS
370
    50
100
AcDbLine
 10
89.4236070525
 20
156.94668722
 30
0.0
 11
89.8222098559
 21
157.6802098348
 31
0.0
  0
LINE
  5
355
330
A
100
AcDbEntity
  8
1
  6
CONTINUOUS
370
    50
100
AcDbLine
 10
89.8222098559
 20
157.6802098348
 30
0.0
 11
90.0631735022
 21
158.5143409757
 31
0.0
  0
LINE
  5
356
330
A
100
AcDbEntity
  8
1
  6
CONTINUOUS
370
    50
100
AcDbLine
 10
80.571882852
 20
161.2382367615
 30
0.0
 11
80.3309192056
 21
160.4041056206
 31
0.0
  0
LINE
  5
357
330
A
100
AcDbEntity
  8
1
  6
CONTINUOUS
370
    50
100
AcDbLine
 10
80.3309192056
 20
160.4041056206
 30
0.0
 11
79.9323164022
 21
159.6705830057
 31
0.0
  0
LINE
  5
358
330
A
100
AcDbEntity
  8
1
  6
CONTINUOUS
370
    50
100
AcDbLine
 10
79.9323164022
 20
159.6705830057
 30
0.0
 11
79.4241518226
 21
159.1261425699
 31
0.0
  0
LINE
  5
359
330
A
100
AcDbEntity
  8
1
  6
CONTINUOUS
370
    50
100
AcDbLine
 10
79.4241518226
 20
159.1261425699
 30
0.0
 11
78.8677176148
 21
158.8364518648
 31
0.0
  0
LINE
  5
35A
330
A
100
AcDbEntity
  8
1
  6
CONTINUOUS
370
    50
100
AcDbLine
 10
78.8677176148
 20
158.8364518648
 30
0.0
 11
78.3301279563
 21
158.8364518648
 31
0.0
  0
LINE
  5
35B
330
A
100
AcDbEntity
  8
1
  6
CONTINUOUS
370
    50
100
AcDbLine
 10
78.3301279563
 20
158.8364518648
 30
0.0
 11
77.8762240939
 21
159.1261425699
 31
0.0
  0
LINE
  5
35C
330
A
100
AcDbEntity
  8
1
  6
CONTINUOUS
370
    50
100
AcDbLine
 10
77.8762240939
 20
159.1261425699
 30
0.0
 11
77.5607535324
 21
159.6705830057
 31
0.0
  0
LINE
  5
35D
330
A
100
AcDbEntity
  8
1
  6
CONTINUOUS
370
    50
100
AcDbLine
 10
77.5607535324
 20
159.6705830057
 30
0.0
 11
77.4217666773
 21
160.4041056206
 31
0.0
  0
LINE
  5
35E
330
A
100
AcDbEntity
  8
1
  6
CONTINUOUS
370
    50
100
AcDbLine
 10
77.4217666773
 20
160.4041056206
 30
0.0
 11
77.4760273946
 21
161.2382367615
 31
0.0
  0
LINE
  5
35F
330
A
100
AcDbEntity
  8
1
  6
CONTINUOUS
370
    50
100
AcDbLine
 10
77.4760273946
 20
161.2382367615
 30
0.0
 11
77.7169910409
 21
162.0723679024
 31
0.0
  0
LINE
  5
360
330
A
100
AcDbEntity
  8
1
  6
CONTINUOUS
370
    50
100
AcDbLine
 10
77.7169910409
 20
162.0723679024
 30
0.0
 11
78.1155938443
 21
162.8058905173
 31
0.0
  0
LINE
  5
361
330
A
100
AcDbEntity
  8
1
  6
CONTINUOUS
370
    50
100
AcDbLine
 10
78.1155938443
 20
162.8058905173
 30
0.0
 11
78.6237584239
 21
163.3503309531
 31
0.0
  0
LINE
  5
362
330
A
100
AcDbEntity
  8
1
  6
CONTINUOUS
370
    50
100
AcDbLine
 10
78.6237584239
 20
163.3503309531
 30
0.0
 11
79.1801926317
 21
163.6400216582
 31
0.0
  0
LINE
  5
363
330
A
100
AcDbEntity
  8
1
  6
CONTINUOUS
370
    50
100
AcDbLine
 10
79.1801926317
 20
163.6400216582
 30
0.0
 11
79.7177822902
 21
163.6400216582
 31
0.0
  0
LINE
  5
364
330
A
100
AcDbEntity
  8
1
  6
CONTINUOUS
370
    50
100
AcDbLine
 10
79.7177822902
 20
163.6400216582
 30
0.0
 11
80.1716861526
 21
163.3503309531
 31
0.0
  0
LINE
  5
365
330
A
100
AcDbEntity
  8
1
  6
CONTINUOUS
370
    50
100
AcDbLine
 10
80.1716861526
 20
163.3503309531
 30
0.0
 11
80.4871567141
 21
162.8058905173
 31
0.0
  0
LINE
  5
366
330
A
100
AcDbEntity
  8
1
  6
CONTINUOUS
370
    50
100
AcDbLine
 10
80.4871567141
 20
162.8058905173
 30
0.0
 11
80.6261435692
 21
162.0723679024
 31
0.0
  0
LINE
  5
367
330
A
100
AcDbEntity
  8
1
  6
CONTINUOUS
370
    50
100
AcDbLine
 10
80.6261435692
 20
162.0723679024
 30
0.0
 11
80.571882852
 21
161.2382367615
 31
0.0
  0
LINE
  5
368
330
A
100
AcDbEntity
  8
1
  6
CONTINUOUS
370
    50
100
AcDbLine
 10
179.9788175807
 20
180.1577263633
 30
0.0
 11
160.6678175807
 21
180.1577263633
 31
0.0
  0
LINE
  5
369
330
A
100
AcDbEntity
  8
1
  6
CONTINUOUS
370
    50
100
AcDbLine
 10
160.6678175807
 20
164.1577263633
 30
0.0
 11
179.9788175807
 21
164.1577263633
 31
0.0
  0
LINE
  5
36A
330
A
100
AcDbEntity
  8
1
  6
CONTINUOUS
370
    50
100
AcDbLine
 10
179.9788175807
 20
180.1577263633
 30
0.0
 11
179.9788175807
 21
180.0040086065
 31
0.0
  0
LINE
  5
36B
330
A
100
AcDbEntity
  8
1
  6
CONTINUOUS
370
    50
100
AcDbLine
 10
179.9788175807
 20
180.0040086065
 30
0.0
 11
179.9788175807
 21
164.1577263633
 31
0.0
  0
LINE
  5
36C
330
A
100
AcDbEntity
  8
1
  6
CONTINUOUS
370
    50
100
AcDbLine
 10
179.9788175807
 20
179.6577263633
 30
0.0
 11
179.9788175807
 21
179.6481001671
 31
0.0
  0
LINE
  5
36D
330
A
100
AcDbEntity
  8
1
  6
CONTINUOUS
370
    50
100
AcDbLine
 10
179.9788175807
 20
179.6481001671
 30
0.0
 11
179.9788175807
 21
172.1577263633
 31
0.0
  0
ENDSEC
  0
SECTION
  2
OBJECTS
  0
DICTIONARY
  5
19
330
0
100
AcDbDictionary
281
     1
  3
ACAD_GROUP
350
1A
  3
ACAD_LAYOUT
350
392
  3
ACAD_MATERIAL
350
3A6
  3
ACAD_MLEADERSTYLE
350
3AE
  3
ACAD_MLINESTYLE
350
1B
  3
ACAD_SCALELIST
350
370
  3
ACAD_VISUALSTYLE
350
395
  3
ACDB_RECOMPOSE_DATA
350
3DB
  3
AcDbVariableDictionary
350
3AC
  0
DICTIONARY
  5
3B2
330
7
100
AcDbDictionary
280
     1
281
     1
  3
ACAD_XREC_ROUNDTRIP
360
3B3
  0
DICTIONARY
  5
1A
102
{ACAD_REACTORS
330
19
102
}
330
19
100
AcDbDictionary
281
     1
  0
DICTIONARY
  5
392
102
{ACAD_REACTORS
330
19
102
}
330
19
100
AcDbDictionary
281
     1
  3
Layout1
350
394
  3
Model
350
393
  0
DICTIONARY
  5
3A6
102
{ACAD_REACTORS
330
19
102
}
330
19
100
AcDbDictionary
281
     1
  3
ByBlock
350
3A8
  3
ByLayer
350
3A7
  3
Global
350
3A9
  0
DICTIONARY
  5
3AE
102
{ACAD_REACTORS
330
19
102
}
330
19
100
AcDbDictionary
281
     1
  0
DICTIONARY
  5
1B
102
{ACAD_REACTORS
330
19
102
}
330
19
100
AcDbDictionary
281
     1
  3
STANDARD
350
1C
  0
DICTIONARY
  5
370
102
{ACAD_REACTORS
330
19
102
}
330
19
100
AcDbDictionary
281
     1
  3
A0
350
371
  3
A1
350
372
  3
A2
350
373
  3
A3
350
374
  3
A4
350
375
  3
A5
350
376
  3
A6
350
377
  3
A7
350
378
  3
A8
350
379
  3
A9
350
37A
  3
B0
350
37B
  3
B1
350
37C
  3
B2
350
37D
  3
B3
350
37E
  3
B4
350
37F
  3
B5
350
380
  3
B6
350
381
  3
B7
350
382
  3
B8
350
383
  3
B9
350
384
  3
C0
350
385
  3
C1
350
386
  3
C2
350
387
  3
C3
350
388
  3
C4
350
389
  3
C5
350
38A
  3
C6
350
38B
  3
C7
350
38C
  3
C8
350
38D
  3
C9
350
38E
  3
D0
350
38F
  3
D1
350
390
  3
D2
350
391
  0
DICTIONARY
  5
395
102
{ACAD_REACTORS
330
19
102
}
330
19
100
AcDbDictionary
281
     1
  3
2dWireframe
350
39A
  3
3D Hidden
350
39C
  3
3dWireframe
350
39B
  3
Basic
350
39D
  3
Brighten
350
3A1
  3
ColorChange
350
3A5
  3
Conceptual
350
39F
  3
Dim
350
3A0
  3
Facepattern
350
3A4
  3
Flat
350
396
  3
FlatWithEdges
350
397
  3
Gouraud
350
398
  3
GouraudWithEdges
350
399
  3
Linepattern
350
3A3
  3
Realistic
350
39E
  3
Thicken
350
3A2
  0
XRECORD
  5
3DB
102
{ACAD_REACTORS
330
19
102
}
330
19
100
AcDbXrecord
280
     1
  0
DICTIONARY
  5
3AC
102
{ACAD_REACTORS
330
19
102
}
330
19
100
AcDbDictionary
281
     1
  3
CANNOSCALE
350
3B4
  3
DIMASSOC
350
3B0
  3
HIDETEXT
350
3B1
  3
MSLTSCALE
350
3AF
  0
XRECORD
  5
3B3
102
{ACAD_REACTORS
330
3B2
102
}
330
3B2
100
AcDbXrecord
280
     1
102
VTR_0.000_0.000_1.000_1.000_VISUALSTYLE
340
39A
102
VTR_0.000_0.000_1.000_1.000_GRIDDISPLAY
 70
     3
102
VTR_0.000_0.000_1.000_1.000_GRIDMAJOR
 70
     5
102
VTR_0.000_0.000_1.000_1.000_DEFAULTLIGHTING
280
     1
102
VTR_0.000_0.000_1.000_1.000_DEFAULTLIGHTINGTYPE
 70
     1
102
VTR_0.000_0.000_1.000_1.000_BRIGHTNESS
141
0.0
102
VTR_0.000_0.000_1.000_1.000_CONTRAST
142
0.0
  0
LAYOUT
  5
394
102
{ACAD_REACTORS
330
392
102
}
330
392
100
AcDbPlotSettings
  1

  2
none_device
  4

  6

 40
0.0
 41
0.0
 42
0.0
 43
0.0
 44
0.0
 45
0.0
 46
0.0
 47
0.0
 48
0.0
 49
0.0
140
0.0
141
0.0
142
1.0
143
1.0
 70
   688
 72
     0
 73
     0
 74
     5
  7

 75
    16
147
1.0
148
0.0
149
0.0
100
AcDbLayout
  1
Layout1
 70
     1
 71
     1
 10
0.0
 20
0.0
 11
12.0
 21
9.0
 12
0.0
 22
0.0
 32
0.0
 14
1.000000000000000E+20
 24
1.000000000000000E+20
 34
1.000000000000000E+20
 15
-1.000000000000000E+20
 25
-1.000000000000000E+20
 35
-1.000000000000000E+20
146
0.0
 13
0.0
 23
0.0
 33
0.0
 16
1.0
 26
0.0
 36
0.0
 17
0.0
 27
1.0
 37
0.0
 76
     0
330
B
  0
LAYOUT
  5
393
102
{ACAD_REACTORS
330
392
102
}
330
392
100
AcDbPlotSettings
  1

  2
none_device
  4

  6

 40
0.0
 41
0.0
 42
0.0
 43
0.0
 44
0.0
 45
0.0
 46
0.0
 47
0.0
 48
0.0
 49
0.0
140
0.0
141
0.0
142
1.0
143
1.0
 70
  1712
 72
     0
 73
     0
 74
     0
  7

 75
     0
147
1.0
148
2667.54428576817
149
0.0
100
AcDbLayout
  1
Model
 70
     1
 71
     0
 10
0.0
 20
0.0
 11
0.0
 21
0.0
 12
0.0
 22
0.0
 32
0.0
 14
0.0
 24
0.0
 34
0.0
 15
210.0
 25
297.0
 35
0.0
146
0.0
 13
0.0
 23
0.0
 33
0.0
 16
1.0
 26
0.0
 36
0.0
 17
0.0
 27
1.0
 37
0.0
 76
     0
330
A
331
15
  0
MATERIAL
  5
3A8
102
{ACAD_REACTORS
330
3A6
102
}
102
{ACAD_XDICTIONARY
360
3D7
102
}
330
3A6
100
AcDbMaterial
  1
ByBlock
  0
MATERIAL
  5
3A7
102
{ACAD_REACTORS
330
3A6
102
}
102
{ACAD_XDICTIONARY
360
3D5
102
}
330
3A6
100
AcDbMaterial
  1
ByLayer
  0
MATERIAL
  5
3A9
102
{ACAD_REACTORS
330
3A6
102
}
102
{ACAD_XDICTIONARY
360
3D9
102
}
330
3A6
100
AcDbMaterial
  1
Global
  0
MLINESTYLE
  5
1C
102
{ACAD_REACTORS
330
1B
102
}
330
1B
100
AcDbMlineStyle
  2
STANDARD
 70
     0
  3

 62
     0
 51
90.0
 52
90.0
 71
     2
 49
0.5
 62
   256
  6
BYLAYER
 49
-0.5
 62
   256
  6
BYLAYER
  0
SCALE
  5
371
102
{ACAD_REACTORS
330
370
102
}
330
370
100
AcDbScale
 70
     0
300
1:1
140
1.0
141
1.0
290
     1
  0
SCALE
  5
372
102
{ACAD_REACTORS
330
370
102
}
330
370
100
AcDbScale
 70
     0
300
1:2
140
1.0
141
2.0
290
     0
  0
SCALE
  5
373
102
{ACAD_REACTORS
330
370
102
}
330
370
100
AcDbScale
 70
     0
300
1:4
140
1.0
141
4.0
290
     0
  0
SCALE
  5
374
102
{ACAD_REACTORS
330
370
102
}
330
370
100
AcDbScale
 70
     0
300
1:5
140
1.0
141
5.0
290
     0
  0
SCALE
  5
375
102
{ACAD_REACTORS
330
370
102
}
330
370
100
AcDbScale
 70
     0
300
1:8
140
1.0
141
8.0
290
     0
  0
SCALE
  5
376
102
{ACAD_REACTORS
330
370
102
}
330
370
100
AcDbScale
 70
     0
300
1:10
140
1.0
141
10.0
290
     0
  0
SCALE
  5
377
102
{ACAD_REACTORS
330
370
102
}
330
370
100
AcDbScale
 70
     0
300
1:16
140
1.0
141
16.0
290
     0
  0
SCALE
  5
378
102
{ACAD_REACTORS
330
370
102
}
330
370
100
AcDbScale
 70
     0
300
1:20
140
1.0
141
20.0
290
     0
  0
SCALE
  5
379
102
{ACAD_REACTORS
330
370
102
}
330
370
100
AcDbScale
 70
     0
300
1:30
140
1.0
141
30.0
290
     0
  0
SCALE
  5
37A
102
{ACAD_REACTORS
330
370
102
}
330
370
100
AcDbScale
 70
     0
300
1:40
140
1.0
141
40.0
290
     0
  0
SCALE
  5
37B
102
{ACAD_REACTORS
330
370
102
}
330
370
100
AcDbScale
 70
     0
300
1:50
140
1.0
141
50.0
290
     0
  0
SCALE
  5
37C
102
{ACAD_REACTORS
330
370
102
}
330
370
100
AcDbScale
 70
     0
300
1:100
140
1.0
141
100.0
290
     0
  0
SCALE
  5
37D
102
{ACAD_REACTORS
330
370
102
}
330
370
100
AcDbScale
 70
     0
300
2:1
140
2.0
141
1.0
290
     0
  0
SCALE
  5
37E
102
{ACAD_REACTORS
330
370
102
}
330
370
100
AcDbScale
 70
     0
300
4:1
140
4.0
141
1.0
290
     0
  0
SCALE
  5
37F
102
{ACAD_REACTORS
330
370
102
}
330
370
100
AcDbScale
 70
     0
300
8:1
140
8.0
141
1.0
290
     0
  0
SCALE
  5
380
102
{ACAD_REACTORS
330
370
102
}
330
370
100
AcDbScale
 70
     0
300
10:1
140
10.0
141
1.0
290
     0
  0
SCALE
  5
381
102
{ACAD_REACTORS
330
370
102
}
330
370
100
AcDbScale
 70
     0
300
100:1
140
100.0
141
1.0
290
     0
  0
SCALE
  5
382
102
{ACAD_REACTORS
330
370
102
}
330
370
100
AcDbScale
 70
     0
300
1/128" = 1'-0"
140
0.0078125
141
12.0
290
     0
  0
SCALE
  5
383
102
{ACAD_REACTORS
330
370
102
}
330
370
100
AcDbScale
 70
     0
300
1/64" = 1'-0"
140
0.015625
141
12.0
290
     0
  0
SCALE
  5
384
102
{ACAD_REACTORS
330
370
102
}
330
370
100
AcDbScale
 70
     0
300
1/32" = 1'-0"
140
0.03125
141
12.0
290
     0
  0
SCALE
  5
385
102
{ACAD_REACTORS
330
370
102
}
330
370
100
AcDbScale
 70
     0
300
1/16" = 1'-0"
140
0.0625
141
12.0
290
     0
  0
SCALE
  5
386
102
{ACAD_REACTORS
330
370
102
}
330
370
100
AcDbScale
 70
     0
300
3/32" = 1'-0"
140
0.09375
141
12.0
290
     0
  0
SCALE
  5
387
102
{ACAD_REACTORS
330
370
102
}
330
370
100
AcDbScale
 70
     0
300
1/8" = 1'-0"
140
0.125
141
12.0
290
     0
  0
SCALE
  5
388
102
{ACAD_REACTORS
330
370
102
}
330
370
100
AcDbScale
 70
     0
300
3/16" = 1'-0"
140
0.1875
141
12.0
290
     0
  0
SCALE
  5
389
102
{ACAD_REACTORS
330
370
102
}
330
370
100
AcDbScale
 70
     0
300
1/4" = 1'-0"
140
0.25
141
12.0
290
     0
  0
SCALE
  5
38A
102
{ACAD_REACTORS
330
370
102
}
330
370
100
AcDbScale
 70
     0
300
3/8" = 1'-0"
140
0.375
141
12.0
290
     0
  0
SCALE
  5
38B
102
{ACAD_REACTORS
330
370
102
}
330
370
100
AcDbScale
 70
     0
300
1/2" = 1'-0"
140
0.5
141
12.0
290
     0
  0
SCALE
  5
38C
102
{ACAD_REACTORS
330
370
102
}
330
370
100
AcDbScale
 70
     0
300
3/4" = 1'-0"
140
0.75
141
12.0
290
     0
  0
SCALE
  5
38D
102
{ACAD_REACTORS
330
370
102
}
330
370
100
AcDbScale
 70
     0
300
1" = 1'-0"
140
1.0
141
12.0
290
     0
  0
SCALE
  5
38E
102
{ACAD_REACTORS
330
370
102
}
330
370
100
AcDbScale
 70
     0
300
1-1/2" = 1'-0"
140
1.5
141
12.0
290
     0
  0
SCALE
  5
38F
102
{ACAD_REACTORS
330
370
102
}
330
370
100
AcDbScale
 70
     0
300
3" = 1'-0"
140
3.0
141
12.0
290
     0
  0
SCALE
  5
390
102
{ACAD_REACTORS
330
370
102
}
330
370
100
AcDbScale
 70
     0
300
6" = 1'-0"
140
6.0
141
12.0
290
     0
  0
SCALE
  5
391
102
{ACAD_REACTORS
330
370
102
}
330
370
100
AcDbScale
 70
     0
300
1'-0" = 1'-0"
140
12.0
141
12.0
290
     0
  0
VISUALSTYLE
  5
39A
102
{ACAD_REACTORS
330
395
102
}
102
{ACAD_XDICTIONARY
360
3BD
102
}
330
395
100
AcDbVisualStyle
  2
2dWireframe
 70
     4
 71
     0
 72
     2
 73
     0
 90
        0
 40
-0.6
 41
-30.0
 62
     5
 63
     7
 74
     1
 91
        4
 64
     7
 65
   257
 75
     1
175
     1
 42
1.0
 92
        0
 66
   257
 43
1.0
 76
     1
 77
     6
 78
     2
 67
     7
 79
     5
170
     0
171
     0
290
     0
174
     0
 93
        1
 44
0.0
173
     0
291
     0
 45
0.0
1001
ACAD
1000
AcDbSavedByObjectVersion
1070
     0
  0
VISUALSTYLE
  5
39C
102
{ACAD_REACTORS
330
395
102
}
102
{ACAD_XDICTIONARY
360
3C1
102
}
330
395
100
AcDbVisualStyle
  2
3D Hidden
 70
     6
 71
     1
 72
     2
 73
     2
 90
        0
 40
-0.6
 41
-30.0
 62
     5
 63
     7
 74
     2
 91
        2
 64
     7
 65
   257
 75
     2
175
     1
 42
40.0
 92
        0
 66
   257
 43
1.0
 76
     1
 77
     6
 78
     2
 67
     7
 79
     3
170
     0
171
     0
290
     0
174
     0
 93
        1
 44
0.0
173
     0
291
     0
 45
0.0
1001
ACAD
1000
AcDbSavedByObjectVersion
1070
     0
  0
VISUALSTYLE
  5
39B
102
{ACAD_REACTORS
330
395
102
}
102
{ACAD_XDICTIONARY
360
3BF
102
}
330
395
100
AcDbVisualStyle
  2
3dWireframe
 70
     5
 71
     0
 72
     2
 73
     0
 90
        0
 40
-0.6
 41
-30.0
 62
     5
 63
     7
 74
     1
 91
        4
 64
     7
 65
   257
 75
     1
175
     1
 42
1.0
 92
        0
 66
   257
 43
1.0
 76
     1
 77
     6
 78
     2
 67
     7
 79
     5
170
     0
171
     0
290
     0
174
     0
 93
        1
 44
0.0
173
     0
291
     0
 45
0.0
1001
ACAD
1000
AcDbSavedByObjectVersion
1070
     0
  0
VISUALSTYLE
  5
39D
102
{ACAD_REACTORS
330
395
102
}
102
{ACAD_XDICTIONARY
360
3C3
102
}
330
395
100
AcDbVisualStyle
  2
Basic
 70
     7
 71
     1
 72
     0
 73
     1
 90
        0
 40
-0.6
 41
-30.0
 62
     5
 63
     7
 74
     0
 91
        4
 64
     7
 65
   257
 75
     1
175
     1
 42
1.0
 92
        8
 66
     7
 43
1.0
 76
     1
 77
     6
 78
     2
 67
     7
 79
     5
170
     0
171
     0
290
     0
174
     0
 93
        1
 44
0.0
173
     0
291
     1
 45
0.0
1001
ACAD
1000
AcDbSavedByObjectVersion
1070
     0
  0
VISUALSTYLE
  5
3A1
102
{ACAD_REACTORS
330
395
102
}
102
{ACAD_XDICTIONARY
360
3CB
102
}
330
395
100
AcDbVisualStyle
  2
Brighten
 70
    12
 71
     2
 72
     2
 73
     0
 90
        0
 40
-0.6
 41
-30.0
 62
     5
 63
     7
 74
     1
 91
        4
 64
     7
 65
   257
 75
     1
175
     1
 42
1.0
 92
        8
 66
     7
 43
1.0
 76
     1
 77
     6
 78
     2
 67
     7
 79
     5
170
     0
171
     0
290
     0
174
     0
 93
        1
 44
50.0
173
     0
291
     1
 45
0.0
1001
ACAD
1000
AcDbSavedByObjectVersion
1070
     0
  0
VISUALSTYLE
  5
3A5
102
{ACAD_REACTORS
330
395
102
}
102
{ACAD_XDICTIONARY
360
3D3
102
}
330
395
100
AcDbVisualStyle
  2
ColorChange
 70
    16
 71
     2
 72
     2
 73
     3
 90
        0
 40
-0.6
 41
-30.0
 62
     5
 63
     8
 74
     1
 91
        4
 64
     7
 65
   257
 75
     1
175
     1
 42
1.0
 92
        8
 66
     8
 43
1.0
 76
     1
 77
     6
 78
     2
 67
     7
 79
     5
170
     0
171
     0
290
     0
174
     0
 93
        1
 44
0.0
173
     0
291
     1
 45
0.0
1001
ACAD
1000
AcDbSavedByObjectVersion
1070
     0
  0
VISUALSTYLE
  5
39F
102
{ACAD_REACTORS
330
395
102
}
102
{ACAD_XDICTIONARY
360
3C7
102
}
330
395
100
AcDbVisualStyle
  2
Conceptual
 70
     9
 71
     3
 72
     2
 73
     0
 90
        0
 40
-0.6
 41
-30.0
 62
     5
 63
     7
 74
     2
 91
        2
 64
     7
 65
   257
 75
     1
175
     1
 42
40.0
 92
        8
 66
     7
 43
1.0
 76
     1
 77
     6
 78
     2
 67
     7
 79
     3
170
     0
171
     0
290
     0
174
     0
 93
        1
 44
0.0
173
     0
291
     0
 45
0.0
1001
ACAD
1000
AcDbSavedByObjectVersion
1070
     0
  0
VISUALSTYLE
  5
3A0
102
{ACAD_REACTORS
330
395
102
}
102
{ACAD_XDICTIONARY
360
3C9
102
}
330
395
100
AcDbVisualStyle
  2
Dim
 70
    11
 71
     2
 72
     2
 73
     0
 90
        0
 40
-0.6
 41
-30.0
 62
     5
 63
     7
 74
     1
 91
        4
 64
     7
 65
   257
 75
     1
175
     1
 42
1.0
 92
        8
 66
     7
 43
1.0
 76
     1
 77
     6
 78
     2
 67
     7
 79
     5
170
     0
171
     0
290
     0
174
     0
 93
        1
 44
-50.0
173
     0
291
     1
 45
0.0
1001
ACAD
1000
AcDbSavedByObjectVersion
1070
     0
  0
VISUALSTYLE
  5
3A4
102
{ACAD_REACTORS
330
395
102
}
102
{ACAD_XDICTIONARY
360
3D1
102
}
330
395
100
AcDbVisualStyle
  2
Facepattern
 70
    15
 71
     2
 72
     2
 73
     0
 90
        0
 40
-0.6
 41
-30.0
 62
     5
 63
     7
 74
     1
 91
        4
 64
     7
 65
   257
 75
     1
175
     1
 42
1.0
 92
        8
 66
     7
 43
1.0
 76
     1
 77
     6
 78
     2
 67
     7
 79
     5
170
     0
171
     0
290
     0
174
     0
 93
        1
 44
0.0
173
     0
291
     1
 45
0.0
1001
ACAD
1000
AcDbSavedByObjectVersion
1070
     0
  0
VISUALSTYLE
  5
396
102
{ACAD_REACTORS
330
395
102
}
102
{ACAD_XDICTIONARY
360
3B5
102
}
330
395
100
AcDbVisualStyle
  2
Flat
 70
     0
 71
     2
 72
     1
 73
     1
 90
        2
 40
-0.6
 41
30.0
 62
     5
 63
     7
 74
     0
 91
        4
 64
     7
 65
   257
 75
     1
175
     1
 42
1.0
 92
        8
 66
     7
 43
1.0
 76
     1
 77
     6
 78
     2
 67
     7
 79
     5
170
     0
171
     0
290
     0
174
     0
 93
       13
 44
0.0
173
     0
291
     1
 45
0.0
1001
ACAD
1000
AcDbSavedByObjectVersion
1070
     0
  0
VISUALSTYLE
  5
397
102
{ACAD_REACTORS
330
395
102
}
102
{ACAD_XDICTIONARY
360
3B7
102
}
330
395
100
AcDbVisualStyle
  2
FlatWithEdges
 70
     1
 71
     2
 72
     1
 73
     1
 90
        2
 40
-0.6
 41
30.0
 62
     5
 63
     7
 74
     1
 91
        4
 64
     7
 65
   257
 75
     1
175
     1
 42
1.0
 92
        0
 66
   257
 43
1.0
 76
     1
 77
     6
 78
     2
 67
     7
 79
     5
170
     0
171
     0
290
     0
174
     0
 93
       13
 44
0.0
173
     0
291
     1
 45
0.0
1001
ACAD
1000
AcDbSavedByObjectVersion
1070
     0
  0
VISUALSTYLE
  5
398
102
{ACAD_REACTORS
330
395
102
}
102
{ACAD_XDICTIONARY
360
3B9
102
}
330
395
100
AcDbVisualStyle
  2
Gouraud
 70
     2
 71
     2
 72
     2
 73
     1
 90
        2
 40
-0.6
 41
30.0
 62
     5
 63
     7
 74
     0
 91
        4
 64
     7
 65
   257
 75
     1
175
     1
 42
1.0
 92
        0
 66
     7
 43
1.0
 76
     1
 77
     6
 78
     2
 67
     7
 79
     5
170
     0
171
     0
290
     0
174
     0
 93
       13
 44
0.0
173
     0
291
     1
 45
0.0
1001
ACAD
1000
AcDbSavedByObjectVersion
1070
     0
  0
VISUALSTYLE
  5
399
102
{ACAD_REACTORS
330
395
102
}
102
{ACAD_XDICTIONARY
360
3BB
102
}
330
395
100
AcDbVisualStyle
  2
GouraudWithEdges
 70
     3
 71
     2
 72
     2
 73
     1
 90
        2
 40
-0.6
 41
30.0
 62
     5
 63
     7
 74
     1
 91
        4
 64
     7
 65
   257
 75
     1
175
     1
 42
1.0
 92
        0
 66
   257
 43
1.0
 76
     1
 77
     6
 78
     2
 67
     7
 79
     5
170
     0
171
     0
290
     0
174
     0
 93
       13
 44
0.0
173
     0
291
     1
 45
0.0
1001
ACAD
1000
AcDbSavedByObjectVersion
1070
     0
  0
VISUALSTYLE
  5
3A3
102
{ACAD_REACTORS
330
395
102
}
102
{ACAD_XDICTIONARY
360
3CF
102
}
330
395
100
AcDbVisualStyle
  2
Linepattern
 70
    14
 71
     2
 72
     2
 73
     0
 90
        0
 40
-0.6
 41
-30.0
 62
     5
 63
     7
 74
     1
 91
        4
 64
     7
 65
   257
 75
     7
175
     7
 42
1.0
 92
        8
 66
     7
 43
1.0
 76
     1
 77
     6
 78
     2
 67
     7
 79
     5
170
     0
171
     0
290
     0
174
     0
 93
        1
 44
0.0
173
     0
291
     1
 45
0.0
1001
ACAD
1000
AcDbSavedByObjectVersion
1070
     0
  0
VISUALSTYLE
  5
39E
102
{ACAD_REACTORS
330
395
102
}
102
{ACAD_XDICTIONARY
360
3C5
102
}
330
395
100
AcDbVisualStyle
  2
Realistic
 70
     8
 71
     2
 72
     2
 73
     0
 90
        0
 40
-0.6
 41
-30.0
 62
     5
 63
     7
 74
     1
 91
        0
 64
     7
 65
   257
 75
     1
175
     1
 42
1.0
 92
        8
 66
     8
 43
1.0
 76
     1
 77
     6
 78
     2
 67
     7
 79
     5
170
     0
171
     0
290
     0
174
     0
 93
       13
 44
0.0
173
     0
291
     0
 45
0.0
1001
ACAD
1000
AcDbSavedByObjectVersion
1070
     0
  0
VISUALSTYLE
  5
3A2
102
{ACAD_REACTORS
330
395
102
}
102
{ACAD_XDICTIONARY
360
3CD
102
}
330
395
100
AcDbVisualStyle
  2
Thicken
 70
    13
 71
     2
 72
     2
 73
     0
 90
        0
 40
-0.6
 41
-30.0
 62
     5
 63
     7
 74
     1
 91
        4
 64
     7
 65
   257
 75
     1
175
     1
 42
1.0
 92
       12
 66
     7
 43
1.0
 76
     1
 77
     6
 78
     2
 67
     7
 79
     5
170
     0
171
     0
290
     0
174
     0
 93
        1
 44
0.0
173
     0
291
     1
 45
0.0
1001
ACAD
1000
AcDbSavedByObjectVersion
1070
     0
  0
DICTIONARYVAR
  5
3B4
102
{ACAD_REACTORS
330
3AC
102
}
330
3AC
100
DictionaryVariables
280
     0
  1
1:1
  0
DICTIONARYVAR
  5
3B0
102
{ACAD_REACTORS
330
3AC
102
}
330
3AC
100
DictionaryVariables
280
     0
  1
2
  0
DICTIONARYVAR
  5
3B1
102
{ACAD_REACTORS
330
3AC
102
}
330
3AC
100
DictionaryVariables
280
     0
  1
1
  0
DICTIONARYVAR
  5
3AF
102
{ACAD_REACTORS
330
3AC
102
}
330
3AC
100
DictionaryVariables
280
     0
  1
0
  0
DICTIONARY
  5
3D7
330
3A8
100
AcDbDictionary
280
     1
281
     1
  3
ACAD_XREC_ROUNDTRIP
360
3D8
  0
DICTIONARY
  5
3D5
330
3A7
100
AcDbDictionary
280
     1
281
     1
  3
ACAD_XREC_ROUNDTRIP
360
3D6
  0
DICTIONARY
  5
3D9
330
3A9
100
AcDbDictionary
280
     1
281
     1
  3
ACAD_XREC_ROUNDTRIP
360
3DA
  0
DICTIONARY
  5
3BD
330
39A
100
AcDbDictionary
280
     1
281
     1
  3
ACAD_XREC_ROUNDTRIP
360
3BE
  0
DICTIONARY
  5
3C1
330
39C
100
AcDbDictionary
280
     1
281
     1
  3
ACAD_XREC_ROUNDTRIP
360
3C2
  0
DICTIONARY
  5
3BF
330
39B
100
AcDbDictionary
280
     1
281
     1
  3
ACAD_XREC_ROUNDTRIP
360
3C0
  0
DICTIONARY
  5
3C3
330
39D
100
AcDbDictionary
280
     1
281
     1
  3
ACAD_XREC_ROUNDTRIP
360
3C4
  0
DICTIONARY
  5
3CB
330
3A1
100
AcDbDictionary
280
     1
281
     1
  3
ACAD_XREC_ROUNDTRIP
360
3CC
  0
DICTIONARY
  5
3D3
330
3A5
100
AcDbDictionary
280
     1
281
     1
  3
ACAD_XREC_ROUNDTRIP
360
3D4
  0
DICTIONARY
  5
3C7
330
39F
100
AcDbDictionary
280
     1
281
     1
  3
ACAD_XREC_ROUNDTRIP
360
3C8
  0
DICTIONARY
  5
3C9
330
3A0
100
AcDbDictionary
280
     1
281
     1
  3
ACAD_XREC_ROUNDTRIP
360
3CA
  0
DICTIONARY
  5
3D1
330
3A4
100
AcDbDictionary
280
     1
281
     1
  3
ACAD_XREC_ROUNDTRIP
360
3D2
  0
DICTIONARY
  5
3B5
330
396
100
AcDbDictionary
280
     1
281
     1
  3
ACAD_XREC_ROUNDTRIP
360
3B6
  0
DICTIONARY
  5
3B7
330
397
100
AcDbDictionary
280
     1
281
     1
  3
ACAD_XREC_ROUNDTRIP
360
3B8
  0
DICTIONARY
  5
3B9
330
398
100
AcDbDictionary
280
     1
281
     1
  3
ACAD_XREC_ROUNDTRIP
360
3BA
  0
DICTIONARY
  5
3BB
330
399
100
AcDbDictionary
280
     1
281
     1
  3
ACAD_XREC_ROUNDTRIP
360
3BC
  0
DICTIONARY
  5
3CF
330
3A3
100
AcDbDictionary
280
     1
281
     1
  3
ACAD_XREC_ROUNDTRIP
360
3D0
  0
DICTIONARY
  5
3C5
330
39E
100
AcDbDictionary
280
     1
281
     1
  3
ACAD_XREC_ROUNDTRIP
360
3C6
  0
DICTIONARY
  5
3CD
330
3A2
100
AcDbDictionary
280
     1
281
     1
  3
ACAD_XREC_ROUNDTRIP
360
3CE
  0
XRECORD
  5
3D8
102
{ACAD_REACTORS
330
3D7
102
}
330
3D7
100
AcDbXrecord
280
     1
102
MATERIAL
148
0.0
149
0.0
149
0.0
 93
        0
 94
      127
282
     0
 72
     1
 77
     1
171
     1
175
     1
179
     1
273
     0
  0
XRECORD
  5
3D6
102
{ACAD_REACTORS
330
3D5
102
}
330
3D5
100
AcDbXrecord
280
     1
102
MATERIAL
148
0.0
149
0.0
149
0.0
 93
        0
 94
      127
282
     0
 72
     1
 77
     1
171
     1
175
     1
179
     1
273
     0
  0
XRECORD
  5
3DA
102
{ACAD_REACTORS
330
3D9
102
}
330
3D9
100
AcDbXrecord
280
     1
102
MATERIAL
148
0.0
149
0.0
149
0.0
 93
        0
 94
      127
282
     0
 72
     1
 77
     1
171
     1
175
     1
179
     1
273
     0
  0
XRECORD
  5
3BE
102
{ACAD_REACTORS
330
3BD
102
}
330
3BD
100
AcDbXrecord
280
     1
102
RTVSPropertyOp0
 70
     1
102
RTVSPropertyOp1
 70
     1
102
RTVSPropertyOp2
 70
     1
102
RTVSPropertyOp3
 70
     1
102
RTVSPropertyOp4
 70
     1
102
RTVSPropertyOp5
 70
     1
102
RTVSPropertyOp6
 70
     1
102
RTVSPropertyOp7
 70
     1
102
RTVSPropertyOp8
 70
     1
102
RTVSPropertyOp9
 70
     1
102
RTVSPropertyOp10
 70
     1
102
RTVSPropertyOp11
 70
     1
102
RTVSPropertyOp12
 70
     1
102
RTVSPropertyOp13
 70
     1
102
RTVSPropertyOp14
 70
     1
102
RTVSPropertyOp15
 70
     1
102
RTVSPropertyOp16
 70
     1
102
RTVSPropertyOp17
 70
     1
102
RTVSPropertyOp18
 70
     1
102
RTVSPropertyOp19
 70
     1
102
RTVSPropertyOp20
 70
     1
102
RTVSPropertyOp21
 70
     1
102
RTVSPropertyOp22
 70
     1
102
RTVSPropertyOp23
 70
     1
102
RTVSPropertyOp24
 70
     1
102
RTVSPropertyOp25
 70
     1
102
RTVSPropertyOp26
 70
     1
102
RTVSPropertyOp27
 70
     1
102
RTVSPropertyOp28
 70
     1
102
RTVSPropertyOp29
 70
     1
102
RTVSPropertyOp30
 70
     1
102
RTVSPropertyOp31
 70
     1
102
RTVSPropertyOp32
 70
     1
  0
XRECORD
  5
3C2
102
{ACAD_REACTORS
330
3C1
102
}
330
3C1
100
AcDbXrecord
280
     1
102
RTVSPropertyOp0
 70
     1
102
RTVSPropertyOp1
 70
     1
102
RTVSPropertyOp2
 70
     1
102
RTVSPropertyOp3
 70
     1
102
RTVSPropertyOp4
 70
     1
102
RTVSPropertyOp5
 70
     1
102
RTVSPropertyOp6
 70
     1
102
RTVSPropertyOp7
 70
     1
102
RTVSPropertyOp8
 70
     1
102
RTVSPropertyOp9
 70
     1
102
RTVSPropertyOp10
 70
     1
102
RTVSPropertyOp11
 70
     1
102
RTVSPropertyOp12
 70
     1
102
RTVSPropertyOp13
 70
     1
102
RTVSPropertyOp14
 70
     1
102
RTVSPropertyOp15
 70
     1
102
RTVSPropertyOp16
 70
     1
102
RTVSPropertyOp17
 70
     1
102
RTVSPropertyOp18
 70
     1
102
RTVSPropertyOp19
 70
     1
102
RTVSPropertyOp20
 70
     1
102
RTVSPropertyOp21
 70
     1
102
RTVSPropertyOp22
 70
     1
102
RTVSPropertyOp23
 70
     1
102
RTVSPropertyOp24
 70
     1
102
RTVSPropertyOp25
 70
     1
102
RTVSPropertyOp26
 70
     1
102
RTVSPropertyOp27
 70
     1
102
RTVSPropertyOp28
 70
     1
102
RTVSPropertyOp29
 70
     1
102
RTVSPropertyOp30
 70
     1
102
RTVSPropertyOp31
 70
     1
102
RTVSPropertyOp32
 70
     1
  0
XRECORD
  5
3C0
102
{ACAD_REACTORS
330
3BF
102
}
330
3BF
100
AcDbXrecord
280
     1
102
RTVSPropertyOp0
 70
     1
102
RTVSPropertyOp1
 70
     1
102
RTVSPropertyOp2
 70
     1
102
RTVSPropertyOp3
 70
     1
102
RTVSPropertyOp4
 70
     1
102
RTVSPropertyOp5
 70
     1
102
RTVSPropertyOp6
 70
     1
102
RTVSPropertyOp7
 70
     1
102
RTVSPropertyOp8
 70
     1
102
RTVSPropertyOp9
 70
     1
102
RTVSPropertyOp10
 70
     1
102
RTVSPropertyOp11
 70
     1
102
RTVSPropertyOp12
 70
     1
102
RTVSPropertyOp13
 70
     1
102
RTVSPropertyOp14
 70
     1
102
RTVSPropertyOp15
 70
     1
102
RTVSPropertyOp16
 70
     1
102
RTVSPropertyOp17
 70
     1
102
RTVSPropertyOp18
 70
     1
102
RTVSPropertyOp19
 70
     1
102
RTVSPropertyOp20
 70
     1
102
RTVSPropertyOp21
 70
     1
102
RTVSPropertyOp22
 70
     1
102
RTVSPropertyOp23
 70
     1
102
RTVSPropertyOp24
 70
     1
102
RTVSPropertyOp25
 70
     1
102
RTVSPropertyOp26
 70
     1
102
RTVSPropertyOp27
 70
     1
102
RTVSPropertyOp28
 70
     1
102
RTVSPropertyOp29
 70
     1
102
RTVSPropertyOp30
 70
     1
102
RTVSPropertyOp31
 70
     1
102
RTVSPropertyOp32
 70
     1
  0
XRECORD
  5
3C4
102
{ACAD_REACTORS
330
3C3
102
}
330
3C3
100
AcDbXrecord
280
     1
102
RTVSPropertyOp0
 70
     1
102
RTVSPropertyOp1
 70
     1
102
RTVSPropertyOp2
 70
     1
102
RTVSPropertyOp3
 70
     1
102
RTVSPropertyOp4
 70
     1
102
RTVSPropertyOp5
 70
     1
102
RTVSPropertyOp6
 70
     1
102
RTVSPropertyOp7
 70
     1
102
RTVSPropertyOp8
 70
     1
102
RTVSPropertyOp9
 70
     1
102
RTVSPropertyOp10
 70
     1
102
RTVSPropertyOp11
 70
     1
102
RTVSPropertyOp12
 70
     1
102
RTVSPropertyOp13
 70
     1
102
RTVSPropertyOp14
 70
     1
102
RTVSPropertyOp15
 70
     1
102
RTVSPropertyOp16
 70
     1
102
RTVSPropertyOp17
 70
     1
102
RTVSPropertyOp18
 70
     1
102
RTVSPropertyOp19
 70
     1
102
RTVSPropertyOp20
 70
     1
102
RTVSPropertyOp21
 70
     1
102
RTVSPropertyOp22
 70
     1
102
RTVSPropertyOp23
 70
     1
102
RTVSPropertyOp24
 70
     1
102
RTVSPropertyOp25
 70
     1
102
RTVSPropertyOp26
 70
     1
102
RTVSPropertyOp27
 70
     1
102
RTVSPropertyOp28
 70
     1
102
RTVSPropertyOp29
 70
     1
102
RTVSPropertyOp30
 70
     1
102
RTVSPropertyOp31
 70
     1
102
RTVSPropertyOp32
 70
     1
  0
XRECORD
  5
3CC
102
{ACAD_REACTORS
330
3CB
102
}
330
3CB
100
AcDbXrecord
280
     1
102
RTVSPropertyOp0
 70
     1
102
RTVSPropertyOp1
 70
     1
102
RTVSPropertyOp2
 70
     1
102
RTVSPropertyOp3
 70
     1
102
RTVSPropertyOp4
 70
     1
102
RTVSPropertyOp5
 70
     1
102
RTVSPropertyOp6
 70
     1
102
RTVSPropertyOp7
 70
     1
102
RTVSPropertyOp8
 70
     1
102
RTVSPropertyOp9
 70
     1
102
RTVSPropertyOp10
 70
     1
102
RTVSPropertyOp11
 70
     1
102
RTVSPropertyOp12
 70
     1
102
RTVSPropertyOp13
 70
     1
102
RTVSPropertyOp14
 70
     1
102
RTVSPropertyOp15
 70
     1
102
RTVSPropertyOp16
 70
     1
102
RTVSPropertyOp17
 70
     1
102
RTVSPropertyOp18
 70
     1
102
RTVSPropertyOp19
 70
     1
102
RTVSPropertyOp20
 70
     1
102
RTVSPropertyOp21
 70
     1
102
RTVSPropertyOp22
 70
     1
102
RTVSPropertyOp23
 70
     1
102
RTVSPropertyOp24
 70
     1
102
RTVSPropertyOp25
 70
     1
102
RTVSPropertyOp26
 70
     1
102
RTVSPropertyOp27
 70
     1
102
RTVSPropertyOp28
 70
     1
102
RTVSPropertyOp29
 70
     1
102
RTVSPropertyOp30
 70
     1
102
RTVSPropertyOp31
 70
     1
102
RTVSPropertyOp32
 70
     1
  0
XRECORD
  5
3D4
102
{ACAD_REACTORS
330
3D3
102
}
330
3D3
100
AcDbXrecord
280
     1
102
RTVSPropertyOp0
 70
     1
102
RTVSPropertyOp1
 70
     1
102
RTVSPropertyOp2
 70
     1
102
RTVSPropertyOp3
 70
     1
102
RTVSPropertyOp4
 70
     1
102
RTVSPropertyOp5
 70
     1
102
RTVSPropertyOp6
 70
     1
102
RTVSPropertyOp7
 70
     1
102
RTVSPropertyOp8
 70
     1
102
RTVSPropertyOp9
 70
     1
102
RTVSPropertyOp10
 70
     1
102
RTVSPropertyOp11
 70
     1
102
RTVSPropertyOp12
 70
     1
102
RTVSPropertyOp13
 70
     1
102
RTVSPropertyOp14
 70
     1
102
RTVSPropertyOp15
 70
     1
102
RTVSPropertyOp16
 70
     1
102
RTVSPropertyOp17
 70
     1
102
RTVSPropertyOp18
 70
     1
102
RTVSPropertyOp19
 70
     1
102
RTVSPropertyOp20
 70
     1
102
RTVSPropertyOp21
 70
     1
102
RTVSPropertyOp22
 70
     1
102
RTVSPropertyOp23
 70
     1
102
RTVSPropertyOp24
 70
     1
102
RTVSPropertyOp25
 70
     1
102
RTVSPropertyOp26
 70
     1
102
RTVSPropertyOp27
 70
     1
102
RTVSPropertyOp28
 70
     1
102
RTVSPropertyOp29
 70
     1
102
RTVSPropertyOp30
 70
     1
102
RTVSPropertyOp31
 70
     1
102
RTVSPropertyOp32
 70
     1
  0
XRECORD
  5
3C8
102
{ACAD_REACTORS
330
3C7
102
}
330
3C7
100
AcDbXrecord
280
     1
102
RTVSPropertyOp0
 70
     1
102
RTVSPropertyOp1
 70
     1
102
RTVSPropertyOp2
 70
     1
102
RTVSPropertyOp3
 70
     1
102
RTVSPropertyOp4
 70
     1
102
RTVSPropertyOp5
 70
     1
102
RTVSPropertyOp6
 70
     1
102
RTVSPropertyOp7
 70
     1
102
RTVSPropertyOp8
 70
     1
102
RTVSPropertyOp9
 70
     1
102
RTVSPropertyOp10
 70
     1
102
RTVSPropertyOp11
 70
     1
102
RTVSPropertyOp12
 70
     1
102
RTVSPropertyOp13
 70
     1
102
RTVSPropertyOp14
 70
     1
102
RTVSPropertyOp15
 70
     1
102
RTVSPropertyOp16
 70
     1
102
RTVSPropertyOp17
 70
     1
102
RTVSPropertyOp18
 70
     1
102
RTVSPropertyOp19
 70
     1
102
RTVSPropertyOp20
 70
     1
102
RTVSPropertyOp21
 70
     1
102
RTVSPropertyOp22
 70
     1
102
RTVSPropertyOp23
 70
     1
102
RTVSPropertyOp24
 70
     1
102
RTVSPropertyOp25
 70
     1
102
RTVSPropertyOp26
 70
     1
102
RTVSPropertyOp27
 70
     1
102
RTVSPropertyOp28
 70
     1
102
RTVSPropertyOp29
 70
     1
102
RTVSPropertyOp30
 70
     1
102
RTVSPropertyOp31
 70
     1
102
RTVSPropertyOp32
 70
     1
  0
XRECORD
  5
3CA
102
{ACAD_REACTORS
330
3C9
102
}
330
3C9
100
AcDbXrecord
280
     1
102
RTVSPropertyOp0
 70
     1
102
RTVSPropertyOp1
 70
     1
102
RTVSPropertyOp2
 70
     1
102
RTVSPropertyOp3
 70
     1
102
RTVSPropertyOp4
 70
     1
102
RTVSPropertyOp5
 70
     1
102
RTVSPropertyOp6
 70
     1
102
RTVSPropertyOp7
 70
     1
102
RTVSPropertyOp8
 70
     1
102
RTVSPropertyOp9
 70
     1
102
RTVSPropertyOp10
 70
     1
102
RTVSPropertyOp11
 70
     1
102
RTVSPropertyOp12
 70
     1
102
RTVSPropertyOp13
 70
     1
102
RTVSPropertyOp14
 70
     1
102
RTVSPropertyOp15
 70
     1
102
RTVSPropertyOp16
 70
     1
102
RTVSPropertyOp17
 70
     1
102
RTVSPropertyOp18
 70
     1
102
RTVSPropertyOp19
 70
     1
102
RTVSPropertyOp20
 70
     1
102
RTVSPropertyOp21
 70
     1
102
RTVSPropertyOp22
 70
     1
102
RTVSPropertyOp23
 70
     1
102
RTVSPropertyOp24
 70
     1
102
RTVSPropertyOp25
 70
     1
102
RTVSPropertyOp26
 70
     1
102
RTVSPropertyOp27
 70
     1
102
RTVSPropertyOp28
 70
     1
102
RTVSPropertyOp29
 70
     1
102
RTVSPropertyOp30
 70
     1
102
RTVSPropertyOp31
 70
     1
102
RTVSPropertyOp32
 70
     1
  0
XRECORD
  5
3D2
102
{ACAD_REACTORS
330
3D1
102
}
330
3D1
100
AcDbXrecord
280
     1
102
RTVSPropertyOp0
 70
     1
102
RTVSPropertyOp1
 70
     1
102
RTVSPropertyOp2
 70
     1
102
RTVSPropertyOp3
 70
     1
102
RTVSPropertyOp4
 70
     1
102
RTVSPropertyOp5
 70
     1
102
RTVSPropertyOp6
 70
     1
102
RTVSPropertyOp7
 70
     1
102
RTVSPropertyOp8
 70
     1
102
RTVSPropertyOp9
 70
     1
102
RTVSPropertyOp10
 70
     1
102
RTVSPropertyOp11
 70
     1
102
RTVSPropertyOp12
 70
     1
102
RTVSPropertyOp13
 70
     1
102
RTVSPropertyOp14
 70
     1
102
RTVSPropertyOp15
 70
     1
102
RTVSPropertyOp16
 70
     1
102
RTVSPropertyOp17
 70
     1
102
RTVSPropertyOp18
 70
     1
102
RTVSPropertyOp19
 70
     1
102
RTVSPropertyOp20
 70
     1
102
RTVSPropertyOp21
 70
     1
102
RTVSPropertyOp22
 70
     1
102
RTVSPropertyOp23
 70
     1
102
RTVSPropertyOp24
 70
     1
102
RTVSPropertyOp25
 70
     1
102
RTVSPropertyOp26
 70
     1
102
RTVSPropertyOp27
 70
     1
102
RTVSPropertyOp28
 70
     1
102
RTVSPropertyOp29
 70
     1
102
RTVSPropertyOp30
 70
     1
102
RTVSPropertyOp31
 70
     1
102
RTVSPropertyOp32
 70
     1
  0
XRECORD
  5
3B6
102
{ACAD_REACTORS
330
3B5
102
}
330
3B5
100
AcDbXrecord
280
     1
102
RTVSPropertyOp0
 70
     1
102
RTVSPropertyOp1
 70
     1
102
RTVSPropertyOp2
 70
     1
102
RTVSPropertyOp3
 70
     1
102
RTVSPropertyOp4
 70
     1
102
RTVSPropertyOp5
 70
     1
102
RTVSPropertyOp6
 70
     1
102
RTVSPropertyOp7
 70
     1
102
RTVSPropertyOp8
 70
     1
102
RTVSPropertyOp9
 70
     1
102
RTVSPropertyOp10
 70
     1
102
RTVSPropertyOp11
 70
     1
102
RTVSPropertyOp12
 70
     1
102
RTVSPropertyOp13
 70
     1
102
RTVSPropertyOp14
 70
     1
102
RTVSPropertyOp15
 70
     1
102
RTVSPropertyOp16
 70
     1
102
RTVSPropertyOp17
 70
     1
102
RTVSPropertyOp18
 70
     1
102
RTVSPropertyOp19
 70
     1
102
RTVSPropertyOp20
 70
     1
102
RTVSPropertyOp21
 70
     1
102
RTVSPropertyOp22
 70
     1
102
RTVSPropertyOp23
 70
     1
102
RTVSPropertyOp24
 70
     1
102
RTVSPropertyOp25
 70
     1
102
RTVSPropertyOp26
 70
     1
102
RTVSPropertyOp27
 70
     1
102
RTVSPropertyOp28
 70
     1
102
RTVSPropertyOp29
 70
     1
102
RTVSPropertyOp30
 70
     1
102
RTVSPropertyOp31
 70
     1
102
RTVSPropertyOp32
 70
     1
  0
XRECORD
  5
3B8
102
{ACAD_REACTORS
330
3B7
102
}
330
3B7
100
AcDbXrecord
280
     1
102
RTVSPropertyOp0
 70
     1
102
RTVSPropertyOp1
 70
     1
102
RTVSPropertyOp2
 70
     1
102
RTVSPropertyOp3
 70
     1
102
RTVSPropertyOp4
 70
     1
102
RTVSPropertyOp5
 70
     1
102
RTVSPropertyOp6
 70
     1
102
RTVSPropertyOp7
 70
     1
102
RTVSPropertyOp8
 70
     1
102
RTVSPropertyOp9
 70
     1
102
RTVSPropertyOp10
 70
     1
102
RTVSPropertyOp11
 70
     1
102
RTVSPropertyOp12
 70
     1
102
RTVSPropertyOp13
 70
     1
102
RTVSPropertyOp14
 70
     1
102
RTVSPropertyOp15
 70
     1
102
RTVSPropertyOp16
 70
     1
102
RTVSPropertyOp17
 70
     1
102
RTVSPropertyOp18
 70
     1
102
RTVSPropertyOp19
 70
     1
102
RTVSPropertyOp20
 70
     1
102
RTVSPropertyOp21
 70
     1
102
RTVSPropertyOp22
 70
     1
102
RTVSPropertyOp23
 70
     1
102
RTVSPropertyOp24
 70
     1
102
RTVSPropertyOp25
 70
     1
102
RTVSPropertyOp26
 70
     1
102
RTVSPropertyOp27
 70
     1
102
RTVSPropertyOp28
 70
     1
102
RTVSPropertyOp29
 70
     1
102
RTVSPropertyOp30
 70
     1
102
RTVSPropertyOp31
 70
     1
102
RTVSPropertyOp32
 70
     1
  0
XRECORD
  5
3BA
102
{ACAD_REACTORS
330
3B9
102
}
330
3B9
100
AcDbXrecord
280
     1
102
RTVSPropertyOp0
 70
     1
102
RTVSPropertyOp1
 70
     1
102
RTVSPropertyOp2
 70
     1
102
RTVSPropertyOp3
 70
     1
102
RTVSPropertyOp4
 70
     1
102
RTVSPropertyOp5
 70
     1
102
RTVSPropertyOp6
 70
     1
102
RTVSPropertyOp7
 70
     1
102
RTVSPropertyOp8
 70
     1
102
RTVSPropertyOp9
 70
     1
102
RTVSPropertyOp10
 70
     1
102
RTVSPropertyOp11
 70
     1
102
RTVSPropertyOp12
 70
     1
102
RTVSPropertyOp13
 70
     1
102
RTVSPropertyOp14
 70
     1
102
RTVSPropertyOp15
 70
     1
102
RTVSPropertyOp16
 70
     1
102
RTVSPropertyOp17
 70
     1
102
RTVSPropertyOp18
 70
     1
102
RTVSPropertyOp19
 70
     1
102
RTVSPropertyOp20
 70
     1
102
RTVSPropertyOp21
 70
     1
102
RTVSPropertyOp22
 70
     1
102
RTVSPropertyOp23
 70
     1
102
RTVSPropertyOp24
 70
     1
102
RTVSPropertyOp25
 70
     1
102
RTVSPropertyOp26
 70
     1
102
RTVSPropertyOp27
 70
     1
102
RTVSPropertyOp28
 70
     1
102
RTVSPropertyOp29
 70
     1
102
RTVSPropertyOp30
 70
     1
102
RTVSPropertyOp31
 70
     1
102
RTVSPropertyOp32
 70
     1
  0
XRECORD
  5
3BC
102
{ACAD_REACTORS
330
3BB
102
}
330
3BB
100
AcDbXrecord
280
     1
102
RTVSPropertyOp0
 70
     1
102
RTVSPropertyOp1
 70
     1
102
RTVSPropertyOp2
 70
     1
102
RTVSPropertyOp3
 70
     1
102
RTVSPropertyOp4
 70
     1
102
RTVSPropertyOp5
 70
     1
102
RTVSPropertyOp6
 70
     1
102
RTVSPropertyOp7
 70
     1
102
RTVSPropertyOp8
 70
     1
102
RTVSPropertyOp9
 70
     1
102
RTVSPropertyOp10
 70
     1
102
RTVSPropertyOp11
 70
     1
102
RTVSPropertyOp12
 70
     1
102
RTVSPropertyOp13
 70
     1
102
RTVSPropertyOp14
 70
     1
102
RTVSPropertyOp15
 70
     1
102
RTVSPropertyOp16
 70
     1
102
RTVSPropertyOp17
 70
     1
102
RTVSPropertyOp18
 70
     1
102
RTVSPropertyOp19
 70
     1
102
RTVSPropertyOp20
 70
     1
102
RTVSPropertyOp21
 70
     1
102
RTVSPropertyOp22
 70
     1
102
RTVSPropertyOp23
 70
     1
102
RTVSPropertyOp24
 70
     1
102
RTVSPropertyOp25
 70
     1
102
RTVSPropertyOp26
 70
     1
102
RTVSPropertyOp27
 70
     1
102
RTVSPropertyOp28
 70
     1
102
RTVSPropertyOp29
 70
     1
102
RTVSPropertyOp30
 70
     1
102
RTVSPropertyOp31
 70
     1
102
RTVSPropertyOp32
 70
     1
  0
XRECORD
  5
3D0
102
{ACAD_REACTORS
330
3CF
102
}
330
3CF
100
AcDbXrecord
280
     1
102
RTVSPropertyOp0
 70
     1
102
RTVSPropertyOp1
 70
     1
102
RTVSPropertyOp2
 70
     1
102
RTVSPropertyOp3
 70
     1
102
RTVSPropertyOp4
 70
     1
102
RTVSPropertyOp5
 70
     1
102
RTVSPropertyOp6
 70
     1
102
RTVSPropertyOp7
 70
     1
102
RTVSPropertyOp8
 70
     1
102
RTVSPropertyOp9
 70
     1
102
RTVSPropertyOp10
 70
     1
102
RTVSPropertyOp11
 70
     1
102
RTVSPropertyOp12
 70
     1
102
RTVSPropertyOp13
 70
     1
102
RTVSPropertyOp14
 70
     1
102
RTVSPropertyOp15
 70
     1
102
RTVSPropertyOp16
 70
     1
102
RTVSPropertyOp17
 70
     1
102
RTVSPropertyOp18
 70
     1
102
RTVSPropertyOp19
 70
     1
102
RTVSPropertyOp20
 70
     1
102
RTVSPropertyOp21
 70
     1
102
RTVSPropertyOp22
 70
     1
102
RTVSPropertyOp23
 70
     1
102
RTVSPropertyOp24
 70
     1
102
RTVSPropertyOp25
 70
     1
102
RTVSPropertyOp26
 70
     1
102
RTVSPropertyOp27
 70
     1
102
RTVSPropertyOp28
 70
     1
102
RTVSPropertyOp29
 70
     1
102
RTVSPropertyOp30
 70
     1
102
RTVSPropertyOp31
 70
     1
102
RTVSPropertyOp32
 70
     1
  0
XRECORD
  5
3C6
102
{ACAD_REACTORS
330
3C5
102
}
330
3C5
100
AcDbXrecord
280
     1
102
RTVSPropertyOp0
 70
     1
102
RTVSPropertyOp1
 70
     1
102
RTVSPropertyOp2
 70
     1
102
RTVSPropertyOp3
 70
     1
102
RTVSPropertyOp4
 70
     1
102
RTVSPropertyOp5
 70
     1
102
RTVSPropertyOp6
 70
     1
102
RTVSPropertyOp7
 70
     1
102
RTVSPropertyOp8
 70
     1
102
RTVSPropertyOp9
 70
     1
102
RTVSPropertyOp10
 70
     1
102
RTVSPropertyOp11
 70
     1
102
RTVSPropertyOp12
 70
     1
102
RTVSPropertyOp13
 70
     1
102
RTVSPropertyOp14
 70
     1
102
RTVSPropertyOp15
 70
     1
102
RTVSPropertyOp16
 70
     1
102
RTVSPropertyOp17
 70
     1
102
RTVSPropertyOp18
 70
     1
102
RTVSPropertyOp19
 70
     1
102
RTVSPropertyOp20
 70
     1
102
RTVSPropertyOp21
 70
     1
102
RTVSPropertyOp22
 70
     1
102
RTVSPropertyOp23
 70
     1
102
RTVSPropertyOp24
 70
     1
102
RTVSPropertyOp25
 70
     1
102
RTVSPropertyOp26
 70
     1
102
RTVSPropertyOp27
 70
     1
102
RTVSPropertyOp28
 70
     1
102
RTVSPropertyOp29
 70
     1
102
RTVSPropertyOp30
 70
     1
102
RTVSPropertyOp31
 70
     1
102
RTVSPropertyOp32
 70
     1
  0
XRECORD
  5
3CE
102
{ACAD_REACTORS
330
3CD
102
}
330
3CD
100
AcDbXrecord
280
     1
102
RTVSPropertyOp0
 70
     1
102
RTVSPropertyOp1
 70
     1
102
RTVSPropertyOp2
 70
     1
102
RTVSPropertyOp3
 70
     1
102
RTVSPropertyOp4
 70
     1
102
RTVSPropertyOp5
 70
     1
102
RTVSPropertyOp6
 70
     1
102
RTVSPropertyOp7
 70
     1
102
RTVSPropertyOp8
 70
     1
102
RTVSPropertyOp9
 70
     1
102
RTVSPropertyOp10
 70
     1
102
RTVSPropertyOp11
 70
     1
102
RTVSPropertyOp12
 70
     1
102
RTVSPropertyOp13
 70
     1
102
RTVSPropertyOp14
 70
     1
102
RTVSPropertyOp15
 70
     1
102
RTVSPropertyOp16
 70
     1
102
RTVSPropertyOp17
 70
     1
102
RTVSPropertyOp18
 70
     1
102
RTVSPropertyOp19
 70
     1
102
RTVSPropertyOp20
 70
     1
102
RTVSPropertyOp21
 70
     1
102
RTVSPropertyOp22
 70
     1
102
RTVSPropertyOp23
 70
     1
102
RTVSPropertyOp24
 70
     1
102
RTVSPropertyOp25
 70
     1
102
RTVSPropertyOp26
 70
     1
102
RTVSPropertyOp27
 70
     1
102
RTVSPropertyOp28
 70
     1
102
RTVSPropertyOp29
 70
     1
102
RTVSPropertyOp30
 70
     1
102
RTVSPropertyOp31
 70
     1
102
RTVSPropertyOp32
 70
     1
  0
ENDSEC
  0
EOF
