  0
SECTION
  2
HEADER
  9
$ACADVER
  1
AC1015
  9
$ACADMAINTVER
 70
     6
  9
$DWGCODEPAGE
  3
ANSI_1252
  9
$INSBASE
 10
0.0
 20
0.0
 30
0.0
  9
$EXTMIN
 10
-109.898893434
 20
-77.613090409
 30
0.0
  9
$EXTMAX
 10
148.372492022
 20
86.921924088
 30
0.0
  9
$LIMMIN
 10
-109.898893434
 20
-77.613090409
  9
$LIMMAX
 10
148.372492022
 20
86.921924088
  9
$ORTHOMODE
 70
     0
  9
$REGENMODE
 70
     1
  9
$FILLMODE
 70
     1
  9
$QTEXTMODE
 70
     0
  9
$MIRRTEXT
 70
     1
  9
$LTSCALE
 40
1.0
  9
$ATTMODE
 70
     1
  9
$TEXTSIZE
 40
0.2
  9
$TRACEWID
 40
0.05
  9
$TEXTSTYLE
  7
Standard
  9
$CLAYER
  8
0
  9
$CELTYPE
  6
ByBlock
  9
$CECOLOR
 62
   256
  9
$CELTSCALE
 40
1.0
  9
$DISPSILH
 70
     0
  9
$DIMSCALE
 40
1.0
  9
$DIMASZ
 40
0.18
  9
$DIMEXO
 40
0.0625
  9
$DIMDLI
 40
0.38
  9
$DIMRND
 40
0.0
  9
$DIMDLE
 40
0.0
  9
$DIMEXE
 40
0.18
  9
$DIMTP
 40
0.0
  9
$DIMTM
 40
0.0
  9
$DIMTXT
 40
0.18
  9
$DIMCEN
 40
0.09
  9
$DIMTSZ
 40
0.0
  9
$DIMTOL
 70
     0
  9
$DIMLIM
 70
     0
  9
$DIMTIH
 70
     1
  9
$DIMTOH
 70
     1
  9
$DIMSE1
 70
     0
  9
$DIMSE2
 70
     0
  9
$DIMTAD
 70
     0
  9
$DIMZIN
 70
     0
  9
$DIMBLK
  1

  9
$DIMASO
 70
     1
  9
$DIMSHO
 70
     1
  9
$DIMPOST
  1

  9
$DIMAPOST
  1

  9
$DIMALT
 70
     0
  9
$DIMALTD
 70
     2
  9
$DIMALTF
 40
25.4
  9
$DIMLFAC
 40
1.0
  9
$DIMTOFL
 70
     0
  9
$DIMTVP
 40
0.0
  9
$DIMTIX
 70
     0
  9
$DIMSOXD
 70
     0
  9
$DIMSAH
 70
     0
  9
$DIMBLK1
  1

  9
$DIMBLK2
  1

  9
$DIMSTYLE
  2
Standard
  9
$DIMCLRD
 70
     0
  9
$DIMCLRE
 70
     0
  9
$DIMCLRT
 70
     0
  9
$DIMTFAC
 40
1.0
  9
$DIMGAP
 40
0.09
  9
$DIMJUST
 70
     0
  9
$DIMSD1
 70
     0
  9
$DIMSD2
 70
     0
  9
$DIMTOLJ
 70
     1
  9
$DIMTZIN
 70
     0
  9
$DIMALTZ
 70
     0
  9
$DIMALTTZ
 70
     0
  9
$DIMUPT
 70
     0
  9
$DIMDEC
 70
     4
  9
$DIMTDEC
 70
     4
  9
$DIMALTU
 70
     2
  9
$DIMALTTD
 70
     2
  9
$DIMTXSTY
  7
Standard
  9
$DIMAUNIT
 70
     0
  9
$DIMADEC
 70
     0
  9
$DIMALTRND
 40
0.0
  9
$DIMAZIN
 70
     0
  9
$DIMDSEP
 70
    46
  9
$DIMATFIT
 70
     3
  9
$DIMFRAC
 70
     0
  9
$DIMLDRBLK
  1

  9
$DIMLUNIT
 70
     2
  9
$DIMLWD
 70
    -2
  9
$DIMLWE
 70
    -2
  9
$DIMTMOVE
 70
     2
  9
$LUNITS
 70
     2
  9
$LUPREC
 70
     4
  9
$SKETCHINC
 40
0.1
  9
$FILLETRAD
 40
0.5
  9
$AUNITS
 70
     2
  9
$AUPREC
 70
     0
  9
$MENU
  1
.
  9
$ELEVATION
 40
0.0
  9
$PELEVATION
 40
0.0
  9
$THICKNESS
 40
0.0
  9
$LIMCHECK
 70
     0
  9
$CHAMFERA
 40
0.5
  9
$CHAMFERB
 40
0.5
  9
$CHAMFERC
 40
1.0
  9
$CHAMFERD
 40
0.0
  9
$SKPOLY
 70
     0
  9
$TDCREATE
 40
2458327.544497697
  9
$TDUCREATE
 40
2458327.461164363
  9
$TDUPDATE
 40
2458327.544497882
  9
$TDUUPDATE
 40
2458327.461164549
  9
$TDINDWG
 40
0.0000000116
  9
$TDUSRTIMER
 40
0.0000000116
  9
$USRTIMER
 70
     1
  9
$ANGBASE
 50
0.0
  9
$ANGDIR
 70
     0
  9
$PDMODE
 70
     0
  9
$PDSIZE
 40
0.0
  9
$PLINEWID
 40
0.0
  9
$SPLFRAME
 70
     0
  9
$SPLINETYPE
 70
     6
  9
$SPLINESEGS
 70
     8
  9
$HANDSEED
  5
189
  9
$SURFTAB1
 70
     6
  9
$SURFTAB2
 70
     6
  9
$SURFTYPE
 70
     6
  9
$SURFU
 70
     6
  9
$SURFV
 70
     6
  9
$UCSBASE
  2

  9
$UCSNAME
  2

  9
$UCSORG
 10
0.0
 20
0.0
 30
0.0
  9
$UCSXDIR
 10
1.0
 20
0.0
 30
0.0
  9
$UCSYDIR
 10
0.0
 20
1.0
 30
0.0
  9
$UCSORTHOREF
  2

  9
$UCSORTHOVIEW
 70
     0
  9
$UCSORGTOP
 10
0.0
 20
0.0
 30
0.0
  9
$UCSORGBOTTOM
 10
0.0
 20
0.0
 30
0.0
  9
$UCSORGLEFT
 10
0.0
 20
0.0
 30
0.0
  9
$UCSORGRIGHT
 10
0.0
 20
0.0
 30
0.0
  9
$UCSORGFRONT
 10
0.0
 20
0.0
 30
0.0
  9
$UCSORGBACK
 10
0.0
 20
0.0
 30
0.0
  9
$PUCSBASE
  2

  9
$PUCSNAME
  2

  9
$PUCSORG
 10
0.0
 20
0.0
 30
0.0
  9
$PUCSXDIR
 10
1.0
 20
0.0
 30
0.0
  9
$PUCSYDIR
 10
0.0
 20
1.0
 30
0.0
  9
$PUCSORTHOREF
  2

  9
$PUCSORTHOVIEW
 70
     0
  9
$PUCSORGTOP
 10
0.0
 20
0.0
 30
0.0
  9
$PUCSORGBOTTOM
 10
0.0
 20
0.0
 30
0.0
  9
$PUCSORGLEFT
 10
0.0
 20
0.0
 30
0.0
  9
$PUCSORGRIGHT
 10
0.0
 20
0.0
 30
0.0
  9
$PUCSORGFRONT
 10
0.0
 20
0.0
 30
0.0
  9
$PUCSORGBACK
 10
0.0
 20
0.0
 30
0.0
  9
$USERI1
 70
     0
  9
$USERI2
 70
     0
  9
$USERI3
 70
     0
  9
$USERI4
 70
     0
  9
$USERI5
 70
     0
  9
$USERR1
 40
0.0
  9
$USERR2
 40
0.0
  9
$USERR3
 40
0.0
  9
$USERR4
 40
0.0
  9
$USERR5
 40
0.0
  9
$WORLDVIEW
 70
     1
  9
$SHADEDGE
 70
     3
  9
$SHADEDIF
 70
    70
  9
$TILEMODE
 70
     1
  9
$MAXACTVP
 70
    64
  9
$PINSBASE
 10
0.0
 20
0.0
 30
0.0
  9
$PLIMCHECK
 70
     0
  9
$PEXTMIN
 10
1.000000000000000E+20
 20
1.000000000000000E+20
 30
1.000000000000000E+20
  9
$PEXTMAX
 10
-1.000000000000000E+20
 20
-1.000000000000000E+20
 30
-1.000000000000000E+20
  9
$PLIMMIN
 10
0.0
 20
0.0
  9
$PLIMMAX
 10
12.0
 20
9.0
  9
$UNITMODE
 70
     0
  9
$VISRETAIN
 70
     1
  9
$PLINEGEN
 70
     0
  9
$PSLTSCALE
 70
     1
  9
$TREEDEPTH
 70
  3020
  9
$CMLSTYLE
  2
Standard
  9
$CMLJUST
 70
     0
  9
$CMLSCALE
 40
1.0
  9
$PROXYGRAPHICS
 70
     1
  9
$MEASUREMENT
 70
     0
  9
$CELWEIGHT
370
    -1
  9
$ENDCAPS
280
     0
  9
$JOINSTYLE
280
     0
  9
$LWDISPLAY
290
     0
  9
$INSUNITS
 70
     0
  9
$HYPERLINKBASE
  1

  9
$STYLESHEET
  1

  9
$XEDIT
290
     1
  9
$CEPSNTYPE
380
     0
  9
$PSTYLEMODE
290
     1
  9
$FINGERPRINTGUID
  2
{BEE8556E-EDE1-47C3-96CD-E115E65CB370}
  9
$VERSIONGUID
  2
{FAEB1C32-E019-11D5-929B-00C0DF256EC4}
  9
$EXTNAMES
290
     1
  9
$PSVPSCALE
 40
0.0
  9
$OLESTARTUP
290
     0
  0
ENDSEC
  0
SECTION
  2
CLASSES
  0
CLASS
  1
ACDBDICTIONARYWDFLT
  2
AcDbDictionaryWithDefault
  3
ObjectDBX Classes
 90
        0
280
     0
281
     0
  0
CLASS
  1
SCALE
  2
AcDbScale
  3
ObjectDBX Classes
 90
     1153
280
     0
281
     0
  0
CLASS
  1
VISUALSTYLE
  2
AcDbVisualStyle
  3
ObjectDBX Classes
 90
     4095
280
     0
281
     0
  0
CLASS
  1
MATERIAL
  2
AcDbMaterial
  3
ObjectDBX Classes
 90
     1153
280
     0
281
     0
  0
CLASS
  1
DICTIONARYVAR
  2
AcDbDictionaryVar
  3
ObjectDBX Classes
 90
        0
280
     0
281
     0
  0
CLASS
  1
ACDBPLACEHOLDER
  2
AcDbPlaceHolder
  3
ObjectDBX Classes
 90
        0
280
     0
281
     0
  0
CLASS
  1
LAYOUT
  2
AcDbLayout
  3
ObjectDBX Classes
 90
        0
280
     0
281
     0
  0
ENDSEC
  0
SECTION
  2
TABLES
  0
TABLE
  2
VPORT
  5
8
102
{ACAD_XDICTIONARY
360
14E
102
}
330
0
100
AcDbSymbolTable
 70
     1
  0
VPORT
  5
100
330
8
100
AcDbSymbolTableRecord
100
AcDbViewportTableRecord
  2
*Active
 70
     0
 10
0.0
 20
0.0
 11
1.0
 21
1.0
 12
10.42990654205607
 22
4.5
 13
0.0
 23
0.0
 14
0.5
 24
0.5
 15
0.5
 25
0.5
 16
0.0
 26
0.0
 36
1.0
 17
0.0
 27
0.0
 37
0.0
 40
9.0
 41
1.972972972850329
 42
50.0
 43
0.0
 44
0.0
 50
0.0
 51
0.0
 71
     0
 72
   100
 73
     1
 74
     3
 75
     0
 76
     0
 77
     0
 78
     0
281
     0
 65
     1
110
0.0
120
0.0
130
0.0
111
1.0
121
0.0
131
0.0
112
0.0
122
1.0
132
0.0
 79
     0
146
0.0
  0
ENDTAB
  0
TABLE
  2
LTYPE
  5
5
330
0
100
AcDbSymbolTable
 70
     5
  0
LTYPE
  5
14
330
5
100
AcDbSymbolTableRecord
100
AcDbLinetypeTableRecord
  2
ByBlock
 70
     0
  3

 72
    65
 73
     0
 40
0.0
  0
LTYPE
  5
15
330
5
100
AcDbSymbolTableRecord
100
AcDbLinetypeTableRecord
  2
ByLayer
 70
     0
  3

 72
    65
 73
     0
 40
0.0
  0
LTYPE
  5
16
330
5
100
AcDbSymbolTableRecord
100
AcDbLinetypeTableRecord
  2
Continuous
 70
     0
  3
Solid line
 72
    65
 73
     0
 40
0.0
  0
LTYPE
  5
20
330
5
100
AcDbSymbolTableRecord
100
AcDbLinetypeTableRecord
  2
PUNKT
 70
     0
  3
..............
 72
    65
 73
     2
 40
1.5
 49
0.7
 74
     0
 49
-0.8
 74
     0
  0
LTYPE
  5
21
330
5
100
AcDbSymbolTableRecord
100
AcDbLinetypeTableRecord
  2
GESTRICHELT
 70
     0
  3
-- -- -- -- --
 72
    65
 73
     7
 40
2.8
 49
0.9
 74
     0
 49
0.0
 74
     0
 49
0.9
 74
     0
 49
0.0
 74
     0
 49
0.2
 74
     0
 49
0.0
 74
     0
 49
-0.8
 74
     0
  0
LTYPE
  5
22
330
5
100
AcDbSymbolTableRecord
100
AcDbLinetypeTableRecord
  2
STRICHPUNKT
 70
     0
  3
--.--.--.--.--
 72
    65
 73
     4
 40
8.8
 49
5.5
 74
     0
 49
-1.3
 74
     0
 49
0.7
 74
     0
 49
-1.3
 74
     0
  0
LTYPE
  5
25
330
5
100
AcDbSymbolTableRecord
100
AcDbLinetypeTableRecord
  2
PHANTOM
 70
     0
  3
--..--..--..--
 72
    65
 73
     6
 40
14.2
 49
7.0
 74
     0
 49
-1.8
 74
     0
 49
0.9
 74
     0
 49
-1.8
 74
     0
 49
0.9
 74
     0
 49
-1.8
 74
     0
  0
LTYPE
  5
178
330
5
100
AcDbSymbolTableRecord
100
AcDbLinetypeTableRecord
  2
DASH
 70
     0
  3
DASH _ _ _ _ _
 72
    65
 73
     2
 40
0.75
 49
0.40
 74
     0
 49
-0.35
 74
     0
  0
LTYPE
  5
179
330
5
100
AcDbSymbolTableRecord
100
AcDbLinetypeTableRecord
  2
LONGDASH_DASH
 70
     0
  3
LONGDASH_DASH __ . __ . __
 72
    65
 73
     4
 40
0.85
 49
0.40
 74
     0
 49
-0.20
 74
     0
 49
0.05
 74
     0
 49
-0.20
 74
     0
  0
LTYPE
  5
17A
330
5
100
AcDbSymbolTableRecord
100
AcDbLinetypeTableRecord
  2
LONGDASH_DASH_DASH
 70
     0
  3
LONGDASH_DASH_DASH __ . . __ . . __
 72
    65
 73
     6
 40
1.10
 49
0.40
 74
     0
 49
-0.20
 74
     0
 49
0.05
 74
     0
 49
-0.20
 74
     0
 49
0.05
 74
     0
 49
-0.20
 74
     0
  0
ENDTAB
  0
TABLE
  2
LAYER
  5
2
330
0
100
AcDbSymbolTable
 70
    12
  0
LAYER
  5
142
330
2
100
AcDbSymbolTableRecord
100
AcDbLayerTableRecord
  2
200
 70
     0
 62
     2
  6
Continuous
370
    50
390
F
  0
LAYER
  5
17B
330
2
100
AcDbSymbolTableRecord
100
AcDbLayerTableRecord
  2
0
 70
     0
 62
     -1
  6
CONTINUOUS
370
    -3
390
F
  0
LAYER
  5
17C
330
2
100
AcDbSymbolTableRecord
100
AcDbLayerTableRecord
  2
1
 70
     0
 62
     4
  6
CONTINUOUS
370
    50
390
F
  0
LAYER
  5
17D
330
2
100
AcDbSymbolTableRecord
100
AcDbLayerTableRecord
  2
2
 70
     0
 62
     7
  6
CONTINUOUS
370
    25
390
F
  0
LAYER
  5
17E
330
2
100
AcDbSymbolTableRecord
100
AcDbLayerTableRecord
  2
3
 70
     0
 62
     1
  6
DASH
370
    35
390
F
  0
LAYER
  5
17F
330
2
100
AcDbSymbolTableRecord
100
AcDbLayerTableRecord
  2
4
 70
     0
 62
     2
  6
LONGDASH_DASH
370
    25
390
F
  0
LAYER
  5
180
330
2
100
AcDbSymbolTableRecord
100
AcDbLayerTableRecord
  2
6
 70
     0
 62
     5
  6
CONTINUOUS
370
    -3
390
F
  0
LAYER
  5
181
330
2
100
AcDbSymbolTableRecord
100
AcDbLayerTableRecord
  2
CUT
 70
     0
 62
     1
  6
CONTINUOUS
370
    25
390
F
  0
LAYER
  5
182
330
2
100
AcDbSymbolTableRecord
100
AcDbLayerTableRecord
  2
NOCUT
 70
     0
 62
     7
  6
CONTINUOUS
370
    25
390
F
  0
LAYER
  5
183
330
2
100
AcDbSymbolTableRecord
100
AcDbLayerTableRecord
  2
SK1
 70
     0
 62
     4
  6
CONTINUOUS
370
    50
390
F
  0
LAYER
  5
184
330
2
100
AcDbSymbolTableRecord
100
AcDbLayerTableRecord
  2
SK2
 70
     0
 62
     7
  6
CONTINUOUS
370
    25
390
F
  0
LAYER
  5
185
330
2
100
AcDbSymbolTableRecord
100
AcDbLayerTableRecord
  2
SK3
 70
     0
 62
     1
  6
DASH
370
    35
390
F
  0
LAYER
  5
186
330
2
100
AcDbSymbolTableRecord
100
AcDbLayerTableRecord
  2
SK4
 70
     0
 62
     2
  6
LONGDASH_DASH
370
    25
390
F
  0
LAYER
  5
187
330
2
100
AcDbSymbolTableRecord
100
AcDbLayerTableRecord
  2
SK6
 70
     0
 62
     5
  6
CONTINUOUS
370
    -3
390
F
  0
LAYER
  5
188
330
2
100
AcDbSymbolTableRecord
100
AcDbLayerTableRecord
  2
INFTOTAL
 70
     0
 62
     9
  6
CONTINUOUS
370
    18
390
F
  0
ENDTAB
  0
TABLE
  2
STYLE
  5
3
330
0
100
AcDbSymbolTable
 70
     2
  0
STYLE
  5
11
330
3
100
AcDbSymbolTableRecord
100
AcDbTextStyleTableRecord
  2
Standard
 70
     0
 40
0.0
 41
1.0
 50
0.0
 71
     0
 42
0.2
  3
txt
  4

  0
STYLE
  5
141
330
3
100
AcDbSymbolTableRecord
100
AcDbTextStyleTableRecord
  2
BMG_Text
 70
     0
 40
3.5
 41
1.0
 50
0.0
 71
     0
 42
0.2
  3
monos.ttf
  4

1001
ACAD
1000
Monospac821 BT
1071
       49
  0
ENDTAB
  0
TABLE
  2
VIEW
  5
6
330
0
100
AcDbSymbolTable
 70
     0
  0
ENDTAB
  0
TABLE
  2
UCS
  5
7
330
0
100
AcDbSymbolTable
 70
     0
  0
ENDTAB
  0
TABLE
  2
APPID
  5
9
330
0
100
AcDbSymbolTable
 70
     1
  0
APPID
  5
12
330
9
100
AcDbSymbolTableRecord
100
AcDbRegAppTableRecord
  2
ACAD
 70
     0
  0
ENDTAB
  0
TABLE
  2
DIMSTYLE
  5
A
330
0
100
AcDbSymbolTable
 70
     1
100
AcDbDimStyleTable
  0
DIMSTYLE
105
28
330
A
100
AcDbSymbolTableRecord
100
AcDbDimStyleTableRecord
  2
Standard
 70
     0
178
     0
340
11
  0
ENDTAB
  0
TABLE
  2
BLOCK_RECORD
  5
1
330
0
100
AcDbSymbolTable
 70
     0
  0
BLOCK_RECORD
  5
1D
330
1
100
AcDbSymbolTableRecord
100
AcDbBlockTableRecord
  2
*Model_Space
340
1E
  0
BLOCK_RECORD
  5
1B
330
1
100
AcDbSymbolTableRecord
100
AcDbBlockTableRecord
  2
*Paper_Space
340
1C
  0
ENDTAB
  0
ENDSEC
  0
SECTION
  2
BLOCKS
  0
BLOCK
  5
12A
330
1D
100
AcDbEntity
  8
0
100
AcDbBlockBegin
  2
*Model_Space
 70
     0
 10
0.0
 20
0.0
 30
0.0
  3
*Model_Space
  1

  0
ENDBLK
  5
12B
330
1D
100
AcDbEntity
  8
0
100
AcDbBlockEnd
  0
BLOCK
  5
128
330
1B
100
AcDbEntity
 67
     1
  8
0
100
AcDbBlockBegin
  2
*Paper_Space
 70
     0
 10
0.0
 20
0.0
 30
0.0
  3
*Paper_Space
  1

  0
ENDBLK
  5
129
330
1B
100
AcDbEntity
 67
     1
  8
0
100
AcDbBlockEnd
  0
ENDSEC
  0
SECTION
  2
ENTITIES
  0
LINE
  5
29
330
1D
100
AcDbEntity
  8
1
  6
CONTINUOUS
370
    50
100
AcDbLine
 10
14.113248654
 20
68.5
 30
0.0
 11
0.3
 21
68.5
 31
0.0
  0
ARC
  5
2A
330
1D
100
AcDbEntity
  8
1
  6
CONTINUOUS
370
    50
100
AcDbCircle
 10
14.113248654
 20
73.5
 30
0.0
 40
5.0
100
AcDbArc
 50
270.0
 51
330.0
  0
LINE
  5
2B
330
1D
100
AcDbEntity
  8
1
  6
CONTINUOUS
370
    50
100
AcDbLine
 10
19.43365
 20
72.715205448
 30
0.0
 11
18.443375673
 21
71.0
 31
0.0
  0
LINE
  5
2C
330
1D
100
AcDbEntity
  8
1
  6
CONTINUOUS
370
    50
100
AcDbLine
 10
22.30001152
 20
73.22062232
 30
0.0
 11
19.43365
 21
72.715205448
 31
0.0
  0
LINE
  5
2D
330
1D
100
AcDbEntity
  8
1
  6
CONTINUOUS
370
    50
100
AcDbLine
 10
0.3
 20
-68.5
 30
0.0
 11
14.113248654
 21
-68.5
 31
0.0
  0
ARC
  5
2E
330
1D
100
AcDbEntity
  8
1
  6
CONTINUOUS
370
    50
100
AcDbCircle
 10
14.113248654
 20
-73.5
 30
0.0
 40
5.0
100
AcDbArc
 50
30.0
 51
90.0
  0
LINE
  5
2F
330
1D
100
AcDbEntity
  8
1
  6
CONTINUOUS
370
    50
100
AcDbLine
 10
22.158028729
 20
-73.195586923
 30
0.0
 11
22.368759354
 21
-73.232744418
 31
0.0
  0
LINE
  5
30
330
1D
100
AcDbEntity
  8
1
  6
CONTINUOUS
370
    50
100
AcDbLine
 10
19.43365
 20
-72.715205448
 30
0.0
 11
22.158028729
 21
-73.195586923
 31
0.0
  0
LINE
  5
31
330
1D
100
AcDbEntity
  8
1
  6
CONTINUOUS
370
    50
100
AcDbLine
 10
18.443375673
 20
-71.0
 30
0.0
 11
19.43365
 21
-72.715205448
 31
0.0
  0
LINE
  5
32
330
1D
100
AcDbEntity
  8
1
  6
CONTINUOUS
370
    50
100
AcDbLine
 10
3.0
 20
64.690639603
 30
0.0
 11
3.0
 21
5.0
 31
0.0
  0
LINE
  5
33
330
1D
100
AcDbEntity
  8
1
  6
CONTINUOUS
370
    50
100
AcDbLine
 10
0.0
 20
5.0
 30
0.0
 11
0.0
 21
65.683955929
 31
0.0
  0
LINE
  5
34
330
1D
100
AcDbEntity
  8
1
  6
CONTINUOUS
370
    50
100
AcDbLine
 10
0.0
 20
65.683955929
 30
0.0
 11
1.506037525
 21
65.205532213
 31
0.0
  0
LINE
  5
35
330
1D
100
AcDbEntity
  8
1
  6
CONTINUOUS
370
    50
100
AcDbLine
 10
1.506037525
 20
65.205532213
 30
0.0
 11
3.0
 21
64.690639603
 31
0.0
  0
LINE
  5
36
330
1D
100
AcDbEntity
  8
1
  6
CONTINUOUS
370
    50
100
AcDbLine
 10
3.0
 20
5.0
 30
0.0
 11
0.0
 21
5.0
 31
0.0
  0
LINE
  5
37
330
1D
100
AcDbEntity
  8
1
  6
CONTINUOUS
370
    50
100
AcDbLine
 10
10.0
 20
14.5
 30
0.0
 11
10.0
 21
5.0
 31
0.0
  0
LINE
  5
38
330
1D
100
AcDbEntity
  8
1
  6
CONTINUOUS
370
    50
100
AcDbLine
 10
3.0
 20
64.690639603
 30
0.0
 11
10.0
 21
64.690639603
 31
0.0
  0
LINE
  5
39
330
1D
100
AcDbEntity
  8
1
  6
CONTINUOUS
370
    50
100
AcDbLine
 10
10.0
 20
64.690639603
 30
0.0
 11
10.0
 21
14.5
 31
0.0
  0
LINE
  5
3A
330
1D
100
AcDbEntity
  8
1
  6
CONTINUOUS
370
    50
100
AcDbLine
 10
10.0
 20
5.0
 30
0.0
 11
3.0
 21
5.0
 31
0.0
  0
LINE
  5
3B
330
1D
100
AcDbEntity
  8
1
  6
CONTINUOUS
370
    50
100
AcDbLine
 10
14.56310637
 20
11.0
 30
0.0
 11
14.5
 21
11.0
 31
0.0
  0
LINE
  5
3C
330
1D
100
AcDbEntity
  8
1
  6
CONTINUOUS
370
    50
100
AcDbLine
 10
14.56310637
 20
5.0
 30
0.0
 11
14.56310637
 21
11.0
 31
0.0
  0
LINE
  5
3D
330
1D
100
AcDbEntity
  8
1
  6
CONTINUOUS
370
    50
100
AcDbLine
 10
14.5
 20
11.0
 30
0.0
 11
14.5
 21
14.5
 31
0.0
  0
LINE
  5
3E
330
1D
100
AcDbEntity
  8
1
  6
CONTINUOUS
370
    50
100
AcDbLine
 10
10.0
 20
5.0
 30
0.0
 11
14.56310637
 21
5.0
 31
0.0
  0
LINE
  5
3F
330
1D
100
AcDbEntity
  8
1
  6
CONTINUOUS
370
    50
100
AcDbLine
 10
14.5
 20
55.5
 30
0.0
 11
14.56310637
 21
55.5
 31
0.0
  0
LINE
  5
40
330
1D
100
AcDbEntity
  8
1
  6
CONTINUOUS
370
    50
100
AcDbLine
 10
14.5
 20
14.5
 30
0.0
 11
14.5
 21
55.5
 31
0.0
  0
LINE
  5
41
330
1D
100
AcDbEntity
  8
1
  6
CONTINUOUS
370
    50
100
AcDbLine
 10
10.0
 20
64.690639603
 30
0.0
 11
14.56310637
 21
64.972991239
 31
0.0
  0
LINE
  5
42
330
1D
100
AcDbEntity
  8
1
  6
CONTINUOUS
370
    50
100
AcDbLine
 10
14.56310637
 20
55.5
 30
0.0
 11
14.56310637
 21
64.972991239
 31
0.0
  0
LINE
  5
43
330
1D
100
AcDbEntity
  8
1
  6
CONTINUOUS
370
    50
100
AcDbLine
 10
0.0
 20
66.519000111
 30
0.0
 11
0.0
 21
65.683955929
 31
0.0
  0
LINE
  5
44
330
1D
100
AcDbEntity
  8
1
  6
CONTINUOUS
370
    50
100
AcDbLine
 10
0.0
 20
66.519000111
 30
0.0
 11
0.3
 21
66.519000111
 31
0.0
  0
LINE
  5
45
330
1D
100
AcDbEntity
  8
1
  6
CONTINUOUS
370
    50
100
AcDbLine
 10
0.3
 20
66.519000111
 30
0.0
 11
0.3
 21
68.5
 31
0.0
  0
LINE
  5
46
330
1D
100
AcDbEntity
  8
1
  6
CONTINUOUS
370
    50
100
AcDbLine
 10
0.3
 20
66.957815713
 30
0.0
 11
0.0
 21
66.957815713
 31
0.0
  0
LINE
  5
47
330
1D
100
AcDbEntity
  8
1
  6
CONTINUOUS
370
    50
100
AcDbLine
 10
14.56310637
 20
64.972991239
 30
0.0
 11
15.101417904
 21
65.938497679
 31
0.0
  0
LINE
  5
48
330
1D
100
AcDbEntity
  8
1
  6
CONTINUOUS
370
    50
100
AcDbLine
 10
15.101417904
 20
65.938497679
 30
0.0
 11
15.647460151
 21
66.752489141
 31
0.0
  0
LINE
  5
49
330
1D
100
AcDbEntity
  8
1
  6
CONTINUOUS
370
    50
100
AcDbLine
 10
15.647460151
 20
66.752489141
 30
0.0
 11
16.199908071
 21
67.412990372
 31
0.0
  0
LINE
  5
4A
330
1D
100
AcDbEntity
  8
1
  6
CONTINUOUS
370
    50
100
AcDbLine
 10
16.199908071
 20
67.412990372
 30
0.0
 11
16.757421078
 21
67.918398582
 31
0.0
  0
LINE
  5
4B
330
1D
100
AcDbEntity
  8
1
  6
CONTINUOUS
370
    50
100
AcDbLine
 10
16.757421078
 20
67.918398582
 30
0.0
 11
17.318646296
 21
68.267487331
 31
0.0
  0
LINE
  5
4C
330
1D
100
AcDbEntity
  8
1
  6
CONTINUOUS
370
    50
100
AcDbLine
 10
17.558662341
 20
12.565798471
 30
0.0
 11
17.368359504
 21
12.010557982
 31
0.0
  0
LINE
  5
4D
330
1D
100
AcDbEntity
  8
1
  6
CONTINUOUS
370
    50
100
AcDbLine
 10
17.368359504
 20
12.010557982
 30
0.0
 11
17.168798137
 21
11.572156501
 31
0.0
  0
LINE
  5
4E
330
1D
100
AcDbEntity
  8
1
  6
CONTINUOUS
370
    50
100
AcDbLine
 10
17.168798137
 20
11.572156501
 30
0.0
 11
16.962201101
 21
11.255477262
 31
0.0
  0
LINE
  5
4F
330
1D
100
AcDbEntity
  8
1
  6
CONTINUOUS
370
    50
100
AcDbLine
 10
16.962201101
 20
11.255477262
 30
0.0
 11
16.750869623
 21
11.064047668
 31
0.0
  0
LINE
  5
50
330
1D
100
AcDbEntity
  8
1
  6
CONTINUOUS
370
    50
100
AcDbLine
 10
16.750869623
 20
11.064047668
 30
0.0
 11
16.537157667
 21
11.0
 31
0.0
  0
LINE
  5
51
330
1D
100
AcDbEntity
  8
1
  6
CONTINUOUS
370
    50
100
AcDbLine
 10
17.27045198
 20
5.0
 30
0.0
 11
17.35028458
 21
5.74385081
 31
0.0
  0
LINE
  5
52
330
1D
100
AcDbEntity
  8
1
  6
CONTINUOUS
370
    50
100
AcDbLine
 10
17.35028458
 20
5.74385081
 30
0.0
 11
17.446932912
 21
6.420507298
 31
0.0
  0
LINE
  5
53
330
1D
100
AcDbEntity
  8
1
  6
CONTINUOUS
370
    50
100
AcDbLine
 10
17.446932912
 20
6.420507298
 30
0.0
 11
17.558662341
 21
7.017824892
 31
0.0
  0
LINE
  5
54
330
1D
100
AcDbEntity
  8
1
  6
CONTINUOUS
370
    50
100
AcDbLine
 10
16.537157667
 20
11.0
 30
0.0
 11
14.56310637
 21
11.0
 31
0.0
  0
LINE
  5
55
330
1D
100
AcDbEntity
  8
1
  6
CONTINUOUS
370
    50
100
AcDbLine
 10
17.27045198
 20
5.0
 30
0.0
 11
14.56310637
 21
5.0
 31
0.0
  0
LINE
  5
56
330
1D
100
AcDbEntity
  8
1
  6
CONTINUOUS
370
    50
100
AcDbLine
 10
17.318646296
 20
68.267487331
 30
0.0
 11
17.399831376
 21
68.324537472
 31
0.0
  0
LINE
  5
57
330
1D
100
AcDbEntity
  8
1
  6
CONTINUOUS
370
    50
100
AcDbLine
 10
17.399831376
 20
68.324537472
 30
0.0
 11
17.479996494
 21
68.416992265
 31
0.0
  0
LINE
  5
58
330
1D
100
AcDbEntity
  8
1
  6
CONTINUOUS
370
    50
100
AcDbLine
 10
17.479996494
 20
68.416992265
 30
0.0
 11
17.558662341
 21
68.544298921
 31
0.0
  0
LINE
  5
59
330
1D
100
AcDbEntity
  8
1
  6
CONTINUOUS
370
    50
100
AcDbLine
 10
16.537157667
 20
55.5
 30
0.0
 11
16.750869623
 21
55.435952332
 31
0.0
  0
LINE
  5
5A
330
1D
100
AcDbEntity
  8
1
  6
CONTINUOUS
370
    50
100
AcDbLine
 10
16.750869623
 20
55.435952332
 30
0.0
 11
16.962201101
 21
55.244522738
 31
0.0
  0
LINE
  5
5B
330
1D
100
AcDbEntity
  8
1
  6
CONTINUOUS
370
    50
100
AcDbLine
 10
16.962201101
 20
55.244522738
 30
0.0
 11
17.168798137
 21
54.927843499
 31
0.0
  0
LINE
  5
5C
330
1D
100
AcDbEntity
  8
1
  6
CONTINUOUS
370
    50
100
AcDbLine
 10
17.168798137
 20
54.927843499
 30
0.0
 11
17.368359504
 21
54.489442018
 31
0.0
  0
LINE
  5
5D
330
1D
100
AcDbEntity
  8
1
  6
CONTINUOUS
370
    50
100
AcDbLine
 10
17.368359504
 20
54.489442018
 30
0.0
 11
17.558662341
 21
53.934201529
 31
0.0
  0
LINE
  5
5E
330
1D
100
AcDbEntity
  8
1
  6
CONTINUOUS
370
    50
100
AcDbLine
 10
14.56310637
 20
55.5
 30
0.0
 11
16.537157667
 21
55.5
 31
0.0
  0
LINE
  5
5F
330
1D
100
AcDbEntity
  8
1
  6
CONTINUOUS
370
    50
100
AcDbLine
 10
27.189110868
 20
22.5
 30
0.0
 11
25.632596453
 21
16.691009124
 31
0.0
  0
LINE
  5
60
330
1D
100
AcDbEntity
  8
1
  6
CONTINUOUS
370
    50
100
AcDbLine
 10
22.482701106
 20
16.691009124
 30
0.0
 11
25.632596453
 21
16.691009124
 31
0.0
  0
LINE
  5
61
330
1D
100
AcDbEntity
  8
1
  6
CONTINUOUS
370
    50
100
AcDbLine
 10
17.558662341
 20
12.565798471
 30
0.0
 11
17.750963962
 21
13.041219606
 31
0.0
  0
LINE
  5
62
330
1D
100
AcDbEntity
  8
1
  6
CONTINUOUS
370
    50
100
AcDbLine
 10
17.750963962
 20
13.041219606
 30
0.0
 11
18.083123261
 21
13.614814832
 31
0.0
  0
LINE
  5
63
330
1D
100
AcDbEntity
  8
1
  6
CONTINUOUS
370
    50
100
AcDbLine
 10
18.083123261
 20
13.614814832
 30
0.0
 11
18.523537321
 21
14.218061387
 31
0.0
  0
LINE
  5
64
330
1D
100
AcDbEntity
  8
1
  6
CONTINUOUS
370
    50
100
AcDbLine
 10
18.523537321
 20
14.218061387
 30
0.0
 11
19.188536409
 21
14.96545861
 31
0.0
  0
LINE
  5
65
330
1D
100
AcDbEntity
  8
1
  6
CONTINUOUS
370
    50
100
AcDbLine
 10
19.188536409
 20
14.96545861
 30
0.0
 11
19.995931233
 21
15.684453446
 31
0.0
  0
LINE
  5
66
330
1D
100
AcDbEntity
  8
1
  6
CONTINUOUS
370
    50
100
AcDbLine
 10
19.995931233
 20
15.684453446
 30
0.0
 11
20.98942535
 21
16.317608591
 31
0.0
  0
LINE
  5
67
330
1D
100
AcDbEntity
  8
1
  6
CONTINUOUS
370
    50
100
AcDbLine
 10
20.98942535
 20
16.317608591
 30
0.0
 11
21.961014246
 21
16.644631473
 31
0.0
  0
LINE
  5
68
330
1D
100
AcDbEntity
  8
1
  6
CONTINUOUS
370
    50
100
AcDbLine
 10
21.961014246
 20
16.644631473
 30
0.0
 11
22.482701106
 21
16.691009124
 31
0.0
  0
LINE
  5
69
330
1D
100
AcDbEntity
  8
1
  6
CONTINUOUS
370
    50
100
AcDbLine
 10
34.506532919
 20
49.808990876
 30
0.0
 11
32.950018505
 21
44.0
 31
0.0
  0
LINE
  5
6A
330
1D
100
AcDbEntity
  8
1
  6
CONTINUOUS
370
    50
100
AcDbLine
 10
22.482701106
 20
49.808990876
 30
0.0
 11
21.550877373
 21
49.956131263
 31
0.0
  0
LINE
  5
6B
330
1D
100
AcDbEntity
  8
1
  6
CONTINUOUS
370
    50
100
AcDbLine
 10
21.550877373
 20
49.956131263
 30
0.0
 11
20.979365885
 21
50.187318972
 31
0.0
  0
LINE
  5
6C
330
1D
100
AcDbEntity
  8
1
  6
CONTINUOUS
370
    50
100
AcDbLine
 10
20.979365885
 20
50.187318972
 30
0.0
 11
20.456124469
 21
50.486769101
 31
0.0
  0
LINE
  5
6D
330
1D
100
AcDbEntity
  8
1
  6
CONTINUOUS
370
    50
100
AcDbLine
 10
20.456124469
 20
50.486769101
 30
0.0
 11
19.674580968
 21
51.078786856
 31
0.0
  0
LINE
  5
6E
330
1D
100
AcDbEntity
  8
1
  6
CONTINUOUS
370
    50
100
AcDbLine
 10
19.674580968
 20
51.078786856
 30
0.0
 11
19.008283928
 21
51.723287645
 31
0.0
  0
LINE
  5
6F
330
1D
100
AcDbEntity
  8
1
  6
CONTINUOUS
370
    50
100
AcDbLine
 10
19.008283928
 20
51.723287645
 30
0.0
 11
18.414246982
 21
52.420662266
 31
0.0
  0
LINE
  5
70
330
1D
100
AcDbEntity
  8
1
  6
CONTINUOUS
370
    50
100
AcDbLine
 10
18.414246982
 20
52.420662266
 30
0.0
 11
17.949010992
 21
53.098366469
 31
0.0
  0
LINE
  5
71
330
1D
100
AcDbEntity
  8
1
  6
CONTINUOUS
370
    50
100
AcDbLine
 10
17.949010992
 20
53.098366469
 30
0.0
 11
17.558662341
 21
53.934201529
 31
0.0
  0
LINE
  5
72
330
1D
100
AcDbEntity
  8
1
  6
CONTINUOUS
370
    50
100
AcDbLine
 10
34.506532919
 20
49.808990876
 30
0.0
 11
22.482701106
 21
49.808990876
 31
0.0
  0
LINE
  5
73
330
1D
100
AcDbEntity
  8
1
  6
CONTINUOUS
370
    50
100
AcDbLine
 10
22.482701106
 20
8.5
 30
0.0
 11
21.659430854
 21
8.49964175
 31
0.0
  0
LINE
  5
74
330
1D
100
AcDbEntity
  8
1
  6
CONTINUOUS
370
    50
100
AcDbLine
 10
21.659430854
 20
8.49964175
 30
0.0
 11
20.836160602
 21
8.494014308
 31
0.0
  0
LINE
  5
75
330
1D
100
AcDbEntity
  8
1
  6
CONTINUOUS
370
    50
100
AcDbLine
 10
20.836160602
 20
8.494014308
 30
0.0
 11
20.081500705
 21
8.47090547
 31
0.0
  0
LINE
  5
76
330
1D
100
AcDbEntity
  8
1
  6
CONTINUOUS
370
    50
100
AcDbLine
 10
20.081500705
 20
8.47090547
 30
0.0
 11
19.374160303
 21
8.409015125
 31
0.0
  0
LINE
  5
77
330
1D
100
AcDbEntity
  8
1
  6
CONTINUOUS
370
    50
100
AcDbLine
 10
19.374160303
 20
8.409015125
 30
0.0
 11
18.792268849
 21
8.293218397
 31
0.0
  0
LINE
  5
78
330
1D
100
AcDbEntity
  8
1
  6
CONTINUOUS
370
    50
100
AcDbLine
 10
18.792268849
 20
8.293218397
 30
0.0
 11
18.297378235
 21
8.092793501
 31
0.0
  0
LINE
  5
79
330
1D
100
AcDbEntity
  8
1
  6
CONTINUOUS
370
    50
100
AcDbLine
 10
18.297378235
 20
8.092793501
 30
0.0
 11
17.961804287
 21
7.834908535
 31
0.0
  0
LINE
  5
7A
330
1D
100
AcDbEntity
  8
1
  6
CONTINUOUS
370
    50
100
AcDbLine
 10
17.961804287
 20
7.834908535
 30
0.0
 11
17.716589993
 21
7.484463063
 31
0.0
  0
LINE
  5
7B
330
1D
100
AcDbEntity
  8
1
  6
CONTINUOUS
370
    50
100
AcDbLine
 10
17.716589993
 20
7.484463063
 30
0.0
 11
17.558662341
 21
7.017824892
 31
0.0
  0
LINE
  5
7C
330
1D
100
AcDbEntity
  8
1
  6
CONTINUOUS
370
    50
100
AcDbLine
 10
23.437822174
 20
8.5
 30
0.0
 11
22.482701106
 21
8.5
 31
0.0
  0
LINE
  5
7D
330
1D
100
AcDbEntity
  8
1
  6
CONTINUOUS
370
    50
100
AcDbLine
 10
23.437822174
 20
8.5
 30
0.0
 11
22.5
 21
5.0
 31
0.0
  0
LINE
  5
7E
330
1D
100
AcDbEntity
  8
1
  6
CONTINUOUS
370
    50
100
AcDbLine
 10
22.5
 20
5.0
 30
0.0
 11
17.27045198
 21
5.0
 31
0.0
  0
LINE
  5
7F
330
1D
100
AcDbEntity
  8
1
  6
CONTINUOUS
370
    50
100
AcDbLine
 10
18.91904842
 20
71.821974932
 30
0.0
 11
19.43365
 21
72.714920395
 31
0.0
  0
LINE
  5
80
330
1D
100
AcDbEntity
  8
1
  6
CONTINUOUS
370
    50
100
AcDbLine
 10
19.43365
 20
72.714920395
 30
0.0
 11
21.403281599
 21
73.062404719
 31
0.0
  0
LINE
  5
81
330
1D
100
AcDbEntity
  8
1
  6
CONTINUOUS
370
    50
100
AcDbLine
 10
21.403281599
 20
73.062404719
 30
0.0
 11
20.090835031
 21
71.611739706
 31
0.0
  0
LINE
  5
82
330
1D
100
AcDbEntity
  8
1
  6
CONTINUOUS
370
    50
100
AcDbLine
 10
20.090835031
 20
71.611739706
 30
0.0
 11
19.333795197
 21
70.76073851
 31
0.0
  0
LINE
  5
83
330
1D
100
AcDbEntity
  8
1
  6
CONTINUOUS
370
    50
100
AcDbLine
 10
19.333795197
 20
70.76073851
 30
0.0
 11
18.648355623
 21
69.970025342
 31
0.0
  0
LINE
  5
84
330
1D
100
AcDbEntity
  8
1
  6
CONTINUOUS
370
    50
100
AcDbLine
 10
18.648355623
 20
69.970025342
 30
0.0
 11
18.20808364
 21
69.441381745
 31
0.0
  0
LINE
  5
85
330
1D
100
AcDbEntity
  8
1
  6
CONTINUOUS
370
    50
100
AcDbLine
 10
18.20808364
 20
69.441381745
 30
0.0
 11
17.849223404
 21
68.981902085
 31
0.0
  0
LINE
  5
86
330
1D
100
AcDbEntity
  8
1
  6
CONTINUOUS
370
    50
100
AcDbLine
 10
17.849223404
 20
68.981902085
 30
0.0
 11
17.558662341
 21
68.544298921
 31
0.0
  0
LINE
  5
87
330
1D
100
AcDbEntity
  8
1
  6
CONTINUOUS
370
    50
100
AcDbLine
 10
21.313284448
 20
63.887015346
 30
0.0
 11
22.30001152
 21
65.062950879
 31
0.0
  0
LINE
  5
88
330
1D
100
AcDbEntity
  8
1
  6
CONTINUOUS
370
    50
100
AcDbLine
 10
22.482701106
 20
59.749226556
 30
0.0
 11
21.811632301
 21
60.087422449
 31
0.0
  0
LINE
  5
89
330
1D
100
AcDbEntity
  8
1
  6
CONTINUOUS
370
    50
100
AcDbLine
 10
21.811632301
 20
60.087422449
 30
0.0
 11
21.230301703
 21
60.648723536
 31
0.0
  0
LINE
  5
8A
330
1D
100
AcDbEntity
  8
1
  6
CONTINUOUS
370
    50
100
AcDbLine
 10
21.230301703
 20
60.648723536
 30
0.0
 11
20.829143228
 21
61.421958235
 31
0.0
  0
LINE
  5
8B
330
1D
100
AcDbEntity
  8
1
  6
CONTINUOUS
370
    50
100
AcDbLine
 10
20.829143228
 20
61.421958235
 30
0.0
 11
20.706160337
 21
62.293436132
 31
0.0
  0
LINE
  5
8C
330
1D
100
AcDbEntity
  8
1
  6
CONTINUOUS
370
    50
100
AcDbLine
 10
20.706160337
 20
62.293436132
 30
0.0
 11
20.861644787
 21
63.10459561
 31
0.0
  0
LINE
  5
8D
330
1D
100
AcDbEntity
  8
1
  6
CONTINUOUS
370
    50
100
AcDbLine
 10
20.861644787
 20
63.10459561
 30
0.0
 11
21.261948948
 21
63.823854125
 31
0.0
  0
LINE
  5
8E
330
1D
100
AcDbEntity
  8
1
  6
CONTINUOUS
370
    50
100
AcDbLine
 10
21.261948948
 20
63.823854125
 30
0.0
 11
21.313284448
 21
63.887015346
 31
0.0
  0
LINE
  5
8F
330
1D
100
AcDbEntity
  8
1
  6
CONTINUOUS
370
    50
100
AcDbLine
 10
22.30001152
 20
73.220615208
 30
0.0
 11
21.403281599
 21
73.062404719
 31
0.0
  0
LINE
  5
90
330
1D
100
AcDbEntity
  8
1
  6
CONTINUOUS
370
    50
100
AcDbLine
 10
19.43365
 20
72.715205448
 30
0.0
 11
19.43365
 21
72.714920395
 31
0.0
  0
LINE
  5
91
330
1D
100
AcDbEntity
  8
1
  6
CONTINUOUS
370
    50
100
AcDbLine
 10
23.437822174
 20
8.5
 30
0.0
 11
25.632596453
 21
16.691009124
 31
0.0
  0
LINE
  5
92
330
1D
100
AcDbEntity
  8
1
  6
CONTINUOUS
370
    50
100
AcDbLine
 10
26.283506981
 20
61.720532007
 30
0.0
 11
25.296715552
 21
60.544519776
 31
0.0
  0
LINE
  5
93
330
1D
100
AcDbEntity
  8
1
  6
CONTINUOUS
370
    50
100
AcDbLine
 10
34.712695156
 20
63.276645385
 30
0.0
 11
34.646540314
 21
63.264980502
 31
0.0
  0
LINE
  5
94
330
1D
100
AcDbEntity
  8
1
  6
CONTINUOUS
370
    50
100
AcDbLine
 10
34.712695156
 20
50.578398819
 30
0.0
 11
34.712695156
 21
63.276645385
 31
0.0
  0
LINE
  5
95
330
1D
100
AcDbEntity
  8
1
  6
CONTINUOUS
370
    50
100
AcDbLine
 10
34.506532919
 20
49.808990876
 30
0.0
 11
34.712695156
 21
50.578398819
 31
0.0
  0
ARC
  5
96
330
1D
100
AcDbEntity
  8
1
  6
CONTINUOUS
370
    50
100
AcDbCircle
 10
23.305
 20
62.215767561
 30
0.0
 40
2.6
100
AcDbArc
 50
251.562572595
 51
320.0
  0
LINE
  5
97
330
1D
100
AcDbEntity
  8
1
  6
CONTINUOUS
370
    50
100
AcDbLine
 10
34.688470764
 20
63.295199305
 30
0.0
 11
34.712695156
 21
63.276645385
 31
0.0
  0
LINE
  5
98
330
1D
100
AcDbEntity
  8
1
  6
CONTINUOUS
370
    50
100
AcDbLine
 10
32.950018505
 20
44.0
 30
0.0
 11
27.189110868
 21
22.5
 31
0.0
  0
LINE
  5
99
330
1D
100
AcDbEntity
  8
1
  6
CONTINUOUS
370
    50
100
AcDbLine
 10
0.0
 20
66.957815713
 30
0.0
 11
0.0
 21
66.519000111
 31
0.0
  0
LINE
  5
9A
330
1D
100
AcDbEntity
  8
1
  6
CONTINUOUS
370
    50
100
AcDbLine
 10
19.43365
 20
-69.76269437
 30
0.0
 11
19.430711552
 21
-69.757378033
 31
0.0
  0
LINE
  5
9B
330
1D
100
AcDbEntity
  8
1
  6
CONTINUOUS
370
    50
100
AcDbLine
 10
19.430711552
 20
-69.757378033
 30
0.0
 11
18.443375673
 21
-67.968984791
 31
0.0
  0
LINE
  5
9C
330
1D
100
AcDbEntity
  8
1
  6
CONTINUOUS
370
    50
100
AcDbLine
 10
18.443375673
 20
-67.968984791
 30
0.0
 11
17.720833012
 21
-66.961071036
 31
0.0
  0
LINE
  5
9D
330
1D
100
AcDbEntity
  8
1
  6
CONTINUOUS
370
    50
100
AcDbLine
 10
17.720833012
 20
-66.961071036
 30
0.0
 11
16.798000239
 21
-66.167873762
 31
0.0
  0
LINE
  5
9E
330
1D
100
AcDbEntity
  8
1
  6
CONTINUOUS
370
    50
100
AcDbLine
 10
16.798000239
 20
-66.167873762
 30
0.0
 11
16.084085735
 21
-65.772444386
 31
0.0
  0
LINE
  5
9F
330
1D
100
AcDbEntity
  8
1
  6
CONTINUOUS
370
    50
100
AcDbLine
 10
16.084085735
 20
-65.772444386
 30
0.0
 11
15.314748922
 21
-65.500543035
 31
0.0
  0
LINE
  5
A0
330
1D
100
AcDbEntity
  8
1
  6
CONTINUOUS
370
    50
100
AcDbLine
 10
15.314748922
 20
-65.500543035
 30
0.0
 11
14.113248654
 21
-65.346584384
 31
0.0
  0
LINE
  5
A1
330
1D
100
AcDbEntity
  8
1
  6
CONTINUOUS
370
    50
100
AcDbLine
 10
14.113248654
 20
-65.346584384
 30
0.0
 11
3.0
 21
-65.346584384
 31
0.0
  0
LINE
  5
A2
330
1D
100
AcDbEntity
  8
1
  6
CONTINUOUS
370
    50
100
AcDbLine
 10
3.0
 20
-5.0
 30
0.0
 11
3.0
 21
-65.346584384
 31
0.0
  0
LINE
  5
A3
330
1D
100
AcDbEntity
  8
1
  6
CONTINUOUS
370
    50
100
AcDbLine
 10
3.0
 20
-5.0
 30
0.0
 11
22.5
 21
-5.0
 31
0.0
  0
LINE
  5
A4
330
1D
100
AcDbEntity
  8
1
  6
CONTINUOUS
370
    50
100
AcDbLine
 10
22.5
 20
-5.0
 30
0.0
 11
32.257003938
 21
-41.413634425
 31
0.0
  0
LINE
  5
A5
330
1D
100
AcDbEntity
  8
1
  6
CONTINUOUS
370
    50
100
AcDbLine
 10
32.257003938
 20
-41.413634425
 30
0.0
 11
32.257003938
 21
-71.157363738
 31
0.0
  0
LINE
  5
A6
330
1D
100
AcDbEntity
  8
1
  6
CONTINUOUS
370
    50
100
AcDbLine
 10
31.339206768
 20
-71.952571418
 30
0.0
 11
31.597590608
 21
-71.956522501
 31
0.0
  0
LINE
  5
A7
330
1D
100
AcDbEntity
  8
1
  6
CONTINUOUS
370
    50
100
AcDbLine
 10
31.597590608
 20
-71.956522501
 30
0.0
 11
31.842746215
 21
-71.874176749
 31
0.0
  0
LINE
  5
A8
330
1D
100
AcDbEntity
  8
1
  6
CONTINUOUS
370
    50
100
AcDbLine
 10
31.842746215
 20
-71.874176749
 30
0.0
 11
32.043722865
 21
-71.717320928
 31
0.0
  0
LINE
  5
A9
330
1D
100
AcDbEntity
  8
1
  6
CONTINUOUS
370
    50
100
AcDbLine
 10
32.043722865
 20
-71.717320928
 30
0.0
 11
32.184753497
 21
-71.501557631
 31
0.0
  0
LINE
  5
AA
330
1D
100
AcDbEntity
  8
1
  6
CONTINUOUS
370
    50
100
AcDbLine
 10
32.184753497
 20
-71.501557631
 30
0.0
 11
32.252834291
 21
-71.242389294
 31
0.0
  0
LINE
  5
AB
330
1D
100
AcDbEntity
  8
1
  6
CONTINUOUS
370
    50
100
AcDbLine
 10
32.252834291
 20
-71.242389294
 30
0.0
 11
32.257003938
 21
-71.157363738
 31
0.0
  0
LINE
  5
AC
330
1D
100
AcDbEntity
  8
1
  6
CONTINUOUS
370
    50
100
AcDbLine
 10
31.339206768
 20
-71.952571418
 30
0.0
 11
23.041639501
 21
-70.426951765
 31
0.0
  0
LINE
  5
AD
330
1D
100
AcDbEntity
  8
1
  6
CONTINUOUS
370
    50
100
AcDbLine
 10
23.041639501
 20
-70.426951765
 30
0.0
 11
19.43365
 21
-69.76269437
 31
0.0
  0
LINE
  5
AE
330
1D
100
AcDbEntity
  8
1
  6
CONTINUOUS
370
    50
100
AcDbLine
 10
6.075
 20
-67.171377989
 30
0.0
 11
6.135282518
 21
-67.171499338
 31
0.0
  0
LINE
  5
AF
330
1D
100
AcDbEntity
  8
1
  6
CONTINUOUS
370
    50
100
AcDbLine
 10
6.135282518
 20
-67.171499338
 30
0.0
 11
7.1311034
 21
-67.209502243
 31
0.0
  0
LINE
  5
B0
330
1D
100
AcDbEntity
  8
1
  6
CONTINUOUS
370
    50
100
AcDbLine
 10
7.1311034
 20
-67.209502243
 30
0.0
 11
8.009405471
 21
-67.308146842
 31
0.0
  0
LINE
  5
B1
330
1D
100
AcDbEntity
  8
1
  6
CONTINUOUS
370
    50
100
AcDbLine
 10
8.009405471
 20
-67.308146842
 30
0.0
 11
8.684281414
 21
-67.451636602
 31
0.0
  0
LINE
  5
B2
330
1D
100
AcDbEntity
  8
1
  6
CONTINUOUS
370
    50
100
AcDbLine
 10
8.684281414
 20
-67.451636602
 30
0.0
 11
9.076129032
 21
-67.618264978
 31
0.0
  0
LINE
  5
B3
330
1D
100
AcDbEntity
  8
1
  6
CONTINUOUS
370
    50
100
AcDbLine
 10
9.076129032
 20
-67.618264978
 30
0.0
 11
9.15
 21
-67.726162893
 31
0.0
  0
LINE
  5
B4
330
1D
100
AcDbEntity
  8
1
  6
CONTINUOUS
370
    50
100
AcDbLine
 10
9.15
 20
-67.726162893
 30
0.0
 11
8.974860968
 21
-67.877112503
 31
0.0
  0
LINE
  5
B5
330
1D
100
AcDbEntity
  8
1
  6
CONTINUOUS
370
    50
100
AcDbLine
 10
8.974860968
 20
-67.877112503
 30
0.0
 11
8.4666479
 21
-67.997441731
 31
0.0
  0
LINE
  5
B6
330
1D
100
AcDbEntity
  8
1
  6
CONTINUOUS
370
    50
100
AcDbLine
 10
8.4666479
 20
-67.997441731
 30
0.0
 11
7.68724731
 21
-68.079507033
 31
0.0
  0
LINE
  5
B7
330
1D
100
AcDbEntity
  8
1
  6
CONTINUOUS
370
    50
100
AcDbLine
 10
7.68724731
 20
-68.079507033
 30
0.0
 11
6.730055156
 21
-68.122456105
 31
0.0
  0
LINE
  5
B8
330
1D
100
AcDbEntity
  8
1
  6
CONTINUOUS
370
    50
100
AcDbLine
 10
6.730055156
 20
-68.122456105
 30
0.0
 11
6.075
 21
-68.130057829
 31
0.0
  0
LINE
  5
B9
330
1D
100
AcDbEntity
  8
1
  6
CONTINUOUS
370
    50
100
AcDbLine
 10
5.575
 20
-67.171377989
 30
0.0
 11
6.075
 21
-67.171377989
 31
0.0
  0
LINE
  5
BA
330
1D
100
AcDbEntity
  8
1
  6
CONTINUOUS
370
    50
100
AcDbLine
 10
5.575
 20
-68.130057829
 30
0.0
 11
4.562037099
 21
-68.111436903
 31
0.0
  0
LINE
  5
BB
330
1D
100
AcDbEntity
  8
1
  6
CONTINUOUS
370
    50
100
AcDbLine
 10
4.562037099
 20
-68.111436903
 30
0.0
 11
3.663292273
 21
-68.055166531
 31
0.0
  0
LINE
  5
BC
330
1D
100
AcDbEntity
  8
1
  6
CONTINUOUS
370
    50
100
AcDbLine
 10
3.663292273
 20
-68.055166531
 30
0.0
 11
2.97787349
 21
-67.960972621
 31
0.0
  0
LINE
  5
BD
330
1D
100
AcDbEntity
  8
1
  6
CONTINUOUS
370
    50
100
AcDbLine
 10
2.97787349
 20
-67.960972621
 30
0.0
 11
2.580624496
 21
-67.831183984
 31
0.0
  0
LINE
  5
BE
330
1D
100
AcDbEntity
  8
1
  6
CONTINUOUS
370
    50
100
AcDbLine
 10
2.580624496
 20
-67.831183984
 30
0.0
 11
2.517839919
 21
-67.673791785
 31
0.0
  0
LINE
  5
BF
330
1D
100
AcDbEntity
  8
1
  6
CONTINUOUS
370
    50
100
AcDbLine
 10
2.517839919
 20
-67.673791785
 30
0.0
 11
2.803245067
 21
-67.504657598
 31
0.0
  0
LINE
  5
C0
330
1D
100
AcDbEntity
  8
1
  6
CONTINUOUS
370
    50
100
AcDbLine
 10
2.803245067
 20
-67.504657598
 30
0.0
 11
3.411218412
 21
-67.347700401
 31
0.0
  0
LINE
  5
C1
330
1D
100
AcDbEntity
  8
1
  6
CONTINUOUS
370
    50
100
AcDbLine
 10
3.411218412
 20
-67.347700401
 30
0.0
 11
4.269171979
 21
-67.230450683
 31
0.0
  0
LINE
  5
C2
330
1D
100
AcDbEntity
  8
1
  6
CONTINUOUS
370
    50
100
AcDbLine
 10
4.269171979
 20
-67.230450683
 30
0.0
 11
5.265767599
 21
-67.174577065
 31
0.0
  0
LINE
  5
C3
330
1D
100
AcDbEntity
  8
1
  6
CONTINUOUS
370
    50
100
AcDbLine
 10
5.265767599
 20
-67.174577065
 30
0.0
 11
5.575
 21
-67.171377989
 31
0.0
  0
LINE
  5
C4
330
1D
100
AcDbEntity
  8
1
  6
CONTINUOUS
370
    50
100
AcDbLine
 10
6.075
 20
-68.130057829
 30
0.0
 11
5.575
 21
-68.130057829
 31
0.0
  0
LINE
  5
C5
330
1D
100
AcDbEntity
  8
1
  6
CONTINUOUS
370
    50
100
AcDbLine
 10
0.3
 20
-68.5
 30
0.0
 11
0.3
 21
-66.957815712
 31
0.0
  0
LINE
  5
C6
330
1D
100
AcDbEntity
  8
1
  6
CONTINUOUS
370
    50
100
AcDbLine
 10
0.3
 20
-66.957815712
 30
0.0
 11
0.0
 21
-66.957815712
 31
0.0
  0
LINE
  5
C7
330
1D
100
AcDbEntity
  8
1
  6
CONTINUOUS
370
    50
100
AcDbLine
 10
0.0
 20
-66.237548565
 30
0.0
 11
0.0
 21
-66.957815712
 31
0.0
  0
LINE
  5
C8
330
1D
100
AcDbEntity
  8
1
  6
CONTINUOUS
370
    50
100
AcDbLine
 10
3.0
 20
-65.346584384
 30
0.0
 11
1.505362852
 21
-65.810123942
 31
0.0
  0
LINE
  5
C9
330
1D
100
AcDbEntity
  8
1
  6
CONTINUOUS
370
    50
100
AcDbLine
 10
1.505362852
 20
-65.810123942
 30
0.0
 11
0.0
 21
-66.237548565
 31
0.0
  0
LINE
  5
CA
330
1D
100
AcDbEntity
  8
1
  6
CONTINUOUS
370
    50
100
AcDbLine
 10
0.0
 20
-66.237548565
 30
0.0
 11
0.0
 21
-5.0
 31
0.0
  0
LINE
  5
CB
330
1D
100
AcDbEntity
  8
1
  6
CONTINUOUS
370
    50
100
AcDbLine
 10
0.0
 20
-5.0
 30
0.0
 11
3.0
 21
-5.0
 31
0.0
  0
LINE
  5
CC
330
1D
100
AcDbEntity
  8
1
  6
CONTINUOUS
370
    50
100
AcDbLine
 10
33.257743839
 20
-75.029566618
 30
0.0
 11
22.539662767
 21
-73.136336265
 31
0.0
  0
LINE
  5
CD
330
1D
100
AcDbEntity
  8
1
  6
CONTINUOUS
370
    50
100
AcDbLine
 10
22.539662767
 20
-73.136336265
 30
0.0
 11
22.539662767
 21
-73.246751382
 31
0.0
  0
LINE
  5
CE
330
1D
100
AcDbEntity
  8
1
  6
CONTINUOUS
370
    50
100
AcDbLine
 10
22.36861103
 20
-73.232718253
 30
0.0
 11
22.539662767
 21
-73.246751382
 31
0.0
  0
LINE
  5
CF
330
1D
100
AcDbEntity
  8
1
  6
CONTINUOUS
370
    50
100
AcDbLine
 10
19.43365
 20
-69.76269437
 30
0.0
 11
19.43365
 21
-72.715205448
 31
0.0
  0
LINE
  5
D0
330
1D
100
AcDbEntity
  8
1
  6
CONTINUOUS
370
    50
100
AcDbLine
 10
34.197
 20
-74.247182277
 30
0.0
 11
34.152345278
 21
-74.510154486
 31
0.0
  0
LINE
  5
D1
330
1D
100
AcDbEntity
  8
1
  6
CONTINUOUS
370
    50
100
AcDbLine
 10
34.152345278
 20
-74.510154486
 30
0.0
 11
34.023030873
 21
-74.743500772
 31
0.0
  0
LINE
  5
D2
330
1D
100
AcDbEntity
  8
1
  6
CONTINUOUS
370
    50
100
AcDbLine
 10
34.023030873
 20
-74.743500772
 30
0.0
 11
33.824355151
 21
-74.920222706
 31
0.0
  0
LINE
  5
D3
330
1D
100
AcDbEntity
  8
1
  6
CONTINUOUS
370
    50
100
AcDbLine
 10
33.824355151
 20
-74.920222706
 30
0.0
 11
33.578089867
 21
-75.021793551
 31
0.0
  0
LINE
  5
D4
330
1D
100
AcDbEntity
  8
1
  6
CONTINUOUS
370
    50
100
AcDbLine
 10
33.578089867
 20
-75.021793551
 30
0.0
 11
33.310091682
 21
-75.037065427
 31
0.0
  0
LINE
  5
D5
330
1D
100
AcDbEntity
  8
1
  6
CONTINUOUS
370
    50
100
AcDbLine
 10
33.310091682
 20
-75.037065427
 30
0.0
 11
33.257743839
 21
-75.029566618
 31
0.0
  0
LINE
  5
D6
330
1D
100
AcDbEntity
  8
1
  6
CONTINUOUS
370
    50
100
AcDbLine
 10
34.197
 20
-63.359254289
 30
0.0
 11
34.197
 21
-74.247182277
 31
0.0
  0
LINE
  5
D7
330
1D
100
AcDbEntity
  8
1
  6
CONTINUOUS
370
    50
100
AcDbLine
 10
34.712695156
 20
-50.578398819
 30
0.0
 11
32.257003938
 21
-41.413634425
 31
0.0
  0
LINE
  5
D8
330
1D
100
AcDbEntity
  8
1
  6
CONTINUOUS
370
    50
100
AcDbLine
 10
34.712695156
 20
-50.578398819
 30
0.0
 11
34.712695156
 21
-63.276645385
 31
0.0
  0
LINE
  5
D9
330
1D
100
AcDbEntity
  8
1
  6
CONTINUOUS
370
    50
100
AcDbLine
 10
34.528518315
 20
-63.417709912
 30
0.0
 11
34.712695156
 21
-63.276645385
 31
0.0
  0
LINE
  5
DA
330
1D
100
AcDbEntity
  8
1
  6
CONTINUOUS
370
    50
100
AcDbLine
 10
34.528518315
 20
-63.417709912
 30
0.0
 11
34.197
 21
-63.359254289
 31
0.0
  0
LINE
  5
DB
330
1D
100
AcDbEntity
  8
CUT
  6
CONTINUOUS
370
    25
100
AcDbLine
 10
35.00001152
 20
75.200002031
 30
0.0
 11
35.00001152
 21
63.928766639
 31
0.0
  0
ARC
  5
DC
330
1D
100
AcDbEntity
  8
CUT
  6
CONTINUOUS
370
    25
100
AcDbCircle
 10
34.20001152
 20
63.928766639
 30
0.0
 40
0.8
100
AcDbArc
 50
280.0
 51
0.0
  0
LINE
  5
DD
330
1D
100
AcDbEntity
  8
CUT
  6
CONTINUOUS
370
    25
100
AcDbLine
 10
34.338930062
 20
63.140920437
 30
0.0
 11
23.238930062
 21
61.183690951
 31
0.0
  0
ARC
  5
DE
330
1D
100
AcDbEntity
  8
CUT
  6
CONTINUOUS
370
    25
100
AcDbCircle
 10
23.10001152
 20
61.971537153
 30
0.0
 40
0.8
100
AcDbArc
 50
180.0
 51
280.0
  0
LINE
  5
DF
330
1D
100
AcDbEntity
  8
CUT
  6
CONTINUOUS
370
    25
100
AcDbLine
 10
22.30001152
 20
61.971537153
 30
0.0
 11
22.30001152
 21
73.242772545
 31
0.0
  0
ARC
  5
E0
330
1D
100
AcDbEntity
  8
CUT
  6
CONTINUOUS
370
    25
100
AcDbCircle
 10
23.10001152
 20
73.242772545
 30
0.0
 40
0.8
100
AcDbArc
 50
100.0
 51
180.0
  0
LINE
  5
E1
330
1D
100
AcDbEntity
  8
CUT
  6
CONTINUOUS
370
    25
100
AcDbLine
 10
22.961092978
 20
74.030618748
 30
0.0
 11
34.061092978
 21
75.987848234
 31
0.0
  0
ARC
  5
E2
330
1D
100
AcDbEntity
  8
CUT
  6
CONTINUOUS
370
    25
100
AcDbCircle
 10
34.20001152
 20
75.200002031
 30
0.0
 40
0.8
100
AcDbArc
 50
0.0
 51
100.0
  0
CIRCLE
  5
E3
330
1D
100
AcDbEntity
  8
CUT
  6
CONTINUOUS
370
    25
100
AcDbCircle
 10
28.65001152
 20
68.585769592
 30
0.0
 40
3.75
  0
LINE
  5
E4
330
1D
100
AcDbEntity
  8
CUT
  6
CONTINUOUS
370
    25
100
AcDbLine
 10
22.961092978
 20
-74.030618748
 30
0.0
 11
34.061092978
 21
-75.987848234
 31
0.0
  0
LINE
  5
E5
330
1D
100
AcDbEntity
  8
1
  6
CONTINUOUS
370
    50
100
AcDbLine
 10
22.30001152
 20
-73.22062232
 30
0.0
 11
22.30001152
 21
-73.242772545
 31
0.0
  0
ARC
  5
E6
330
1D
100
AcDbEntity
  8
CUT
  6
CONTINUOUS
370
    25
100
AcDbCircle
 10
23.10001152
 20
-73.242772545
 30
0.0
 40
0.8
100
AcDbArc
 50
180.0
 51
260.0
  0
ARC
  5
E7
330
1D
100
AcDbEntity
  8
CUT
  6
CONTINUOUS
370
    25
100
AcDbCircle
 10
34.20001152
 20
-75.200002031
 30
0.0
 40
0.8
100
AcDbArc
 50
260.0
 51
0.0
  0
LINE
  5
E8
330
1D
100
AcDbEntity
  8
CUT
  6
CONTINUOUS
370
    25
100
AcDbLine
 10
35.00001152
 20
-75.200002031
 30
0.0
 11
35.00001152
 21
-63.928766639
 31
0.0
  0
ARC
  5
E9
330
1D
100
AcDbEntity
  8
CUT
  6
CONTINUOUS
370
    25
100
AcDbCircle
 10
34.20001152
 20
-63.928766639
 30
0.0
 40
0.8
100
AcDbArc
 50
0.0
 51
52.368977519
  0
LINE
  5
EA
330
1D
100
AcDbEntity
  8
1
  6
CONTINUOUS
370
    50
100
AcDbLine
 10
18.443375673
 20
71.0
 30
0.0
 11
18.443375673
 21
70.993197679
 31
0.0
  0
LINE
  5
EB
330
1D
100
AcDbEntity
  8
1
  6
CONTINUOUS
370
    50
100
AcDbLine
 10
22.442802689
 20
-73.242772545
 30
0.0
 11
22.30001152
 21
-73.242772545
 31
0.0
  0
LINE
  5
EC
330
1D
100
AcDbEntity
  8
SK1
  6
CONTINUOUS
370
    50
100
AcDbLine
 10
-3.828832248
 20
0.0
 30
0.0
 11
26.143337689
 21
0.0
 31
0.0
  0
LINE
  5
ED
330
1D
100
AcDbEntity
  8
2
  6
CONTINUOUS
370
    25
100
AcDbLine
 10
35.00001152
 20
82.308835821
 30
0.0
 11
35.00001152
 21
75.200002031
 31
0.0
  0
LINE
  5
EE
330
1D
100
AcDbEntity
  8
2
  6
CONTINUOUS
370
    25
100
AcDbLine
 10
35.00001152
 20
80.308835821
 30
0.0
 11
31.500011523
 21
79.858835796
 31
0.0
  0
LINE
  5
EF
330
1D
100
AcDbEntity
  8
2
  6
CONTINUOUS
370
    25
100
AcDbLine
 10
31.500011523
 20
79.858835796
 30
0.0
 11
31.500011517
 21
80.758835796
 31
0.0
  0
LINE
  5
F0
330
1D
100
AcDbEntity
  8
2
  6
CONTINUOUS
370
    25
100
AcDbLine
 10
31.500011517
 20
80.758835796
 30
0.0
 11
35.00001152
 21
80.308835821
 31
0.0
  0
LINE
  5
F1
330
1D
100
AcDbEntity
  8
2
  6
CONTINUOUS
370
    25
100
AcDbLine
 10
0.0
 20
80.308835572
 30
0.0
 11
31.50001152
 21
80.308835796
 31
0.0
  0
TEXT
  5
F2
330
1D
100
AcDbEntity
  8
2
  6
CONTINUOUS
370
    25
100
AcDbText
 10
15.479849108
 20
81.808835682
 30
0.0
 40
3.5
  1
117
 50
0.000000408
  7
BMG_Text
100
AcDbText
  0
LINE
  5
F3
330
1D
100
AcDbEntity
  8
2
  6
CONTINUOUS
370
    25
100
AcDbLine
 10
44.438706664
 20
-76.000002031
 30
0.0
 11
34.20001152
 21
-76.000002031
 31
0.0
  0
LINE
  5
F4
330
1D
100
AcDbEntity
  8
2
  6
CONTINUOUS
370
    25
100
AcDbLine
 10
42.438706664
 20
-76.000002031
 30
0.0
 11
41.988706664
 21
-72.500002031
 31
0.0
  0
LINE
  5
F5
330
1D
100
AcDbEntity
  8
2
  6
CONTINUOUS
370
    25
100
AcDbLine
 10
41.988706664
 20
-72.500002031
 30
0.0
 11
42.888706664
 21
-72.500002031
 31
0.0
  0
LINE
  5
F6
330
1D
100
AcDbEntity
  8
2
  6
CONTINUOUS
370
    25
100
AcDbLine
 10
42.888706664
 20
-72.500002031
 30
0.0
 11
42.438706664
 21
-76.000002031
 31
0.0
  0
LINE
  5
F7
330
1D
100
AcDbEntity
  8
2
  6
CONTINUOUS
370
    25
100
AcDbLine
 10
44.438706664
 20
76.000002031
 30
0.0
 11
34.20001152
 21
76.000002031
 31
0.0
  0
LINE
  5
F8
330
1D
100
AcDbEntity
  8
2
  6
CONTINUOUS
370
    25
100
AcDbLine
 10
42.438706664
 20
76.000002031
 30
0.0
 11
42.888706664
 21
72.500002031
 31
0.0
  0
LINE
  5
F9
330
1D
100
AcDbEntity
  8
2
  6
CONTINUOUS
370
    25
100
AcDbLine
 10
42.888706664
 20
72.500002031
 30
0.0
 11
41.988706664
 21
72.500002031
 31
0.0
  0
LINE
  5
FA
330
1D
100
AcDbEntity
  8
2
  6
CONTINUOUS
370
    25
100
AcDbLine
 10
41.988706664
 20
72.500002031
 30
0.0
 11
42.438706664
 21
76.000002031
 31
0.0
  0
LINE
  5
FB
330
1D
100
AcDbEntity
  8
2
  6
CONTINUOUS
370
    25
100
AcDbLine
 10
42.438706664
 20
-72.500002031
 30
0.0
 11
42.438706664
 21
72.500002031
 31
0.0
  0
CIRCLE
  5
FC
330
1D
100
AcDbEntity
  8
2
  6
CONTINUOUS
370
    25
100
AcDbCircle
 10
39.688706664
 20
-6.785782949
 30
0.0
 40
1.25
  0
LINE
  5
FD
330
1D
100
AcDbEntity
  8
2
  6
CONTINUOUS
370
    25
100
AcDbLine
 10
40.938706664
 20
-8.035782949
 30
0.0
 11
38.438706664
 21
-5.535782949
 31
0.0
  0
TEXT
  5
FE
330
1D
100
AcDbEntity
  8
2
  6
CONTINUOUS
370
    25
100
AcDbText
 10
40.938706664
 20
-4.535782949
 30
0.0
 40
3.5
  1
150-188
 50
90.0
  7
BMG_Text
100
AcDbText
  0
TEXT
  5
FF
330
1D
100
AcDbEntity
  8
SK6
  6
CONTINUOUS
370
    35
100
AcDbText
 10
16.15368463
 20
-63.513086959
 30
0.0
 40
3.5
  1
637.829
  7
BMG_Text
100
AcDbText
  0
ENDSEC
  0
SECTION
  2
OBJECTS
  0
DICTIONARY
  5
C
330
0
100
AcDbDictionary
281
     1
  3
ACAD_GROUP
350
D
  3
ACAD_LAYOUT
350
1A
  3
ACAD_MATERIAL
350
13D
  3
ACAD_MLEADERSTYLE
350
14A
  3
ACAD_MLINESTYLE
350
17
  3
ACAD_PLOTSETTINGS
350
19
  3
ACAD_PLOTSTYLENAME
350
E
  3
ACAD_SCALELIST
350
106
  3
ACAD_VISUALSTYLE
350
12C
  3
ACDB_RECOMPOSE_DATA
350
177
  3
AcDbVariableDictionary
350
148
  0
DICTIONARY
  5
14E
330
8
100
AcDbDictionary
280
     1
281
     1
  3
ACAD_XREC_ROUNDTRIP
360
14F
  0
DICTIONARY
  5
D
102
{ACAD_REACTORS
330
C
102
}
330
C
100
AcDbDictionary
281
     1
  0
DICTIONARY
  5
1A
102
{ACAD_REACTORS
330
C
102
}
330
C
100
AcDbDictionary
281
     1
  3
Layout1
350
1C
  3
Model
350
1E
  0
DICTIONARY
  5
13D
102
{ACAD_REACTORS
330
C
102
}
330
C
100
AcDbDictionary
281
     1
  3
ByBlock
350
13F
  3
ByLayer
350
13E
  3
Global
350
140
  0
DICTIONARY
  5
14A
102
{ACAD_REACTORS
330
C
102
}
330
C
100
AcDbDictionary
281
     1
  0
DICTIONARY
  5
17
102
{ACAD_REACTORS
330
C
102
}
330
C
100
AcDbDictionary
281
     1
  3
Standard
350
18
  0
DICTIONARY
  5
19
102
{ACAD_REACTORS
330
C
102
}
330
C
100
AcDbDictionary
281
     1
  0
ACDBDICTIONARYWDFLT
  5
E
102
{ACAD_REACTORS
330
C
102
}
330
C
100
AcDbDictionary
281
     1
  3
Normal
350
F
100
AcDbDictionaryWithDefault
340
F
  0
DICTIONARY
  5
106
102
{ACAD_REACTORS
330
C
102
}
330
C
100
AcDbDictionary
281
     1
  3
A0
350
107
  3
A1
350
108
  3
A2
350
109
  3
A3
350
10A
  3
A4
350
10B
  3
A5
350
10C
  3
A6
350
10D
  3
A7
350
10E
  3
A8
350
10F
  3
A9
350
110
  3
B0
350
111
  3
B1
350
112
  3
B2
350
113
  3
B3
350
114
  3
B4
350
115
  3
B5
350
116
  3
B6
350
117
  3
B7
350
118
  3
B8
350
119
  3
B9
350
11A
  3
C0
350
11B
  3
C1
350
11C
  3
C2
350
11D
  3
C3
350
11E
  3
C4
350
11F
  3
C5
350
120
  3
C6
350
121
  3
C7
350
122
  3
C8
350
123
  3
C9
350
124
  3
D0
350
125
  3
D1
350
126
  3
D2
350
127
  0
DICTIONARY
  5
12C
102
{ACAD_REACTORS
330
C
102
}
330
C
100
AcDbDictionary
281
     1
  3
2dWireframe
350
131
  3
3D Hidden
350
133
  3
3dWireframe
350
132
  3
Basic
350
134
  3
Brighten
350
138
  3
ColorChange
350
13C
  3
Conceptual
350
136
  3
Dim
350
137
  3
Facepattern
350
13B
  3
Flat
350
12D
  3
FlatWithEdges
350
12E
  3
Gouraud
350
12F
  3
GouraudWithEdges
350
130
  3
Linepattern
350
13A
  3
Realistic
350
135
  3
Thicken
350
139
  0
XRECORD
  5
177
102
{ACAD_REACTORS
330
C
102
}
330
C
100
AcDbXrecord
280
     1
  0
DICTIONARY
  5
148
102
{ACAD_REACTORS
330
C
102
}
330
C
100
AcDbDictionary
281
     1
  3
CANNOSCALE
350
150
  3
DIMASSOC
350
14C
  3
HIDETEXT
350
14D
  3
MSLTSCALE
350
14B
  0
XRECORD
  5
14F
102
{ACAD_REACTORS
330
14E
102
}
330
14E
100
AcDbXrecord
280
     1
102
VTR_0.000_0.000_1.000_1.000_VISUALSTYLE
340
131
102
VTR_0.000_0.000_1.000_1.000_GRIDDISPLAY
 70
     3
102
VTR_0.000_0.000_1.000_1.000_GRIDMAJOR
 70
     5
102
VTR_0.000_0.000_1.000_1.000_DEFAULTLIGHTING
280
     1
102
VTR_0.000_0.000_1.000_1.000_DEFAULTLIGHTINGTYPE
 70
     1
102
VTR_0.000_0.000_1.000_1.000_BRIGHTNESS
141
0.0
102
VTR_0.000_0.000_1.000_1.000_CONTRAST
142
0.0
  0
LAYOUT
  5
1C
102
{ACAD_REACTORS
330
1A
102
}
330
1A
100
AcDbPlotSettings
  1

  2
none_device
  4

  6

 40
0.0
 41
0.0
 42
0.0
 43
0.0
 44
0.0
 45
0.0
 46
0.0
 47
0.0
 48
0.0
 49
0.0
140
0.0
141
0.0
142
1.0
143
1.0
 70
   688
 72
     0
 73
     0
 74
     5
  7

 75
    16
147
1.0
148
0.0
149
0.0
100
AcDbLayout
  1
Layout1
 70
     1
 71
     1
 10
0.0
 20
0.0
 11
12.0
 21
9.0
 12
0.0
 22
0.0
 32
0.0
 14
1.000000000000000E+20
 24
1.000000000000000E+20
 34
1.000000000000000E+20
 15
-1.000000000000000E+20
 25
-1.000000000000000E+20
 35
-1.000000000000000E+20
146
0.0
 13
0.0
 23
0.0
 33
0.0
 16
1.0
 26
0.0
 36
0.0
 17
0.0
 27
1.0
 37
0.0
 76
     0
330
1B
  0
LAYOUT
  5
1E
102
{ACAD_REACTORS
330
1A
102
}
330
1A
100
AcDbPlotSettings
  1

  2
none_device
  4

  6

 40
0.0
 41
0.0
 42
0.0
 43
0.0
 44
0.0
 45
0.0
 46
0.0
 47
0.0
 48
0.0
 49
0.0
140
0.0
141
0.0
142
1.0
143
1.0
 70
  1712
 72
     0
 73
     0
 74
     0
  7

 75
     0
147
1.0
148
0.0
149
0.0
100
AcDbLayout
  1
Model
 70
     1
 71
     0
 10
0.0
 20
0.0
 11
12.0
 21
9.0
 12
0.0
 22
0.0
 32
0.0
 14
-109.898893434
 24
-77.613090409
 34
0.0
 15
148.372492022
 25
86.921924088
 35
0.0
146
0.0
 13
0.0
 23
0.0
 33
0.0
 16
1.0
 26
0.0
 36
0.0
 17
0.0
 27
1.0
 37
0.0
 76
     0
330
1D
331
100
  0
MATERIAL
  5
13F
102
{ACAD_REACTORS
330
13D
102
}
102
{ACAD_XDICTIONARY
360
173
102
}
330
13D
100
AcDbMaterial
  1
ByBlock
  0
MATERIAL
  5
13E
102
{ACAD_REACTORS
330
13D
102
}
102
{ACAD_XDICTIONARY
360
171
102
}
330
13D
100
AcDbMaterial
  1
ByLayer
  0
MATERIAL
  5
140
102
{ACAD_REACTORS
330
13D
102
}
102
{ACAD_XDICTIONARY
360
175
102
}
330
13D
100
AcDbMaterial
  1
Global
  0
MLINESTYLE
  5
18
102
{ACAD_REACTORS
330
17
102
}
330
17
100
AcDbMlineStyle
  2
Standard
 70
     0
  3

 62
   256
 51
90.0
 52
90.0
 71
     2
 49
0.5
 62
   256
  6
BYLAYER
 49
-0.5
 62
   256
  6
BYLAYER
  0
ACDBPLACEHOLDER
  5
F
102
{ACAD_REACTORS
330
E
102
}
330
E
  0
SCALE
  5
107
102
{ACAD_REACTORS
330
106
102
}
330
106
100
AcDbScale
 70
     0
300
1:1
140
1.0
141
1.0
290
     1
  0
SCALE
  5
108
102
{ACAD_REACTORS
330
106
102
}
330
106
100
AcDbScale
 70
     0
300
1:2
140
1.0
141
2.0
290
     0
  0
SCALE
  5
109
102
{ACAD_REACTORS
330
106
102
}
330
106
100
AcDbScale
 70
     0
300
1:4
140
1.0
141
4.0
290
     0
  0
SCALE
  5
10A
102
{ACAD_REACTORS
330
106
102
}
330
106
100
AcDbScale
 70
     0
300
1:5
140
1.0
141
5.0
290
     0
  0
SCALE
  5
10B
102
{ACAD_REACTORS
330
106
102
}
330
106
100
AcDbScale
 70
     0
300
1:8
140
1.0
141
8.0
290
     0
  0
SCALE
  5
10C
102
{ACAD_REACTORS
330
106
102
}
330
106
100
AcDbScale
 70
     0
300
1:10
140
1.0
141
10.0
290
     0
  0
SCALE
  5
10D
102
{ACAD_REACTORS
330
106
102
}
330
106
100
AcDbScale
 70
     0
300
1:16
140
1.0
141
16.0
290
     0
  0
SCALE
  5
10E
102
{ACAD_REACTORS
330
106
102
}
330
106
100
AcDbScale
 70
     0
300
1:20
140
1.0
141
20.0
290
     0
  0
SCALE
  5
10F
102
{ACAD_REACTORS
330
106
102
}
330
106
100
AcDbScale
 70
     0
300
1:30
140
1.0
141
30.0
290
     0
  0
SCALE
  5
110
102
{ACAD_REACTORS
330
106
102
}
330
106
100
AcDbScale
 70
     0
300
1:40
140
1.0
141
40.0
290
     0
  0
SCALE
  5
111
102
{ACAD_REACTORS
330
106
102
}
330
106
100
AcDbScale
 70
     0
300
1:50
140
1.0
141
50.0
290
     0
  0
SCALE
  5
112
102
{ACAD_REACTORS
330
106
102
}
330
106
100
AcDbScale
 70
     0
300
1:100
140
1.0
141
100.0
290
     0
  0
SCALE
  5
113
102
{ACAD_REACTORS
330
106
102
}
330
106
100
AcDbScale
 70
     0
300
2:1
140
2.0
141
1.0
290
     0
  0
SCALE
  5
114
102
{ACAD_REACTORS
330
106
102
}
330
106
100
AcDbScale
 70
     0
300
4:1
140
4.0
141
1.0
290
     0
  0
SCALE
  5
115
102
{ACAD_REACTORS
330
106
102
}
330
106
100
AcDbScale
 70
     0
300
8:1
140
8.0
141
1.0
290
     0
  0
SCALE
  5
116
102
{ACAD_REACTORS
330
106
102
}
330
106
100
AcDbScale
 70
     0
300
10:1
140
10.0
141
1.0
290
     0
  0
SCALE
  5
117
102
{ACAD_REACTORS
330
106
102
}
330
106
100
AcDbScale
 70
     0
300
100:1
140
100.0
141
1.0
290
     0
  0
SCALE
  5
118
102
{ACAD_REACTORS
330
106
102
}
330
106
100
AcDbScale
 70
     0
300
1/128" = 1'-0"
140
0.0078125
141
12.0
290
     0
  0
SCALE
  5
119
102
{ACAD_REACTORS
330
106
102
}
330
106
100
AcDbScale
 70
     0
300
1/64" = 1'-0"
140
0.015625
141
12.0
290
     0
  0
SCALE
  5
11A
102
{ACAD_REACTORS
330
106
102
}
330
106
100
AcDbScale
 70
     0
300
1/32" = 1'-0"
140
0.03125
141
12.0
290
     0
  0
SCALE
  5
11B
102
{ACAD_REACTORS
330
106
102
}
330
106
100
AcDbScale
 70
     0
300
1/16" = 1'-0"
140
0.0625
141
12.0
290
     0
  0
SCALE
  5
11C
102
{ACAD_REACTORS
330
106
102
}
330
106
100
AcDbScale
 70
     0
300
3/32" = 1'-0"
140
0.09375
141
12.0
290
     0
  0
SCALE
  5
11D
102
{ACAD_REACTORS
330
106
102
}
330
106
100
AcDbScale
 70
     0
300
1/8" = 1'-0"
140
0.125
141
12.0
290
     0
  0
SCALE
  5
11E
102
{ACAD_REACTORS
330
106
102
}
330
106
100
AcDbScale
 70
     0
300
3/16" = 1'-0"
140
0.1875
141
12.0
290
     0
  0
SCALE
  5
11F
102
{ACAD_REACTORS
330
106
102
}
330
106
100
AcDbScale
 70
     0
300
1/4" = 1'-0"
140
0.25
141
12.0
290
     0
  0
SCALE
  5
120
102
{ACAD_REACTORS
330
106
102
}
330
106
100
AcDbScale
 70
     0
300
3/8" = 1'-0"
140
0.375
141
12.0
290
     0
  0
SCALE
  5
121
102
{ACAD_REACTORS
330
106
102
}
330
106
100
AcDbScale
 70
     0
300
1/2" = 1'-0"
140
0.5
141
12.0
290
     0
  0
SCALE
  5
122
102
{ACAD_REACTORS
330
106
102
}
330
106
100
AcDbScale
 70
     0
300
3/4" = 1'-0"
140
0.75
141
12.0
290
     0
  0
SCALE
  5
123
102
{ACAD_REACTORS
330
106
102
}
330
106
100
AcDbScale
 70
     0
300
1" = 1'-0"
140
1.0
141
12.0
290
     0
  0
SCALE
  5
124
102
{ACAD_REACTORS
330
106
102
}
330
106
100
AcDbScale
 70
     0
300
1-1/2" = 1'-0"
140
1.5
141
12.0
290
     0
  0
SCALE
  5
125
102
{ACAD_REACTORS
330
106
102
}
330
106
100
AcDbScale
 70
     0
300
3" = 1'-0"
140
3.0
141
12.0
290
     0
  0
SCALE
  5
126
102
{ACAD_REACTORS
330
106
102
}
330
106
100
AcDbScale
 70
     0
300
6" = 1'-0"
140
6.0
141
12.0
290
     0
  0
SCALE
  5
127
102
{ACAD_REACTORS
330
106
102
}
330
106
100
AcDbScale
 70
     0
300
1'-0" = 1'-0"
140
12.0
141
12.0
290
     0
  0
VISUALSTYLE
  5
131
102
{ACAD_REACTORS
330
12C
102
}
102
{ACAD_XDICTIONARY
360
159
102
}
330
12C
100
AcDbVisualStyle
  2
2dWireframe
 70
     4
 71
     0
 72
     2
 73
     0
 90
        0
 40
-0.6
 41
-30.0
 62
     5
 63
     7
 74
     1
 91
        4
 64
     7
 65
   257
 75
     1
175
     1
 42
1.0
 92
        0
 66
   257
 43
1.0
 76
     1
 77
     6
 78
     2
 67
     7
 79
     5
170
     0
171
     0
290
     0
174
     0
 93
        1
 44
0.0
173
     0
291
     0
 45
0.0
1001
ACAD
1000
AcDbSavedByObjectVersion
1070
     0
  0
VISUALSTYLE
  5
133
102
{ACAD_REACTORS
330
12C
102
}
102
{ACAD_XDICTIONARY
360
15D
102
}
330
12C
100
AcDbVisualStyle
  2
3D Hidden
 70
     6
 71
     1
 72
     2
 73
     2
 90
        0
 40
-0.6
 41
-30.0
 62
     5
 63
     7
 74
     2
 91
        2
 64
     7
 65
   257
 75
     2
175
     1
 42
40.0
 92
        0
 66
   257
 43
1.0
 76
     1
 77
     6
 78
     2
 67
     7
 79
     3
170
     0
171
     0
290
     0
174
     0
 93
        1
 44
0.0
173
     0
291
     0
 45
0.0
1001
ACAD
1000
AcDbSavedByObjectVersion
1070
     0
  0
VISUALSTYLE
  5
132
102
{ACAD_REACTORS
330
12C
102
}
102
{ACAD_XDICTIONARY
360
15B
102
}
330
12C
100
AcDbVisualStyle
  2
3dWireframe
 70
     5
 71
     0
 72
     2
 73
     0
 90
        0
 40
-0.6
 41
-30.0
 62
     5
 63
     7
 74
     1
 91
        4
 64
     7
 65
   257
 75
     1
175
     1
 42
1.0
 92
        0
 66
   257
 43
1.0
 76
     1
 77
     6
 78
     2
 67
     7
 79
     5
170
     0
171
     0
290
     0
174
     0
 93
        1
 44
0.0
173
     0
291
     0
 45
0.0
1001
ACAD
1000
AcDbSavedByObjectVersion
1070
     0
  0
VISUALSTYLE
  5
134
102
{ACAD_REACTORS
330
12C
102
}
102
{ACAD_XDICTIONARY
360
15F
102
}
330
12C
100
AcDbVisualStyle
  2
Basic
 70
     7
 71
     1
 72
     0
 73
     1
 90
        0
 40
-0.6
 41
-30.0
 62
     5
 63
     7
 74
     0
 91
        4
 64
     7
 65
   257
 75
     1
175
     1
 42
1.0
 92
        8
 66
     7
 43
1.0
 76
     1
 77
     6
 78
     2
 67
     7
 79
     5
170
     0
171
     0
290
     0
174
     0
 93
        1
 44
0.0
173
     0
291
     1
 45
0.0
1001
ACAD
1000
AcDbSavedByObjectVersion
1070
     0
  0
VISUALSTYLE
  5
138
102
{ACAD_REACTORS
330
12C
102
}
102
{ACAD_XDICTIONARY
360
167
102
}
330
12C
100
AcDbVisualStyle
  2
Brighten
 70
    12
 71
     2
 72
     2
 73
     0
 90
        0
 40
-0.6
 41
-30.0
 62
     5
 63
     7
 74
     1
 91
        4
 64
     7
 65
   257
 75
     1
175
     1
 42
1.0
 92
        8
 66
     7
 43
1.0
 76
     1
 77
     6
 78
     2
 67
     7
 79
     5
170
     0
171
     0
290
     0
174
     0
 93
        1
 44
50.0
173
     0
291
     1
 45
0.0
1001
ACAD
1000
AcDbSavedByObjectVersion
1070
     0
  0
VISUALSTYLE
  5
13C
102
{ACAD_REACTORS
330
12C
102
}
102
{ACAD_XDICTIONARY
360
16F
102
}
330
12C
100
AcDbVisualStyle
  2
ColorChange
 70
    16
 71
     2
 72
     2
 73
     3
 90
        0
 40
-0.6
 41
-30.0
 62
     5
 63
     8
 74
     1
 91
        4
 64
     7
 65
   257
 75
     1
175
     1
 42
1.0
 92
        8
 66
     8
 43
1.0
 76
     1
 77
     6
 78
     2
 67
     7
 79
     5
170
     0
171
     0
290
     0
174
     0
 93
        1
 44
0.0
173
     0
291
     1
 45
0.0
1001
ACAD
1000
AcDbSavedByObjectVersion
1070
     0
  0
VISUALSTYLE
  5
136
102
{ACAD_REACTORS
330
12C
102
}
102
{ACAD_XDICTIONARY
360
163
102
}
330
12C
100
AcDbVisualStyle
  2
Conceptual
 70
     9
 71
     3
 72
     2
 73
     0
 90
        0
 40
-0.6
 41
-30.0
 62
     5
 63
     7
 74
     2
 91
        2
 64
     7
 65
   257
 75
     1
175
     1
 42
40.0
 92
        8
 66
     7
 43
1.0
 76
     1
 77
     6
 78
     2
 67
     7
 79
     3
170
     0
171
     0
290
     0
174
     0
 93
        1
 44
0.0
173
     0
291
     0
 45
0.0
1001
ACAD
1000
AcDbSavedByObjectVersion
1070
     0
  0
VISUALSTYLE
  5
137
102
{ACAD_REACTORS
330
12C
102
}
102
{ACAD_XDICTIONARY
360
165
102
}
330
12C
100
AcDbVisualStyle
  2
Dim
 70
    11
 71
     2
 72
     2
 73
     0
 90
        0
 40
-0.6
 41
-30.0
 62
     5
 63
     7
 74
     1
 91
        4
 64
     7
 65
   257
 75
     1
175
     1
 42
1.0
 92
        8
 66
     7
 43
1.0
 76
     1
 77
     6
 78
     2
 67
     7
 79
     5
170
     0
171
     0
290
     0
174
     0
 93
        1
 44
-50.0
173
     0
291
     1
 45
0.0
1001
ACAD
1000
AcDbSavedByObjectVersion
1070
     0
  0
VISUALSTYLE
  5
13B
102
{ACAD_REACTORS
330
12C
102
}
102
{ACAD_XDICTIONARY
360
16D
102
}
330
12C
100
AcDbVisualStyle
  2
Facepattern
 70
    15
 71
     2
 72
     2
 73
     0
 90
        0
 40
-0.6
 41
-30.0
 62
     5
 63
     7
 74
     1
 91
        4
 64
     7
 65
   257
 75
     1
175
     1
 42
1.0
 92
        8
 66
     7
 43
1.0
 76
     1
 77
     6
 78
     2
 67
     7
 79
     5
170
     0
171
     0
290
     0
174
     0
 93
        1
 44
0.0
173
     0
291
     1
 45
0.0
1001
ACAD
1000
AcDbSavedByObjectVersion
1070
     0
  0
VISUALSTYLE
  5
12D
102
{ACAD_REACTORS
330
12C
102
}
102
{ACAD_XDICTIONARY
360
151
102
}
330
12C
100
AcDbVisualStyle
  2
Flat
 70
     0
 71
     2
 72
     1
 73
     1
 90
        2
 40
-0.6
 41
30.0
 62
     5
 63
     7
 74
     0
 91
        4
 64
     7
 65
   257
 75
     1
175
     1
 42
1.0
 92
        8
 66
     7
 43
1.0
 76
     1
 77
     6
 78
     2
 67
     7
 79
     5
170
     0
171
     0
290
     0
174
     0
 93
       13
 44
0.0
173
     0
291
     1
 45
0.0
1001
ACAD
1000
AcDbSavedByObjectVersion
1070
     0
  0
VISUALSTYLE
  5
12E
102
{ACAD_REACTORS
330
12C
102
}
102
{ACAD_XDICTIONARY
360
153
102
}
330
12C
100
AcDbVisualStyle
  2
FlatWithEdges
 70
     1
 71
     2
 72
     1
 73
     1
 90
        2
 40
-0.6
 41
30.0
 62
     5
 63
     7
 74
     1
 91
        4
 64
     7
 65
   257
 75
     1
175
     1
 42
1.0
 92
        0
 66
   257
 43
1.0
 76
     1
 77
     6
 78
     2
 67
     7
 79
     5
170
     0
171
     0
290
     0
174
     0
 93
       13
 44
0.0
173
     0
291
     1
 45
0.0
1001
ACAD
1000
AcDbSavedByObjectVersion
1070
     0
  0
VISUALSTYLE
  5
12F
102
{ACAD_REACTORS
330
12C
102
}
102
{ACAD_XDICTIONARY
360
155
102
}
330
12C
100
AcDbVisualStyle
  2
Gouraud
 70
     2
 71
     2
 72
     2
 73
     1
 90
        2
 40
-0.6
 41
30.0
 62
     5
 63
     7
 74
     0
 91
        4
 64
     7
 65
   257
 75
     1
175
     1
 42
1.0
 92
        0
 66
     7
 43
1.0
 76
     1
 77
     6
 78
     2
 67
     7
 79
     5
170
     0
171
     0
290
     0
174
     0
 93
       13
 44
0.0
173
     0
291
     1
 45
0.0
1001
ACAD
1000
AcDbSavedByObjectVersion
1070
     0
  0
VISUALSTYLE
  5
130
102
{ACAD_REACTORS
330
12C
102
}
102
{ACAD_XDICTIONARY
360
157
102
}
330
12C
100
AcDbVisualStyle
  2
GouraudWithEdges
 70
     3
 71
     2
 72
     2
 73
     1
 90
        2
 40
-0.6
 41
30.0
 62
     5
 63
     7
 74
     1
 91
        4
 64
     7
 65
   257
 75
     1
175
     1
 42
1.0
 92
        0
 66
   257
 43
1.0
 76
     1
 77
     6
 78
     2
 67
     7
 79
     5
170
     0
171
     0
290
     0
174
     0
 93
       13
 44
0.0
173
     0
291
     1
 45
0.0
1001
ACAD
1000
AcDbSavedByObjectVersion
1070
     0
  0
VISUALSTYLE
  5
13A
102
{ACAD_REACTORS
330
12C
102
}
102
{ACAD_XDICTIONARY
360
16B
102
}
330
12C
100
AcDbVisualStyle
  2
Linepattern
 70
    14
 71
     2
 72
     2
 73
     0
 90
        0
 40
-0.6
 41
-30.0
 62
     5
 63
     7
 74
     1
 91
        4
 64
     7
 65
   257
 75
     7
175
     7
 42
1.0
 92
        8
 66
     7
 43
1.0
 76
     1
 77
     6
 78
     2
 67
     7
 79
     5
170
     0
171
     0
290
     0
174
     0
 93
        1
 44
0.0
173
     0
291
     1
 45
0.0
1001
ACAD
1000
AcDbSavedByObjectVersion
1070
     0
  0
VISUALSTYLE
  5
135
102
{ACAD_REACTORS
330
12C
102
}
102
{ACAD_XDICTIONARY
360
161
102
}
330
12C
100
AcDbVisualStyle
  2
Realistic
 70
     8
 71
     2
 72
     2
 73
     0
 90
        0
 40
-0.6
 41
-30.0
 62
     5
 63
     7
 74
     1
 91
        0
 64
     7
 65
   257
 75
     1
175
     1
 42
1.0
 92
        8
 66
     8
 43
1.0
 76
     1
 77
     6
 78
     2
 67
     7
 79
     5
170
     0
171
     0
290
     0
174
     0
 93
       13
 44
0.0
173
     0
291
     0
 45
0.0
1001
ACAD
1000
AcDbSavedByObjectVersion
1070
     0
  0
VISUALSTYLE
  5
139
102
{ACAD_REACTORS
330
12C
102
}
102
{ACAD_XDICTIONARY
360
169
102
}
330
12C
100
AcDbVisualStyle
  2
Thicken
 70
    13
 71
     2
 72
     2
 73
     0
 90
        0
 40
-0.6
 41
-30.0
 62
     5
 63
     7
 74
     1
 91
        4
 64
     7
 65
   257
 75
     1
175
     1
 42
1.0
 92
       12
 66
     7
 43
1.0
 76
     1
 77
     6
 78
     2
 67
     7
 79
     5
170
     0
171
     0
290
     0
174
     0
 93
        1
 44
0.0
173
     0
291
     1
 45
0.0
1001
ACAD
1000
AcDbSavedByObjectVersion
1070
     0
  0
DICTIONARYVAR
  5
150
102
{ACAD_REACTORS
330
148
102
}
330
148
100
DictionaryVariables
280
     0
  1
1:1
  0
DICTIONARYVAR
  5
14C
102
{ACAD_REACTORS
330
148
102
}
330
148
100
DictionaryVariables
280
     0
  1
2
  0
DICTIONARYVAR
  5
14D
102
{ACAD_REACTORS
330
148
102
}
330
148
100
DictionaryVariables
280
     0
  1
1
  0
DICTIONARYVAR
  5
14B
102
{ACAD_REACTORS
330
148
102
}
330
148
100
DictionaryVariables
280
     0
  1
0
  0
DICTIONARY
  5
173
330
13F
100
AcDbDictionary
280
     1
281
     1
  3
ACAD_XREC_ROUNDTRIP
360
174
  0
DICTIONARY
  5
171
330
13E
100
AcDbDictionary
280
     1
281
     1
  3
ACAD_XREC_ROUNDTRIP
360
172
  0
DICTIONARY
  5
175
330
140
100
AcDbDictionary
280
     1
281
     1
  3
ACAD_XREC_ROUNDTRIP
360
176
  0
DICTIONARY
  5
159
330
131
100
AcDbDictionary
280
     1
281
     1
  3
ACAD_XREC_ROUNDTRIP
360
15A
  0
DICTIONARY
  5
15D
330
133
100
AcDbDictionary
280
     1
281
     1
  3
ACAD_XREC_ROUNDTRIP
360
15E
  0
DICTIONARY
  5
15B
330
132
100
AcDbDictionary
280
     1
281
     1
  3
ACAD_XREC_ROUNDTRIP
360
15C
  0
DICTIONARY
  5
15F
330
134
100
AcDbDictionary
280
     1
281
     1
  3
ACAD_XREC_ROUNDTRIP
360
160
  0
DICTIONARY
  5
167
330
138
100
AcDbDictionary
280
     1
281
     1
  3
ACAD_XREC_ROUNDTRIP
360
168
  0
DICTIONARY
  5
16F
330
13C
100
AcDbDictionary
280
     1
281
     1
  3
ACAD_XREC_ROUNDTRIP
360
170
  0
DICTIONARY
  5
163
330
136
100
AcDbDictionary
280
     1
281
     1
  3
ACAD_XREC_ROUNDTRIP
360
164
  0
DICTIONARY
  5
165
330
137
100
AcDbDictionary
280
     1
281
     1
  3
ACAD_XREC_ROUNDTRIP
360
166
  0
DICTIONARY
  5
16D
330
13B
100
AcDbDictionary
280
     1
281
     1
  3
ACAD_XREC_ROUNDTRIP
360
16E
  0
DICTIONARY
  5
151
330
12D
100
AcDbDictionary
280
     1
281
     1
  3
ACAD_XREC_ROUNDTRIP
360
152
  0
DICTIONARY
  5
153
330
12E
100
AcDbDictionary
280
     1
281
     1
  3
ACAD_XREC_ROUNDTRIP
360
154
  0
DICTIONARY
  5
155
330
12F
100
AcDbDictionary
280
     1
281
     1
  3
ACAD_XREC_ROUNDTRIP
360
156
  0
DICTIONARY
  5
157
330
130
100
AcDbDictionary
280
     1
281
     1
  3
ACAD_XREC_ROUNDTRIP
360
158
  0
DICTIONARY
  5
16B
330
13A
100
AcDbDictionary
280
     1
281
     1
  3
ACAD_XREC_ROUNDTRIP
360
16C
  0
DICTIONARY
  5
161
330
135
100
AcDbDictionary
280
     1
281
     1
  3
ACAD_XREC_ROUNDTRIP
360
162
  0
DICTIONARY
  5
169
330
139
100
AcDbDictionary
280
     1
281
     1
  3
ACAD_XREC_ROUNDTRIP
360
16A
  0
XRECORD
  5
174
102
{ACAD_REACTORS
330
173
102
}
330
173
100
AcDbXrecord
280
     1
102
MATERIAL
148
0.0
149
0.0
149
0.0
 93
        0
 94
      127
282
     0
 72
     1
 77
     1
171
     1
175
     1
179
     1
273
     0
  0
XRECORD
  5
172
102
{ACAD_REACTORS
330
171
102
}
330
171
100
AcDbXrecord
280
     1
102
MATERIAL
148
0.0
149
0.0
149
0.0
 93
        0
 94
      127
282
     0
 72
     1
 77
     1
171
     1
175
     1
179
     1
273
     0
  0
XRECORD
  5
176
102
{ACAD_REACTORS
330
175
102
}
330
175
100
AcDbXrecord
280
     1
102
MATERIAL
148
0.0
149
0.0
149
0.0
 93
        0
 94
      127
282
     0
 72
     1
 77
     1
171
     1
175
     1
179
     1
273
     0
  0
XRECORD
  5
15A
102
{ACAD_REACTORS
330
159
102
}
330
159
100
AcDbXrecord
280
     1
102
RTVSPropertyOp0
 70
     1
102
RTVSPropertyOp1
 70
     1
102
RTVSPropertyOp2
 70
     1
102
RTVSPropertyOp3
 70
     1
102
RTVSPropertyOp4
 70
     1
102
RTVSPropertyOp5
 70
     1
102
RTVSPropertyOp6
 70
     1
102
RTVSPropertyOp7
 70
     1
102
RTVSPropertyOp8
 70
     1
102
RTVSPropertyOp9
 70
     1
102
RTVSPropertyOp10
 70
     1
102
RTVSPropertyOp11
 70
     1
102
RTVSPropertyOp12
 70
     1
102
RTVSPropertyOp13
 70
     1
102
RTVSPropertyOp14
 70
     1
102
RTVSPropertyOp15
 70
     1
102
RTVSPropertyOp16
 70
     1
102
RTVSPropertyOp17
 70
     1
102
RTVSPropertyOp18
 70
     1
102
RTVSPropertyOp19
 70
     1
102
RTVSPropertyOp20
 70
     1
102
RTVSPropertyOp21
 70
     1
102
RTVSPropertyOp22
 70
     1
102
RTVSPropertyOp23
 70
     1
102
RTVSPropertyOp24
 70
     1
102
RTVSPropertyOp25
 70
     1
102
RTVSPropertyOp26
 70
     1
102
RTVSPropertyOp27
 70
     1
102
RTVSPropertyOp28
 70
     1
102
RTVSPropertyOp29
 70
     1
102
RTVSPropertyOp30
 70
     1
102
RTVSPropertyOp31
 70
     1
102
RTVSPropertyOp32
 70
     1
  0
XRECORD
  5
15E
102
{ACAD_REACTORS
330
15D
102
}
330
15D
100
AcDbXrecord
280
     1
102
RTVSPropertyOp0
 70
     1
102
RTVSPropertyOp1
 70
     1
102
RTVSPropertyOp2
 70
     1
102
RTVSPropertyOp3
 70
     1
102
RTVSPropertyOp4
 70
     1
102
RTVSPropertyOp5
 70
     1
102
RTVSPropertyOp6
 70
     1
102
RTVSPropertyOp7
 70
     1
102
RTVSPropertyOp8
 70
     1
102
RTVSPropertyOp9
 70
     1
102
RTVSPropertyOp10
 70
     1
102
RTVSPropertyOp11
 70
     1
102
RTVSPropertyOp12
 70
     1
102
RTVSPropertyOp13
 70
     1
102
RTVSPropertyOp14
 70
     1
102
RTVSPropertyOp15
 70
     1
102
RTVSPropertyOp16
 70
     1
102
RTVSPropertyOp17
 70
     1
102
RTVSPropertyOp18
 70
     1
102
RTVSPropertyOp19
 70
     1
102
RTVSPropertyOp20
 70
     1
102
RTVSPropertyOp21
 70
     1
102
RTVSPropertyOp22
 70
     1
102
RTVSPropertyOp23
 70
     1
102
RTVSPropertyOp24
 70
     1
102
RTVSPropertyOp25
 70
     1
102
RTVSPropertyOp26
 70
     1
102
RTVSPropertyOp27
 70
     1
102
RTVSPropertyOp28
 70
     1
102
RTVSPropertyOp29
 70
     1
102
RTVSPropertyOp30
 70
     1
102
RTVSPropertyOp31
 70
     1
102
RTVSPropertyOp32
 70
     1
  0
XRECORD
  5
15C
102
{ACAD_REACTORS
330
15B
102
}
330
15B
100
AcDbXrecord
280
     1
102
RTVSPropertyOp0
 70
     1
102
RTVSPropertyOp1
 70
     1
102
RTVSPropertyOp2
 70
     1
102
RTVSPropertyOp3
 70
     1
102
RTVSPropertyOp4
 70
     1
102
RTVSPropertyOp5
 70
     1
102
RTVSPropertyOp6
 70
     1
102
RTVSPropertyOp7
 70
     1
102
RTVSPropertyOp8
 70
     1
102
RTVSPropertyOp9
 70
     1
102
RTVSPropertyOp10
 70
     1
102
RTVSPropertyOp11
 70
     1
102
RTVSPropertyOp12
 70
     1
102
RTVSPropertyOp13
 70
     1
102
RTVSPropertyOp14
 70
     1
102
RTVSPropertyOp15
 70
     1
102
RTVSPropertyOp16
 70
     1
102
RTVSPropertyOp17
 70
     1
102
RTVSPropertyOp18
 70
     1
102
RTVSPropertyOp19
 70
     1
102
RTVSPropertyOp20
 70
     1
102
RTVSPropertyOp21
 70
     1
102
RTVSPropertyOp22
 70
     1
102
RTVSPropertyOp23
 70
     1
102
RTVSPropertyOp24
 70
     1
102
RTVSPropertyOp25
 70
     1
102
RTVSPropertyOp26
 70
     1
102
RTVSPropertyOp27
 70
     1
102
RTVSPropertyOp28
 70
     1
102
RTVSPropertyOp29
 70
     1
102
RTVSPropertyOp30
 70
     1
102
RTVSPropertyOp31
 70
     1
102
RTVSPropertyOp32
 70
     1
  0
XRECORD
  5
160
102
{ACAD_REACTORS
330
15F
102
}
330
15F
100
AcDbXrecord
280
     1
102
RTVSPropertyOp0
 70
     1
102
RTVSPropertyOp1
 70
     1
102
RTVSPropertyOp2
 70
     1
102
RTVSPropertyOp3
 70
     1
102
RTVSPropertyOp4
 70
     1
102
RTVSPropertyOp5
 70
     1
102
RTVSPropertyOp6
 70
     1
102
RTVSPropertyOp7
 70
     1
102
RTVSPropertyOp8
 70
     1
102
RTVSPropertyOp9
 70
     1
102
RTVSPropertyOp10
 70
     1
102
RTVSPropertyOp11
 70
     1
102
RTVSPropertyOp12
 70
     1
102
RTVSPropertyOp13
 70
     1
102
RTVSPropertyOp14
 70
     1
102
RTVSPropertyOp15
 70
     1
102
RTVSPropertyOp16
 70
     1
102
RTVSPropertyOp17
 70
     1
102
RTVSPropertyOp18
 70
     1
102
RTVSPropertyOp19
 70
     1
102
RTVSPropertyOp20
 70
     1
102
RTVSPropertyOp21
 70
     1
102
RTVSPropertyOp22
 70
     1
102
RTVSPropertyOp23
 70
     1
102
RTVSPropertyOp24
 70
     1
102
RTVSPropertyOp25
 70
     1
102
RTVSPropertyOp26
 70
     1
102
RTVSPropertyOp27
 70
     1
102
RTVSPropertyOp28
 70
     1
102
RTVSPropertyOp29
 70
     1
102
RTVSPropertyOp30
 70
     1
102
RTVSPropertyOp31
 70
     1
102
RTVSPropertyOp32
 70
     1
  0
XRECORD
  5
168
102
{ACAD_REACTORS
330
167
102
}
330
167
100
AcDbXrecord
280
     1
102
RTVSPropertyOp0
 70
     1
102
RTVSPropertyOp1
 70
     1
102
RTVSPropertyOp2
 70
     1
102
RTVSPropertyOp3
 70
     1
102
RTVSPropertyOp4
 70
     1
102
RTVSPropertyOp5
 70
     1
102
RTVSPropertyOp6
 70
     1
102
RTVSPropertyOp7
 70
     1
102
RTVSPropertyOp8
 70
     1
102
RTVSPropertyOp9
 70
     1
102
RTVSPropertyOp10
 70
     1
102
RTVSPropertyOp11
 70
     1
102
RTVSPropertyOp12
 70
     1
102
RTVSPropertyOp13
 70
     1
102
RTVSPropertyOp14
 70
     1
102
RTVSPropertyOp15
 70
     1
102
RTVSPropertyOp16
 70
     1
102
RTVSPropertyOp17
 70
     1
102
RTVSPropertyOp18
 70
     1
102
RTVSPropertyOp19
 70
     1
102
RTVSPropertyOp20
 70
     1
102
RTVSPropertyOp21
 70
     1
102
RTVSPropertyOp22
 70
     1
102
RTVSPropertyOp23
 70
     1
102
RTVSPropertyOp24
 70
     1
102
RTVSPropertyOp25
 70
     1
102
RTVSPropertyOp26
 70
     1
102
RTVSPropertyOp27
 70
     1
102
RTVSPropertyOp28
 70
     1
102
RTVSPropertyOp29
 70
     1
102
RTVSPropertyOp30
 70
     1
102
RTVSPropertyOp31
 70
     1
102
RTVSPropertyOp32
 70
     1
  0
XRECORD
  5
170
102
{ACAD_REACTORS
330
16F
102
}
330
16F
100
AcDbXrecord
280
     1
102
RTVSPropertyOp0
 70
     1
102
RTVSPropertyOp1
 70
     1
102
RTVSPropertyOp2
 70
     1
102
RTVSPropertyOp3
 70
     1
102
RTVSPropertyOp4
 70
     1
102
RTVSPropertyOp5
 70
     1
102
RTVSPropertyOp6
 70
     1
102
RTVSPropertyOp7
 70
     1
102
RTVSPropertyOp8
 70
     1
102
RTVSPropertyOp9
 70
     1
102
RTVSPropertyOp10
 70
     1
102
RTVSPropertyOp11
 70
     1
102
RTVSPropertyOp12
 70
     1
102
RTVSPropertyOp13
 70
     1
102
RTVSPropertyOp14
 70
     1
102
RTVSPropertyOp15
 70
     1
102
RTVSPropertyOp16
 70
     1
102
RTVSPropertyOp17
 70
     1
102
RTVSPropertyOp18
 70
     1
102
RTVSPropertyOp19
 70
     1
102
RTVSPropertyOp20
 70
     1
102
RTVSPropertyOp21
 70
     1
102
RTVSPropertyOp22
 70
     1
102
RTVSPropertyOp23
 70
     1
102
RTVSPropertyOp24
 70
     1
102
RTVSPropertyOp25
 70
     1
102
RTVSPropertyOp26
 70
     1
102
RTVSPropertyOp27
 70
     1
102
RTVSPropertyOp28
 70
     1
102
RTVSPropertyOp29
 70
     1
102
RTVSPropertyOp30
 70
     1
102
RTVSPropertyOp31
 70
     1
102
RTVSPropertyOp32
 70
     1
  0
XRECORD
  5
164
102
{ACAD_REACTORS
330
163
102
}
330
163
100
AcDbXrecord
280
     1
102
RTVSPropertyOp0
 70
     1
102
RTVSPropertyOp1
 70
     1
102
RTVSPropertyOp2
 70
     1
102
RTVSPropertyOp3
 70
     1
102
RTVSPropertyOp4
 70
     1
102
RTVSPropertyOp5
 70
     1
102
RTVSPropertyOp6
 70
     1
102
RTVSPropertyOp7
 70
     1
102
RTVSPropertyOp8
 70
     1
102
RTVSPropertyOp9
 70
     1
102
RTVSPropertyOp10
 70
     1
102
RTVSPropertyOp11
 70
     1
102
RTVSPropertyOp12
 70
     1
102
RTVSPropertyOp13
 70
     1
102
RTVSPropertyOp14
 70
     1
102
RTVSPropertyOp15
 70
     1
102
RTVSPropertyOp16
 70
     1
102
RTVSPropertyOp17
 70
     1
102
RTVSPropertyOp18
 70
     1
102
RTVSPropertyOp19
 70
     1
102
RTVSPropertyOp20
 70
     1
102
RTVSPropertyOp21
 70
     1
102
RTVSPropertyOp22
 70
     1
102
RTVSPropertyOp23
 70
     1
102
RTVSPropertyOp24
 70
     1
102
RTVSPropertyOp25
 70
     1
102
RTVSPropertyOp26
 70
     1
102
RTVSPropertyOp27
 70
     1
102
RTVSPropertyOp28
 70
     1
102
RTVSPropertyOp29
 70
     1
102
RTVSPropertyOp30
 70
     1
102
RTVSPropertyOp31
 70
     1
102
RTVSPropertyOp32
 70
     1
  0
XRECORD
  5
166
102
{ACAD_REACTORS
330
165
102
}
330
165
100
AcDbXrecord
280
     1
102
RTVSPropertyOp0
 70
     1
102
RTVSPropertyOp1
 70
     1
102
RTVSPropertyOp2
 70
     1
102
RTVSPropertyOp3
 70
     1
102
RTVSPropertyOp4
 70
     1
102
RTVSPropertyOp5
 70
     1
102
RTVSPropertyOp6
 70
     1
102
RTVSPropertyOp7
 70
     1
102
RTVSPropertyOp8
 70
     1
102
RTVSPropertyOp9
 70
     1
102
RTVSPropertyOp10
 70
     1
102
RTVSPropertyOp11
 70
     1
102
RTVSPropertyOp12
 70
     1
102
RTVSPropertyOp13
 70
     1
102
RTVSPropertyOp14
 70
     1
102
RTVSPropertyOp15
 70
     1
102
RTVSPropertyOp16
 70
     1
102
RTVSPropertyOp17
 70
     1
102
RTVSPropertyOp18
 70
     1
102
RTVSPropertyOp19
 70
     1
102
RTVSPropertyOp20
 70
     1
102
RTVSPropertyOp21
 70
     1
102
RTVSPropertyOp22
 70
     1
102
RTVSPropertyOp23
 70
     1
102
RTVSPropertyOp24
 70
     1
102
RTVSPropertyOp25
 70
     1
102
RTVSPropertyOp26
 70
     1
102
RTVSPropertyOp27
 70
     1
102
RTVSPropertyOp28
 70
     1
102
RTVSPropertyOp29
 70
     1
102
RTVSPropertyOp30
 70
     1
102
RTVSPropertyOp31
 70
     1
102
RTVSPropertyOp32
 70
     1
  0
XRECORD
  5
16E
102
{ACAD_REACTORS
330
16D
102
}
330
16D
100
AcDbXrecord
280
     1
102
RTVSPropertyOp0
 70
     1
102
RTVSPropertyOp1
 70
     1
102
RTVSPropertyOp2
 70
     1
102
RTVSPropertyOp3
 70
     1
102
RTVSPropertyOp4
 70
     1
102
RTVSPropertyOp5
 70
     1
102
RTVSPropertyOp6
 70
     1
102
RTVSPropertyOp7
 70
     1
102
RTVSPropertyOp8
 70
     1
102
RTVSPropertyOp9
 70
     1
102
RTVSPropertyOp10
 70
     1
102
RTVSPropertyOp11
 70
     1
102
RTVSPropertyOp12
 70
     1
102
RTVSPropertyOp13
 70
     1
102
RTVSPropertyOp14
 70
     1
102
RTVSPropertyOp15
 70
     1
102
RTVSPropertyOp16
 70
     1
102
RTVSPropertyOp17
 70
     1
102
RTVSPropertyOp18
 70
     1
102
RTVSPropertyOp19
 70
     1
102
RTVSPropertyOp20
 70
     1
102
RTVSPropertyOp21
 70
     1
102
RTVSPropertyOp22
 70
     1
102
RTVSPropertyOp23
 70
     1
102
RTVSPropertyOp24
 70
     1
102
RTVSPropertyOp25
 70
     1
102
RTVSPropertyOp26
 70
     1
102
RTVSPropertyOp27
 70
     1
102
RTVSPropertyOp28
 70
     1
102
RTVSPropertyOp29
 70
     1
102
RTVSPropertyOp30
 70
     1
102
RTVSPropertyOp31
 70
     1
102
RTVSPropertyOp32
 70
     1
  0
XRECORD
  5
152
102
{ACAD_REACTORS
330
151
102
}
330
151
100
AcDbXrecord
280
     1
102
RTVSPropertyOp0
 70
     1
102
RTVSPropertyOp1
 70
     1
102
RTVSPropertyOp2
 70
     1
102
RTVSPropertyOp3
 70
     1
102
RTVSPropertyOp4
 70
     1
102
RTVSPropertyOp5
 70
     1
102
RTVSPropertyOp6
 70
     1
102
RTVSPropertyOp7
 70
     1
102
RTVSPropertyOp8
 70
     1
102
RTVSPropertyOp9
 70
     1
102
RTVSPropertyOp10
 70
     1
102
RTVSPropertyOp11
 70
     1
102
RTVSPropertyOp12
 70
     1
102
RTVSPropertyOp13
 70
     1
102
RTVSPropertyOp14
 70
     1
102
RTVSPropertyOp15
 70
     1
102
RTVSPropertyOp16
 70
     1
102
RTVSPropertyOp17
 70
     1
102
RTVSPropertyOp18
 70
     1
102
RTVSPropertyOp19
 70
     1
102
RTVSPropertyOp20
 70
     1
102
RTVSPropertyOp21
 70
     1
102
RTVSPropertyOp22
 70
     1
102
RTVSPropertyOp23
 70
     1
102
RTVSPropertyOp24
 70
     1
102
RTVSPropertyOp25
 70
     1
102
RTVSPropertyOp26
 70
     1
102
RTVSPropertyOp27
 70
     1
102
RTVSPropertyOp28
 70
     1
102
RTVSPropertyOp29
 70
     1
102
RTVSPropertyOp30
 70
     1
102
RTVSPropertyOp31
 70
     1
102
RTVSPropertyOp32
 70
     1
  0
XRECORD
  5
154
102
{ACAD_REACTORS
330
153
102
}
330
153
100
AcDbXrecord
280
     1
102
RTVSPropertyOp0
 70
     1
102
RTVSPropertyOp1
 70
     1
102
RTVSPropertyOp2
 70
     1
102
RTVSPropertyOp3
 70
     1
102
RTVSPropertyOp4
 70
     1
102
RTVSPropertyOp5
 70
     1
102
RTVSPropertyOp6
 70
     1
102
RTVSPropertyOp7
 70
     1
102
RTVSPropertyOp8
 70
     1
102
RTVSPropertyOp9
 70
     1
102
RTVSPropertyOp10
 70
     1
102
RTVSPropertyOp11
 70
     1
102
RTVSPropertyOp12
 70
     1
102
RTVSPropertyOp13
 70
     1
102
RTVSPropertyOp14
 70
     1
102
RTVSPropertyOp15
 70
     1
102
RTVSPropertyOp16
 70
     1
102
RTVSPropertyOp17
 70
     1
102
RTVSPropertyOp18
 70
     1
102
RTVSPropertyOp19
 70
     1
102
RTVSPropertyOp20
 70
     1
102
RTVSPropertyOp21
 70
     1
102
RTVSPropertyOp22
 70
     1
102
RTVSPropertyOp23
 70
     1
102
RTVSPropertyOp24
 70
     1
102
RTVSPropertyOp25
 70
     1
102
RTVSPropertyOp26
 70
     1
102
RTVSPropertyOp27
 70
     1
102
RTVSPropertyOp28
 70
     1
102
RTVSPropertyOp29
 70
     1
102
RTVSPropertyOp30
 70
     1
102
RTVSPropertyOp31
 70
     1
102
RTVSPropertyOp32
 70
     1
  0
XRECORD
  5
156
102
{ACAD_REACTORS
330
155
102
}
330
155
100
AcDbXrecord
280
     1
102
RTVSPropertyOp0
 70
     1
102
RTVSPropertyOp1
 70
     1
102
RTVSPropertyOp2
 70
     1
102
RTVSPropertyOp3
 70
     1
102
RTVSPropertyOp4
 70
     1
102
RTVSPropertyOp5
 70
     1
102
RTVSPropertyOp6
 70
     1
102
RTVSPropertyOp7
 70
     1
102
RTVSPropertyOp8
 70
     1
102
RTVSPropertyOp9
 70
     1
102
RTVSPropertyOp10
 70
     1
102
RTVSPropertyOp11
 70
     1
102
RTVSPropertyOp12
 70
     1
102
RTVSPropertyOp13
 70
     1
102
RTVSPropertyOp14
 70
     1
102
RTVSPropertyOp15
 70
     1
102
RTVSPropertyOp16
 70
     1
102
RTVSPropertyOp17
 70
     1
102
RTVSPropertyOp18
 70
     1
102
RTVSPropertyOp19
 70
     1
102
RTVSPropertyOp20
 70
     1
102
RTVSPropertyOp21
 70
     1
102
RTVSPropertyOp22
 70
     1
102
RTVSPropertyOp23
 70
     1
102
RTVSPropertyOp24
 70
     1
102
RTVSPropertyOp25
 70
     1
102
RTVSPropertyOp26
 70
     1
102
RTVSPropertyOp27
 70
     1
102
RTVSPropertyOp28
 70
     1
102
RTVSPropertyOp29
 70
     1
102
RTVSPropertyOp30
 70
     1
102
RTVSPropertyOp31
 70
     1
102
RTVSPropertyOp32
 70
     1
  0
XRECORD
  5
158
102
{ACAD_REACTORS
330
157
102
}
330
157
100
AcDbXrecord
280
     1
102
RTVSPropertyOp0
 70
     1
102
RTVSPropertyOp1
 70
     1
102
RTVSPropertyOp2
 70
     1
102
RTVSPropertyOp3
 70
     1
102
RTVSPropertyOp4
 70
     1
102
RTVSPropertyOp5
 70
     1
102
RTVSPropertyOp6
 70
     1
102
RTVSPropertyOp7
 70
     1
102
RTVSPropertyOp8
 70
     1
102
RTVSPropertyOp9
 70
     1
102
RTVSPropertyOp10
 70
     1
102
RTVSPropertyOp11
 70
     1
102
RTVSPropertyOp12
 70
     1
102
RTVSPropertyOp13
 70
     1
102
RTVSPropertyOp14
 70
     1
102
RTVSPropertyOp15
 70
     1
102
RTVSPropertyOp16
 70
     1
102
RTVSPropertyOp17
 70
     1
102
RTVSPropertyOp18
 70
     1
102
RTVSPropertyOp19
 70
     1
102
RTVSPropertyOp20
 70
     1
102
RTVSPropertyOp21
 70
     1
102
RTVSPropertyOp22
 70
     1
102
RTVSPropertyOp23
 70
     1
102
RTVSPropertyOp24
 70
     1
102
RTVSPropertyOp25
 70
     1
102
RTVSPropertyOp26
 70
     1
102
RTVSPropertyOp27
 70
     1
102
RTVSPropertyOp28
 70
     1
102
RTVSPropertyOp29
 70
     1
102
RTVSPropertyOp30
 70
     1
102
RTVSPropertyOp31
 70
     1
102
RTVSPropertyOp32
 70
     1
  0
XRECORD
  5
16C
102
{ACAD_REACTORS
330
16B
102
}
330
16B
100
AcDbXrecord
280
     1
102
RTVSPropertyOp0
 70
     1
102
RTVSPropertyOp1
 70
     1
102
RTVSPropertyOp2
 70
     1
102
RTVSPropertyOp3
 70
     1
102
RTVSPropertyOp4
 70
     1
102
RTVSPropertyOp5
 70
     1
102
RTVSPropertyOp6
 70
     1
102
RTVSPropertyOp7
 70
     1
102
RTVSPropertyOp8
 70
     1
102
RTVSPropertyOp9
 70
     1
102
RTVSPropertyOp10
 70
     1
102
RTVSPropertyOp11
 70
     1
102
RTVSPropertyOp12
 70
     1
102
RTVSPropertyOp13
 70
     1
102
RTVSPropertyOp14
 70
     1
102
RTVSPropertyOp15
 70
     1
102
RTVSPropertyOp16
 70
     1
102
RTVSPropertyOp17
 70
     1
102
RTVSPropertyOp18
 70
     1
102
RTVSPropertyOp19
 70
     1
102
RTVSPropertyOp20
 70
     1
102
RTVSPropertyOp21
 70
     1
102
RTVSPropertyOp22
 70
     1
102
RTVSPropertyOp23
 70
     1
102
RTVSPropertyOp24
 70
     1
102
RTVSPropertyOp25
 70
     1
102
RTVSPropertyOp26
 70
     1
102
RTVSPropertyOp27
 70
     1
102
RTVSPropertyOp28
 70
     1
102
RTVSPropertyOp29
 70
     1
102
RTVSPropertyOp30
 70
     1
102
RTVSPropertyOp31
 70
     1
102
RTVSPropertyOp32
 70
     1
  0
XRECORD
  5
162
102
{ACAD_REACTORS
330
161
102
}
330
161
100
AcDbXrecord
280
     1
102
RTVSPropertyOp0
 70
     1
102
RTVSPropertyOp1
 70
     1
102
RTVSPropertyOp2
 70
     1
102
RTVSPropertyOp3
 70
     1
102
RTVSPropertyOp4
 70
     1
102
RTVSPropertyOp5
 70
     1
102
RTVSPropertyOp6
 70
     1
102
RTVSPropertyOp7
 70
     1
102
RTVSPropertyOp8
 70
     1
102
RTVSPropertyOp9
 70
     1
102
RTVSPropertyOp10
 70
     1
102
RTVSPropertyOp11
 70
     1
102
RTVSPropertyOp12
 70
     1
102
RTVSPropertyOp13
 70
     1
102
RTVSPropertyOp14
 70
     1
102
RTVSPropertyOp15
 70
     1
102
RTVSPropertyOp16
 70
     1
102
RTVSPropertyOp17
 70
     1
102
RTVSPropertyOp18
 70
     1
102
RTVSPropertyOp19
 70
     1
102
RTVSPropertyOp20
 70
     1
102
RTVSPropertyOp21
 70
     1
102
RTVSPropertyOp22
 70
     1
102
RTVSPropertyOp23
 70
     1
102
RTVSPropertyOp24
 70
     1
102
RTVSPropertyOp25
 70
     1
102
RTVSPropertyOp26
 70
     1
102
RTVSPropertyOp27
 70
     1
102
RTVSPropertyOp28
 70
     1
102
RTVSPropertyOp29
 70
     1
102
RTVSPropertyOp30
 70
     1
102
RTVSPropertyOp31
 70
     1
102
RTVSPropertyOp32
 70
     1
  0
XRECORD
  5
16A
102
{ACAD_REACTORS
330
169
102
}
330
169
100
AcDbXrecord
280
     1
102
RTVSPropertyOp0
 70
     1
102
RTVSPropertyOp1
 70
     1
102
RTVSPropertyOp2
 70
     1
102
RTVSPropertyOp3
 70
     1
102
RTVSPropertyOp4
 70
     1
102
RTVSPropertyOp5
 70
     1
102
RTVSPropertyOp6
 70
     1
102
RTVSPropertyOp7
 70
     1
102
RTVSPropertyOp8
 70
     1
102
RTVSPropertyOp9
 70
     1
102
RTVSPropertyOp10
 70
     1
102
RTVSPropertyOp11
 70
     1
102
RTVSPropertyOp12
 70
     1
102
RTVSPropertyOp13
 70
     1
102
RTVSPropertyOp14
 70
     1
102
RTVSPropertyOp15
 70
     1
102
RTVSPropertyOp16
 70
     1
102
RTVSPropertyOp17
 70
     1
102
RTVSPropertyOp18
 70
     1
102
RTVSPropertyOp19
 70
     1
102
RTVSPropertyOp20
 70
     1
102
RTVSPropertyOp21
 70
     1
102
RTVSPropertyOp22
 70
     1
102
RTVSPropertyOp23
 70
     1
102
RTVSPropertyOp24
 70
     1
102
RTVSPropertyOp25
 70
     1
102
RTVSPropertyOp26
 70
     1
102
RTVSPropertyOp27
 70
     1
102
RTVSPropertyOp28
 70
     1
102
RTVSPropertyOp29
 70
     1
102
RTVSPropertyOp30
 70
     1
102
RTVSPropertyOp31
 70
     1
102
RTVSPropertyOp32
 70
     1
  0
ENDSEC
  0
EOF
