  0
SECTION
  2
HEADER
  9
$ACADVER
  1
AC1027
  9
$ACADMAINTVER
 70
   105
  9
$DWGCODEPAGE
  3
ANSI_1252
  9
$REQUIREDVERSIONS
160
                 0
  9
$LASTSAVEDBY
  1
matthias.ochs
  9
$INSBASE
 10
0.0
 20
0.0
 30
0.0
  9
$EXTMIN
 10
-24.69293148531736
 20
-121.7605543642362
 30
0.0
  9
$EXTMAX
 10
85.04722585541833
 20
108.9820386900002
 30
0.0
  9
$LIMMIN
 10
-191.563629653
 20
-89.383123128
  9
$LIMMAX
 10
233.271125287
 20
102.695290449
  9
$ORTHOMODE
 70
     0
  9
$REGENMODE
 70
     1
  9
$FILLMODE
 70
     1
  9
$QTEXTMODE
 70
     0
  9
$MIRRTEXT
 70
     1
  9
$LTSCALE
 40
1.0
  9
$ATTMODE
 70
     1
  9
$TEXTSIZE
 40
0.2
  9
$TRACEWID
 40
0.05
  9
$TEXTSTYLE
  7
Standard
  9
$CLAYER
  8
SK2
  9
$CELTYPE
  6
ByLayer
  9
$CECOLOR
 62
   256
  9
$CELTSCALE
 40
1.0
  9
$DISPSILH
 70
     0
  9
$DIMSCALE
 40
1.0
  9
$DIMASZ
 40
0.18
  9
$DIMEXO
 40
0.0625
  9
$DIMDLI
 40
0.38
  9
$DIMRND
 40
0.0
  9
$DIMDLE
 40
0.0
  9
$DIMEXE
 40
0.18
  9
$DIMTP
 40
0.0
  9
$DIMTM
 40
0.0
  9
$DIMTXT
 40
0.18
  9
$DIMCEN
 40
0.09
  9
$DIMTSZ
 40
0.0
  9
$DIMTOL
 70
     0
  9
$DIMLIM
 70
     0
  9
$DIMTIH
 70
     1
  9
$DIMTOH
 70
     1
  9
$DIMSE1
 70
     0
  9
$DIMSE2
 70
     0
  9
$DIMTAD
 70
     0
  9
$DIMZIN
 70
     0
  9
$DIMBLK
  1

  9
$DIMASO
 70
     1
  9
$DIMSHO
 70
     1
  9
$DIMPOST
  1

  9
$DIMAPOST
  1

  9
$DIMALT
 70
     0
  9
$DIMALTD
 70
     2
  9
$DIMALTF
 40
25.4
  9
$DIMLFAC
 40
1.0
  9
$DIMTOFL
 70
     0
  9
$DIMTVP
 40
0.0
  9
$DIMTIX
 70
     0
  9
$DIMSOXD
 70
     0
  9
$DIMSAH
 70
     0
  9
$DIMBLK1
  1

  9
$DIMBLK2
  1

  9
$DIMSTYLE
  2
Standard
  9
$DIMCLRD
 70
     0
  9
$DIMCLRE
 70
     0
  9
$DIMCLRT
 70
     0
  9
$DIMTFAC
 40
1.0
  9
$DIMGAP
 40
0.09
  9
$DIMJUST
 70
     0
  9
$DIMSD1
 70
     0
  9
$DIMSD2
 70
     0
  9
$DIMTOLJ
 70
     1
  9
$DIMTZIN
 70
     0
  9
$DIMALTZ
 70
     0
  9
$DIMALTTZ
 70
     0
  9
$DIMUPT
 70
     0
  9
$DIMDEC
 70
     4
  9
$DIMTDEC
 70
     4
  9
$DIMALTU
 70
     2
  9
$DIMALTTD
 70
     2
  9
$DIMTXSTY
  7
Standard
  9
$DIMAUNIT
 70
     0
  9
$DIMADEC
 70
     0
  9
$DIMALTRND
 40
0.0
  9
$DIMAZIN
 70
     0
  9
$DIMDSEP
 70
    46
  9
$DIMATFIT
 70
     3
  9
$DIMFRAC
 70
     0
  9
$DIMLDRBLK
  1

  9
$DIMLUNIT
 70
     2
  9
$DIMLWD
 70
    -2
  9
$DIMLWE
 70
    -2
  9
$DIMTMOVE
 70
     2
  9
$DIMFXL
 40
1.0
  9
$DIMFXLON
 70
     0
  9
$DIMJOGANG
 40
0.7853981633974483
  9
$DIMTFILL
 70
     0
  9
$DIMTFILLCLR
 70
     0
  9
$DIMARCSYM
 70
     0
  9
$DIMLTYPE
  6

  9
$DIMLTEX1
  6

  9
$DIMLTEX2
  6

  9
$DIMTXTDIRECTION
 70
     0
  9
$LUNITS
 70
     2
  9
$LUPREC
 70
     4
  9
$SKETCHINC
 40
0.1
  9
$FILLETRAD
 40
0.5
  9
$AUNITS
 70
     2
  9
$AUPREC
 70
     0
  9
$MENU
  1
.
  9
$ELEVATION
 40
0.0
  9
$PELEVATION
 40
0.0
  9
$THICKNESS
 40
0.0
  9
$LIMCHECK
 70
     0
  9
$CHAMFERA
 40
0.5
  9
$CHAMFERB
 40
0.5
  9
$CHAMFERC
 40
1.0
  9
$CHAMFERD
 40
0.0
  9
$SKPOLY
 70
     0
  9
$TDCREATE
 40
2458327.549567107
  9
$TDUCREATE
 40
2458327.466233773
  9
$TDUPDATE
 40
2458677.540571586
  9
$TDUUPDATE
 40
2458677.457238252
  9
$TDINDWG
 40
0.0035103472
  9
$TDUSRTIMER
 40
0.0023201968
  9
$USRTIMER
 70
     1
  9
$ANGBASE
 50
0.0
  9
$ANGDIR
 70
     0
  9
$PDMODE
 70
     0
  9
$PDSIZE
 40
0.0
  9
$PLINEWID
 40
0.0
  9
$SPLFRAME
 70
     0
  9
$SPLINETYPE
 70
     6
  9
$SPLINESEGS
 70
     8
  9
$HANDSEED
  5
270
  9
$SURFTAB1
 70
     6
  9
$SURFTAB2
 70
     6
  9
$SURFTYPE
 70
     6
  9
$SURFU
 70
     6
  9
$SURFV
 70
     6
  9
$UCSBASE
  2

  9
$UCSNAME
  2

  9
$UCSORG
 10
0.0
 20
0.0
 30
0.0
  9
$UCSXDIR
 10
1.0
 20
0.0
 30
0.0
  9
$UCSYDIR
 10
0.0
 20
1.0
 30
0.0
  9
$UCSORTHOREF
  2

  9
$UCSORTHOVIEW
 70
     0
  9
$UCSORGTOP
 10
0.0
 20
0.0
 30
0.0
  9
$UCSORGBOTTOM
 10
0.0
 20
0.0
 30
0.0
  9
$UCSORGLEFT
 10
0.0
 20
0.0
 30
0.0
  9
$UCSORGRIGHT
 10
0.0
 20
0.0
 30
0.0
  9
$UCSORGFRONT
 10
0.0
 20
0.0
 30
0.0
  9
$UCSORGBACK
 10
0.0
 20
0.0
 30
0.0
  9
$PUCSBASE
  2

  9
$PUCSNAME
  2

  9
$PUCSORG
 10
0.0
 20
0.0
 30
0.0
  9
$PUCSXDIR
 10
1.0
 20
0.0
 30
0.0
  9
$PUCSYDIR
 10
0.0
 20
1.0
 30
0.0
  9
$PUCSORTHOREF
  2

  9
$PUCSORTHOVIEW
 70
     0
  9
$PUCSORGTOP
 10
0.0
 20
0.0
 30
0.0
  9
$PUCSORGBOTTOM
 10
0.0
 20
0.0
 30
0.0
  9
$PUCSORGLEFT
 10
0.0
 20
0.0
 30
0.0
  9
$PUCSORGRIGHT
 10
0.0
 20
0.0
 30
0.0
  9
$PUCSORGFRONT
 10
0.0
 20
0.0
 30
0.0
  9
$PUCSORGBACK
 10
0.0
 20
0.0
 30
0.0
  9
$USERI1
 70
     0
  9
$USERI2
 70
     0
  9
$USERI3
 70
     0
  9
$USERI4
 70
     0
  9
$USERI5
 70
     0
  9
$USERR1
 40
0.0
  9
$USERR2
 40
0.0
  9
$USERR3
 40
0.0
  9
$USERR4
 40
0.0
  9
$USERR5
 40
0.0
  9
$WORLDVIEW
 70
     1
  9
$SHADEDGE
 70
     3
  9
$SHADEDIF
 70
    70
  9
$TILEMODE
 70
     1
  9
$MAXACTVP
 70
    64
  9
$PINSBASE
 10
0.0
 20
0.0
 30
0.0
  9
$PLIMCHECK
 70
     0
  9
$PEXTMIN
 10
1.000000000000000E+20
 20
1.000000000000000E+20
 30
1.000000000000000E+20
  9
$PEXTMAX
 10
-1.000000000000000E+20
 20
-1.000000000000000E+20
 30
-1.000000000000000E+20
  9
$PLIMMIN
 10
0.0
 20
0.0
  9
$PLIMMAX
 10
0.0
 20
0.0
  9
$UNITMODE
 70
     0
  9
$VISRETAIN
 70
     1
  9
$PLINEGEN
 70
     0
  9
$PSLTSCALE
 70
     1
  9
$TREEDEPTH
 70
  3020
  9
$CMLSTYLE
  2
Standard
  9
$CMLJUST
 70
     0
  9
$CMLSCALE
 40
1.0
  9
$PROXYGRAPHICS
 70
     1
  9
$MEASUREMENT
 70
     0
  9
$CELWEIGHT
370
    -1
  9
$ENDCAPS
280
     0
  9
$JOINSTYLE
280
     0
  9
$LWDISPLAY
290
     0
  9
$INSUNITS
 70
     0
  9
$HYPERLINKBASE
  1

  9
$STYLESHEET
  1

  9
$XEDIT
290
     1
  9
$CEPSNTYPE
380
     0
  9
$PSTYLEMODE
290
     1
  9
$FINGERPRINTGUID
  2
{1B82E1B0-F6DE-4960-A22E-A55867DBB03C}
  9
$VERSIONGUID
  2
{FAEB1C32-E019-11D5-929B-00C0DF256EC4}
  9
$EXTNAMES
290
     1
  9
$PSVPSCALE
 40
0.0
  9
$OLESTARTUP
290
     0
  9
$SORTENTS
280
   127
  9
$INDEXCTL
280
     0
  9
$HIDETEXT
280
     1
  9
$XCLIPFRAME
280
     2
  9
$HALOGAP
280
     0
  9
$OBSCOLOR
 70
   257
  9
$OBSLTYPE
280
     0
  9
$INTERSECTIONDISPLAY
280
     0
  9
$INTERSECTIONCOLOR
 70
   257
  9
$DIMASSOC
280
     2
  9
$PROJECTNAME
  1

  9
$CAMERADISPLAY
290
     0
  9
$LENSLENGTH
 40
50.0
  9
$CAMERAHEIGHT
 40
0.0
  9
$STEPSPERSEC
 40
2.0
  9
$STEPSIZE
 40
6.0
  9
$3DDWFPREC
 40
2.0
  9
$PSOLWIDTH
 40
0.25
  9
$PSOLHEIGHT
 40
4.0
  9
$LOFTANG1
 40
1.570796326794897
  9
$LOFTANG2
 40
1.570796326794897
  9
$LOFTMAG1
 40
0.0
  9
$LOFTMAG2
 40
0.0
  9
$LOFTPARAM
 70
     7
  9
$LOFTNORMALS
280
     1
  9
$LATITUDE
 40
37.795
  9
$LONGITUDE
 40
-122.394
  9
$NORTHDIRECTION
 40
0.0
  9
$TIMEZONE
 70
 -8000
  9
$LIGHTGLYPHDISPLAY
280
     1
  9
$TILEMODELIGHTSYNCH
280
     1
  9
$SOLIDHIST
280
     0
  9
$SHOWHIST
280
     1
  9
$DWFFRAME
280
     2
  9
$DGNFRAME
280
     2
  9
$REALWORLDSCALE
290
     1
  9
$INTERFERECOLOR
 62
   256
  9
$CSHADOW
280
     0
  9
$SHADOWPLANELOCATION
 40
0.0
  0
ENDSEC
  0
SECTION
  2
CLASSES
  0
CLASS
  1
ACDBDICTIONARYWDFLT
  2
AcDbDictionaryWithDefault
  3
ObjectDBX Classes
 90
        0
 91
       11
280
     0
281
     0
  0
CLASS
  1
SCALE
  2
AcDbScale
  3
ObjectDBX Classes
 90
     1153
 91
       11
280
     0
281
     0
  0
CLASS
  1
VISUALSTYLE
  2
AcDbVisualStyle
  3
ObjectDBX Classes
 90
     4095
 91
       11
280
     0
281
     0
  0
CLASS
  1
MATERIAL
  2
AcDbMaterial
  3
ObjectDBX Classes
 90
     1153
 91
       11
280
     0
281
     0
  0
CLASS
  1
DICTIONARYVAR
  2
AcDbDictionaryVar
  3
ObjectDBX Classes
 90
        0
 91
        9
280
     0
281
     0
  0
CLASS
  1
ACDBPLACEHOLDER
  2
AcDbPlaceHolder
  3
ObjectDBX Classes
 90
        0
 91
        1
280
     0
281
     0
  0
CLASS
  1
LAYOUT
  2
AcDbLayout
  3
ObjectDBX Classes
 90
        0
 91
        1
280
     0
281
     0
  0
CLASS
  1
TABLESTYLE
  2
AcDbTableStyle
  3
ObjectDBX Classes
 90
     4095
 91
       10
280
     0
281
     0
  0
CLASS
  1
MLEADERSTYLE
  2
AcDbMLeaderStyle
  3
ACDB_MLEADERSTYLE_CLASS
 90
     4095
 91
       10
280
     0
281
     0
  0
CLASS
  1
SUN
  2
AcDbSun
  3
SCENEOE
 90
     1153
 91
       11
280
     0
281
     0
  0
CLASS
  1
SORTENTSTABLE
  2
AcDbSortentsTable
  3
ObjectDBX Classes
 90
        0
 91
        7
280
     0
281
     0
  0
CLASS
  1
CELLSTYLEMAP
  2
AcDbCellStyleMap
  3
ObjectDBX Classes
 90
     1152
 91
        8
280
     0
281
     0
  0
ENDSEC
  0
SECTION
  2
TABLES
  0
TABLE
  2
VPORT
  5
8
330
0
100
AcDbSymbolTable
 70
     1
  0
VPORT
  5
148
330
8
100
AcDbSymbolTableRecord
100
AcDbViewportTableRecord
  2
*Active
 70
     0
 10
0.0
 20
0.0
 11
1.0
 21
1.0
 12
-26.86753101539016
 22
-0.1322523990152291
 13
0.0
 23
0.0
 14
0.5
 24
0.5
 15
0.5
 25
0.5
 16
0.0
 26
0.0
 36
1.0
 17
0.0
 27
0.0
 37
0.0
 40
458.4575927866209
 41
1.831002331002331
 42
50.0
 43
0.0
 44
0.0
 50
0.0
 51
0.0
 71
    16
 72
   100
 73
     1
 74
     3
 75
     1
 76
     0
 77
     0
 78
     0
281
     0
 65
     1
110
0.0
120
0.0
130
0.0
111
1.0
121
0.0
131
0.0
112
0.0
122
1.0
132
0.0
 79
     0
146
0.0
348
179
 60
     3
 61
     5
292
     1
282
     1
141
0.0
142
0.0
 63
   256
361
206
  0
ENDTAB
  0
TABLE
  2
LTYPE
  5
5
330
0
100
AcDbSymbolTable
 70
     8
  0
LTYPE
  5
14
330
5
100
AcDbSymbolTableRecord
100
AcDbLinetypeTableRecord
  2
ByBlock
 70
     0
  3

 72
    65
 73
     0
 40
0.0
  0
LTYPE
  5
15
330
5
100
AcDbSymbolTableRecord
100
AcDbLinetypeTableRecord
  2
ByLayer
 70
     0
  3

 72
    65
 73
     0
 40
0.0
  0
LTYPE
  5
16
330
5
100
AcDbSymbolTableRecord
100
AcDbLinetypeTableRecord
  2
Continuous
 70
     0
  3
Solid line
 72
    65
 73
     0
 40
0.0
  0
LTYPE
  5
20
330
5
100
AcDbSymbolTableRecord
100
AcDbLinetypeTableRecord
  2
PUNKT
 70
     0
  3
..............
 72
    65
 73
     2
 40
1.5
 49
0.7
 74
     0
 49
-0.8
 74
     0
  0
LTYPE
  5
21
330
5
100
AcDbSymbolTableRecord
100
AcDbLinetypeTableRecord
  2
GESTRICHELT
 70
     0
  3
-- -- -- -- --
 72
    65
 73
     7
 40
2.8
 49
0.9
 74
     0
 49
0.0
 74
     0
 49
0.9
 74
     0
 49
0.0
 74
     0
 49
0.2
 74
     0
 49
0.0
 74
     0
 49
-0.8
 74
     0
  0
LTYPE
  5
22
330
5
100
AcDbSymbolTableRecord
100
AcDbLinetypeTableRecord
  2
STRICHPUNKT
 70
     0
  3
--.--.--.--.--
 72
    65
 73
     4
 40
8.8
 49
5.5
 74
     0
 49
-1.3
 74
     0
 49
0.7
 74
     0
 49
-1.3
 74
     0
  0
LTYPE
  5
25
330
5
100
AcDbSymbolTableRecord
100
AcDbLinetypeTableRecord
  2
PHANTOM
 70
     0
  3
--..--..--..--
 72
    65
 73
     6
 40
14.2
 49
7.0
 74
     0
 49
-1.8
 74
     0
 49
0.9
 74
     0
 49
-1.8
 74
     0
 49
0.9
 74
     0
 49
-1.8
 74
     0
  0
LTYPE
  5
1C0
330
5
100
AcDbSymbolTableRecord
100
AcDbLinetypeTableRecord
  2
DASH
 70
     0
  3
DASH _ _ _ _ _
 72
    65
 73
     2
 40
0.75
 49
0.4
 74
     0
 49
-0.35
 74
     0
  0
LTYPE
  5
1C1
330
5
100
AcDbSymbolTableRecord
100
AcDbLinetypeTableRecord
  2
LONGDASH_DASH
 70
     0
  3
LONGDASH_DASH __ . __ . __
 72
    65
 73
     4
 40
0.85
 49
0.4
 74
     0
 49
-0.2
 74
     0
 49
0.05
 74
     0
 49
-0.2
 74
     0
  0
LTYPE
  5
1C2
330
5
100
AcDbSymbolTableRecord
100
AcDbLinetypeTableRecord
  2
LONGDASH_DASH_DASH
 70
     0
  3
LONGDASH_DASH_DASH __ . . __ . . __
 72
    65
 73
     6
 40
1.1
 49
0.4
 74
     0
 49
-0.2
 74
     0
 49
0.05
 74
     0
 49
-0.2
 74
     0
 49
0.05
 74
     0
 49
-0.2
 74
     0
  0
ENDTAB
  0
TABLE
  2
LAYER
  5
2
102
{ACAD_XDICTIONARY
360
1DF
102
}
330
0
100
AcDbSymbolTable
 70
    16
  0
LAYER
  5
18A
330
2
100
AcDbSymbolTableRecord
100
AcDbLayerTableRecord
  2
200
 70
     0
 62
     2
  6
Continuous
370
    50
390
F
347
188
348
0
  0
LAYER
  5
1C3
330
2
100
AcDbSymbolTableRecord
100
AcDbLayerTableRecord
  2
0
 70
     0
 62
     1
  6
Continuous
370
    -3
390
F
347
188
348
0
  0
LAYER
  5
1C4
330
2
100
AcDbSymbolTableRecord
100
AcDbLayerTableRecord
  2
1
 70
     0
 62
     4
  6
Continuous
370
    50
390
F
347
188
348
0
  0
LAYER
  5
1C5
330
2
100
AcDbSymbolTableRecord
100
AcDbLayerTableRecord
  2
2
 70
     0
 62
     7
  6
Continuous
370
    25
390
F
347
188
348
0
  0
LAYER
  5
1C6
330
2
100
AcDbSymbolTableRecord
100
AcDbLayerTableRecord
  2
3
 70
     0
 62
     1
  6
DASH
370
    35
390
F
347
188
348
0
  0
LAYER
  5
1C7
330
2
100
AcDbSymbolTableRecord
100
AcDbLayerTableRecord
  2
4
 70
     0
 62
     2
  6
LONGDASH_DASH
370
    25
390
F
347
188
348
0
  0
LAYER
  5
1C8
330
2
100
AcDbSymbolTableRecord
100
AcDbLayerTableRecord
  2
6
 70
     0
 62
     5
  6
Continuous
370
    -3
390
F
347
188
348
0
  0
LAYER
  5
1C9
330
2
100
AcDbSymbolTableRecord
100
AcDbLayerTableRecord
  2
CUT
 70
     0
 62
     1
  6
Continuous
370
    25
390
F
347
188
348
0
  0
LAYER
  5
1CA
330
2
100
AcDbSymbolTableRecord
100
AcDbLayerTableRecord
  2
NOCUT
 70
     0
 62
     7
  6
Continuous
370
    25
390
F
347
188
348
0
  0
LAYER
  5
1CB
330
2
100
AcDbSymbolTableRecord
100
AcDbLayerTableRecord
  2
SK1
 70
     0
 62
     4
  6
Continuous
370
    50
390
F
347
188
348
0
  0
LAYER
  5
1CC
330
2
100
AcDbSymbolTableRecord
100
AcDbLayerTableRecord
  2
SK2
 70
     0
 62
     7
  6
Continuous
370
    25
390
F
347
188
348
0
  0
LAYER
  5
1CD
330
2
100
AcDbSymbolTableRecord
100
AcDbLayerTableRecord
  2
SK3
 70
     0
 62
     1
  6
DASH
370
    35
390
F
347
188
348
0
  0
LAYER
  5
1CE
330
2
100
AcDbSymbolTableRecord
100
AcDbLayerTableRecord
  2
SK4
 70
     0
 62
     2
  6
LONGDASH_DASH
370
    25
390
F
347
188
348
0
  0
LAYER
  5
1CF
330
2
100
AcDbSymbolTableRecord
100
AcDbLayerTableRecord
  2
SK6
 70
     0
 62
     5
  6
Continuous
370
    -3
390
F
347
188
348
0
  0
LAYER
  5
1D0
330
2
100
AcDbSymbolTableRecord
100
AcDbLayerTableRecord
  2
INFTOTAL
 70
     0
 62
     9
  6
Continuous
370
    18
390
F
347
188
348
0
  0
LAYER
  5
23F
330
2
100
AcDbSymbolTableRecord
100
AcDbLayerTableRecord
  2
7
 70
     0
 62
     5
  6
Continuous
370
    18
390
F
347
188
348
0
1001
AcAecLayerStandard
1000

1000

  0
ENDTAB
  0
TABLE
  2
STYLE
  5
3
330
0
100
AcDbSymbolTable
 70
     3
  0
STYLE
  5
11
330
3
100
AcDbSymbolTableRecord
100
AcDbTextStyleTableRecord
  2
Standard
 70
     0
 40
0.0
 41
1.0
 50
0.0
 71
     0
 42
0.2
  3
txt
  4

  0
STYLE
  5
189
330
3
100
AcDbSymbolTableRecord
100
AcDbTextStyleTableRecord
  2
BMG_Text
 70
     0
 40
3.5
 41
1.0
 50
0.0
 71
     0
 42
0.2
  3
monos.ttf
  4

1001
ACAD
1000
Monospac821 BT
1071
       49
  0
STYLE
  5
245
330
3
100
AcDbSymbolTableRecord
100
AcDbTextStyleTableRecord
  2
SLDTEXTSTYLE0
 70
     0
 40
0.0
 41
0.605
 50
0.0
 71
     0
 42
0.2
  3
TXT
  4

  0
ENDTAB
  0
TABLE
  2
VIEW
  5
6
330
0
100
AcDbSymbolTable
 70
     0
  0
ENDTAB
  0
TABLE
  2
UCS
  5
7
330
0
100
AcDbSymbolTable
 70
     0
  0
ENDTAB
  0
TABLE
  2
APPID
  5
9
330
0
100
AcDbSymbolTable
 70
     3
  0
APPID
  5
12
330
9
100
AcDbSymbolTableRecord
100
AcDbRegAppTableRecord
  2
ACAD
 70
     0
  0
APPID
  5
240
330
9
100
AcDbSymbolTableRecord
100
AcDbRegAppTableRecord
  2
AcAecLayerStandard
 70
     0
  0
APPID
  5
248
330
9
100
AcDbSymbolTableRecord
100
AcDbRegAppTableRecord
  2
PE_URL
 70
     0
  0
ENDTAB
  0
TABLE
  2
DIMSTYLE
  5
A
330
0
100
AcDbSymbolTable
 70
     6
100
AcDbDimStyleTable
  0
DIMSTYLE
105
28
330
A
100
AcDbSymbolTableRecord
100
AcDbDimStyleTableRecord
  2
Standard
 70
     0
178
     0
340
11
  0
DIMSTYLE
105
241
330
A
100
AcDbSymbolTableRecord
100
AcDbDimStyleTableRecord
  2
Matthias
 70
     0
 41
3.0
 44
2.0
 73
     0
 77
     1
140
3.0
147
2.0
178
     0
340
11
  0
DIMSTYLE
105
243
102
{ACAD_REACTORS
102
}
330
A
100
AcDbSymbolTableRecord
100
AcDbDimStyleTableRecord
  2
ISO-25
 70
     0
 41
2.5
 42
0.625
 43
3.75
 44
1.25
 73
     0
 74
     0
 77
     1
 78
     8
140
2.5
141
2.5
143
0.0393700787
147
0.625
171
     3
172
     1
178
     0
271
     2
272
     2
274
     3
278
    44
283
     0
284
     8
340
11
  0
DIMSTYLE
105
244
330
A
100
AcDbSymbolTableRecord
100
AcDbDimStyleTableRecord
  2
SLDDIMSTYLE0
 70
     0
 41
3.5
 44
0.0
 45
0.000000001
 73
     0
 74
     0
 77
     1
 78
    12
 79
     3
140
3.5
144
0.5
147
0.875
173
     1
178
     0
271
     2
272
     1
276
     2
284
    12
340
245
  0
DIMSTYLE
105
246
330
A
100
AcDbSymbolTableRecord
100
AcDbDimStyleTableRecord
  2
SLDDIMSTYLE1
 70
     0
 41
3.5
 44
0.0
 45
0.000000001
 73
     0
 74
     0
 77
     1
 78
    12
 79
     3
140
3.5
144
0.5
147
0.875
173
     1
178
     0
271
     2
272
     3
276
     2
284
    12
340
245
  0
DIMSTYLE
105
247
330
A
100
AcDbSymbolTableRecord
100
AcDbDimStyleTableRecord
  2
SLDDIMSTYLE2
 70
     0
 41
3.5
 44
0.0
 45
0.000000001
 73
     0
 74
     0
 77
     1
 78
    12
 79
     3
140
3.5
147
0.875
173
     1
178
     0
271
     2
272
     0
276
     2
284
    12
340
245
  0
ENDTAB
  0
TABLE
  2
BLOCK_RECORD
  5
1
330
0
100
AcDbSymbolTable
 70
     1
  0
BLOCK_RECORD
  5
1D
102
{ACAD_XDICTIONARY
360
238
102
}
330
1
100
AcDbSymbolTableRecord
100
AcDbBlockTableRecord
  2
*Model_Space
340
1E
 70
     0
280
     1
281
     0
  0
BLOCK_RECORD
  5
1B
330
1
100
AcDbSymbolTableRecord
100
AcDbBlockTableRecord
  2
*Paper_Space
340
1C
 70
     0
280
     1
281
     0
  0
ENDTAB
  0
ENDSEC
  0
SECTION
  2
BLOCKS
  0
BLOCK
  5
172
330
1D
100
AcDbEntity
  8
0
100
AcDbBlockBegin
  2
*Model_Space
 70
     0
 10
0.0
 20
0.0
 30
0.0
  3
*Model_Space
  1

  0
ENDBLK
  5
173
330
1D
100
AcDbEntity
  8
0
100
AcDbBlockEnd
  0
BLOCK
  5
170
330
1B
100
AcDbEntity
 67
     1
  8
0
100
AcDbBlockBegin
  2
*Paper_Space
 70
     0
 10
0.0
 20
0.0
 30
0.0
  3
*Paper_Space
  1

  0
ENDBLK
  5
171
330
1B
100
AcDbEntity
 67
     1
  8
0
100
AcDbBlockEnd
  0
ENDSEC
  0
SECTION
  2
ENTITIES
  0
LINE
  5
29
330
1D
100
AcDbEntity
  8
SK2
100
AcDbLine
 10
50.39344266194307
 20
-87.499999999
 30
0.0
 11
33.19133713994307
 21
-87.499999999
 31
0.0
  0
LINE
  5
2A
330
1D
100
AcDbEntity
  8
SK2
100
AcDbLine
 10
48.39344266194307
 20
-87.499999999
 30
0.0
 11
47.94344266194308
 21
-83.999999999
 31
0.0
  0
LINE
  5
2B
330
1D
100
AcDbEntity
  8
SK2
100
AcDbLine
 10
47.94344266194308
 20
-83.999999999
 30
0.0
 11
48.84344266194307
 21
-83.999999999
 31
0.0
  0
LINE
  5
2C
330
1D
100
AcDbEntity
  8
SK2
100
AcDbLine
 10
48.84344266194307
 20
-83.999999999
 30
0.0
 11
48.39344266194307
 21
-87.499999999
 31
0.0
  0
LINE
  5
2D
330
1D
100
AcDbEntity
  8
SK2
100
AcDbLine
 10
50.39344266194307
 20
87.499999999
 30
0.0
 11
33.19133713994307
 21
87.499999999
 31
0.0
  0
LINE
  5
2E
330
1D
100
AcDbEntity
  8
SK2
100
AcDbLine
 10
48.39344266194307
 20
87.499999999
 30
0.0
 11
48.84344266194307
 21
83.999999999
 31
0.0
  0
LINE
  5
2F
330
1D
100
AcDbEntity
  8
SK2
100
AcDbLine
 10
48.84344266194307
 20
83.999999999
 30
0.0
 11
47.94344266194308
 21
83.999999999
 31
0.0
  0
LINE
  5
30
330
1D
100
AcDbEntity
  8
SK2
100
AcDbLine
 10
47.94344266194308
 20
83.999999999
 30
0.0
 11
48.39344266194307
 21
87.499999999
 31
0.0
  0
LINE
  5
31
330
1D
100
AcDbEntity
  8
SK2
100
AcDbLine
 10
48.39344266194307
 20
-83.999999999
 30
0.0
 11
48.39344266194307
 21
83.999999999
 31
0.0
  0
TEXT
  5
32
330
1D
100
AcDbEntity
  8
SK2
100
AcDbText
 10
46.89344266194307
 20
-4.899689456000002
 30
0.0
 40
3.5
  1
175
 50
90.0
  7
BMG_Text
100
AcDbText
  0
CIRCLE
  5
33
330
1D
100
AcDbEntity
  8
SK2
100
AcDbCircle
 10
45.64344266194307
 20
-7.149689456000002
 30
0.0
 40
1.25
  0
LINE
  5
34
330
1D
100
AcDbEntity
  8
SK2
100
AcDbLine
 10
46.89344266194307
 20
-8.399689456000003
 30
0.0
 11
44.39344266194307
 21
-5.899689456000002
 31
0.0
  0
TEXT
  5
35
330
1D
100
AcDbEntity
  8
SK2
100
AcDbText
 10
46.89344266194307
 20
1.187498043999998
 30
0.0
 40
3.5
  1
-203
 50
90.0
  7
BMG_Text
100
AcDbText
  0
LINE
  5
36
330
1D
100
AcDbEntity
  8
SK4
100
AcDbLine
 10
38.69226620194307
 20
-0.0000000000000021
 30
0.0
 11
-6.703268099056926
 21
-0.0000000000000021
 31
0.0
  0
TEXT
  5
37
330
1D
100
AcDbEntity
  8
SK6
100
AcDbText
 10
-0.4162470642537421
 20
-101.2758062698022
 30
0.0
 40
3.5
  1
639.587
  7
BMG_Text
100
AcDbText
  0
LINE
  5
38
330
1D
100
AcDbEntity
  8
2
100
AcDbLine
 10
33.99133946394308
 20
97.812168747
 30
0.0
 11
33.99133946394308
 21
86.699999481
 31
0.0
  0
LINE
  5
39
330
1D
100
AcDbEntity
  8
2
100
AcDbLine
 10
33.99133946394308
 20
95.812168747
 30
0.0
 11
30.49133946394307
 21
95.362168747
 31
0.0
  0
LINE
  5
3A
330
1D
100
AcDbEntity
  8
2
100
AcDbLine
 10
30.49133946394307
 20
95.362168747
 30
0.0
 11
30.49133946394307
 21
96.262168747
 31
0.0
  0
LINE
  5
3B
330
1D
100
AcDbEntity
  8
2
100
AcDbLine
 10
30.49133946394307
 20
96.262168747
 30
0.0
 11
33.99133946394308
 21
95.812168747
 31
0.0
  0
LINE
  5
3C
330
1D
100
AcDbEntity
  8
2
100
AcDbLine
 10
-4.618662562056926
 20
95.812168747
 30
0.0
 11
30.49133946394307
 21
95.812168747
 31
0.0
  0
TEXT
  5
3D
330
1D
100
AcDbEntity
  8
2
100
AcDbText
 10
8.373213019943075
 20
97.312168747
 30
0.0
 40
3.5
  1
71 /  117
  7
BMG_Text
100
AcDbText
  0
LINE
  5
3E
330
1D
100
AcDbEntity
  8
1
100
AcDbLine
 10
1.091339934943074
 20
69.999713513
 30
0.0
 11
0.3476751339430741
 21
69.999713513
 31
0.0
  0
LINE
  5
3F
330
1D
100
AcDbEntity
  8
1
100
AcDbLine
 10
8.285290870943074
 20
82.460040289
 30
0.0
 11
1.091339934943074
 21
69.999713513
 31
0.0
  0
LINE
  5
40
330
1D
100
AcDbEntity
  8
1
100
AcDbLine
 10
18.63108792594307
 20
6.568461718999998
 30
0.0
 11
33.64134180094307
 21
32.56698704
 31
0.0
  0
ARC
  5
41
330
1D
100
AcDbEntity
  8
1
100
AcDbCircle
 10
27.29134178894308
 20
1.568463241999998
 30
0.0
 40
10.0
100
AcDbArc
 50
150.0
 51
180.0
  0
LINE
  5
42
330
1D
100
AcDbEntity
  8
3
100
AcDbLine
 10
17.29134221794308
 20
-36.499999401
 30
0.0
 11
17.29134221794308
 21
1.568466486999998
 31
0.0
  0
LINE
  5
43
330
1D
100
AcDbEntity
  8
3
100
AcDbLine
 10
16.29134205394307
 20
-37.500001428
 30
0.0
 11
17.29134221794308
 21
-36.499999401
 31
0.0
  0
LINE
  5
44
330
1D
100
AcDbEntity
  8
3
100
AcDbLine
 10
0.3476751339430741
 20
-37.500001428
 30
0.0
 11
16.29134205394307
 21
-37.500001428
 31
0.0
  0
LINE
  5
45
330
1D
100
AcDbEntity
  8
1
100
AcDbLine
 10
0.3476751339430741
 20
69.999713513
 30
0.0
 11
0.2556418369430741
 21
69.999171483
 31
0.0
  0
LINE
  5
46
330
1D
100
AcDbEntity
  8
1
100
AcDbLine
 10
0.2556418369430741
 20
69.999171483
 30
0.0
 11
0.1394165049430741
 21
69.998659256
 31
0.0
  0
LINE
  5
47
330
1D
100
AcDbEntity
  8
1
100
AcDbLine
 10
-3.158657502056926
 20
69.910943571
 30
0.0
 11
-3.108656656056926
 21
69.961929756
 31
0.0
  0
ARC
  5
48
330
1D
100
AcDbEntity
  8
1
100
AcDbCircle
 10
0.8894179999430741
 20
-136.855517509
 30
0.0
 40
206.855536433
100
AcDbArc
 50
90.207738838
 51
91.10747119
  0
ARC
  5
49
330
1D
100
AcDbEntity
  8
1
100
AcDbCircle
 10
-0.9638054680569258
 20
67.597746371
 30
0.0
 40
3.188770411
100
AcDbArc
 50
133.4962184020001
 51
140.059092732
  0
LINE
  5
4A
330
1D
100
AcDbEntity
  8
1
100
AcDbLine
 10
-3.408658009056926
 20
69.644928041
 30
0.0
 11
-3.400585305056926
 21
37.112926009
 31
0.0
  0
ARC
  5
4B
330
1D
100
AcDbEntity
  8
1
100
AcDbCircle
 10
-0.0421795680569258
 20
34.841001826
 30
0.0
 40
0.437544816
100
AcDbArc
 50
16.96592988600042
 51
65.47852832600012
  0
ARC
  5
4C
330
1D
100
AcDbEntity
  8
1
100
AcDbCircle
 10
-36.19171801005693
 20
-38.847114898
 30
0.0
 40
82.514947519
100
AcDbArc
 50
63.877127221
 51
66.359412689
  0
LINE
  5
4D
330
1D
100
AcDbEntity
  8
1
100
AcDbLine
 10
-3.108656656056926
 20
37.499998572
 30
0.0
 11
16.29134205394307
 21
37.499998572
 31
0.0
  0
LINE
  5
4E
330
1D
100
AcDbEntity
  8
1
100
AcDbLine
 10
17.29134221794308
 20
36.499996546
 30
0.0
 11
16.78514418394307
 21
37.006196442
 31
0.0
  0
LINE
  5
4F
330
1D
100
AcDbEntity
  8
1
100
AcDbLine
 10
16.78514418394307
 20
37.006196442
 30
0.0
 11
16.29134205394307
 21
37.499998572
 31
0.0
  0
LINE
  5
51
330
1D
100
AcDbEntity
  8
1
100
AcDbLine
 10
17.29134221794308
 20
28.635640505
 30
0.0
 11
0.3894170119430742
 21
28.635640505
 31
0.0
  0
ARC
  5
52
330
1D
100
AcDbEntity
  8
1
100
AcDbCircle
 10
-0.2395495890569259
 20
28.668660094
 30
0.0
 40
0.629832738
100
AcDbArc
 50
356.9948357609999
 51
53.008737272
  0
ARC
  5
53
330
1D
100
AcDbEntity
  8
1
100
AcDbCircle
 10
-46.58402285605693
 20
-38.847114898
 30
0.0
 40
82.520555142
100
AcDbArc
 50
55.514082151
 51
58.21732022999998
  0
ARC
  5
54
330
1D
100
AcDbEntity
  8
1
100
AcDbCircle
 10
37.97055400994307
 20
-38.847114898
 30
0.0
 40
82.523358137
100
AcDbArc
 50
117.285807823
 51
119.847317639
  0
ARC
  5
55
330
1D
100
AcDbEntity
  8
1
100
AcDbCircle
 10
-0.0506654540569259
 20
34.895363075
 30
0.0
 40
0.444157081
100
AcDbArc
 50
295.338236634
 51
344.0120342290002
  0
ARC
  5
56
330
1D
100
AcDbEntity
  8
1
100
AcDbCircle
 10
0.0785141449430742
 20
-59.981645393
 30
0.0
 40
0.315168993
100
AcDbArc
 50
281.141761531
 51
350.5621328669999
  0
LINE
  5
57
330
1D
100
AcDbEntity
  8
1
100
AcDbLine
 10
0.3894170119430742
 20
28.635640505
 30
0.0
 11
0.3892147109430741
 21
-60.033326161
 31
0.0
  0
LINE
  5
58
330
1D
100
AcDbEntity
  8
1
100
AcDbLine
 10
17.29134221794308
 20
-1.568469343000002
 30
0.0
 11
17.29134221794308
 21
36.499996546
 31
0.0
  0
ARC
  5
59
330
1D
100
AcDbEntity
  8
1
100
AcDbCircle
 10
27.29134178894308
 20
-1.568466098000002
 30
0.0
 40
10.0
100
AcDbArc
 50
180.0
 51
210.0
  0
LINE
  5
5A
330
1D
100
AcDbEntity
  8
1
100
AcDbLine
 10
28.08881861394308
 20
-22.949735758
 30
0.0
 11
18.63108792594307
 21
-6.568464574000002
 31
0.0
  0
LINE
  5
5B
330
1D
100
AcDbEntity
  8
1
100
AcDbLine
 10
1.091339934943074
 20
-60.033326161
 30
0.0
 11
4.148147377943074
 21
-66.130691332
 31
0.0
  0
LINE
  5
5C
330
1D
100
AcDbEntity
  8
1
100
AcDbLine
 10
4.148147377943074
 20
-66.130691332
 30
0.0
 11
7.257088396943074
 21
-72.202242103
 31
0.0
  0
LINE
  5
5D
330
1D
100
AcDbEntity
  8
1
100
AcDbLine
 10
7.257088396943074
 20
-72.202242103
 30
0.0
 11
8.285290870943074
 21
-74.186917518
 31
0.0
  0
LINE
  5
5E
330
1D
100
AcDbEntity
  8
1
100
AcDbLine
 10
0.3894170119430742
 20
-60.033326161
 30
0.0
 11
1.091339934943074
 21
-60.033326161
 31
0.0
  0
LINE
  5
5F
330
1D
100
AcDbEntity
  8
1
100
AcDbLine
 10
1.091339934943074
 20
-60.033326161
 30
0.0
 11
1.091339934943074
 21
-69.999716368
 31
0.0
  0
LINE
  5
60
330
1D
100
AcDbEntity
  8
1
100
AcDbLine
 10
1.091339934943074
 20
-69.999716368
 30
0.0
 11
0.3476751339430741
 21
-69.999716368
 31
0.0
  0
LINE
  5
61
330
1D
100
AcDbEntity
  8
1
100
AcDbLine
 10
0.3476751339430741
 20
-69.999716368
 30
0.0
 11
0.2556418369430741
 21
-69.999174339
 31
0.0
  0
LINE
  5
62
330
1D
100
AcDbEntity
  8
1
100
AcDbLine
 10
0.2556418369430741
 20
-69.999174339
 30
0.0
 11
0.1394165049430741
 21
-69.998662111
 31
0.0
  0
ARC
  5
63
330
1D
100
AcDbEntity
  8
1
100
AcDbCircle
 10
0.8894179999430741
 20
136.855514654
 30
0.0
 40
206.856087776
100
AcDbArc
 50
268.89252881
 51
269.792261162
  0
ARC
  5
64
330
1D
100
AcDbEntity
  8
1
100
AcDbCircle
 10
-9.502886845056926
 20
136.855514654
 30
0.0
 40
206.856951053
100
AcDbArc
 50
271.7713723480001
 51
272.671696999
  0
LINE
  5
65
330
1D
100
AcDbEntity
  8
1
100
AcDbLine
 10
0.1394165049430741
 20
-69.77828325
 30
0.0
 11
0.2686691769430741
 21
-69.76964989
 31
0.0
  0
LINE
  5
66
330
1D
100
AcDbEntity
  8
1
100
AcDbLine
 10
0.2686691769430741
 20
-69.76964989
 30
0.0
 11
0.3550735599430742
 21
-69.75781278
 31
0.0
  0
LINE
  5
67
330
1D
100
AcDbEntity
  8
1
100
AcDbLine
 10
0.3550735599430742
 20
-69.75781278
 30
0.0
 11
0.3891078119430741
 21
-69.743902546
 31
0.0
  0
LINE
  5
68
330
1D
100
AcDbEntity
  8
1
100
AcDbLine
 10
0.3891078119430741
 20
-69.743902546
 30
0.0
 11
0.3666443119430742
 21
-69.729390678
 31
0.0
  0
LINE
  5
69
330
1D
100
AcDbEntity
  8
1
100
AcDbLine
 10
0.3666443119430742
 20
-69.729390678
 30
0.0
 11
0.2899368589430741
 21
-69.715987083
 31
0.0
  0
LINE
  5
6A
330
1D
100
AcDbEntity
  8
1
100
AcDbLine
 10
0.2899368589430741
 20
-69.715987083
 30
0.0
 11
0.1677585129430741
 21
-69.705403534
 31
0.0
  0
LINE
  5
6B
330
1D
100
AcDbEntity
  8
1
100
AcDbLine
 10
0.1677585129430741
 20
-69.705403534
 30
0.0
 11
0.1394165049430741
 21
-69.703777444
 31
0.0
  0
ARC
  5
6C
330
1D
100
AcDbEntity
  8
1
100
AcDbCircle
 10
11.28172284494307
 20
136.855514654
 30
0.0
 40
206.861854089
100
AcDbArc
 50
266.010987308
 51
266.912320398
  0
ARC
  5
6D
330
1D
100
AcDbEntity
  8
1
100
AcDbCircle
 10
-19.89519169105693
 20
136.855514654
 30
0.0
 40
206.863567009
100
AcDbArc
 50
274.654547167
 51
275.557716197
  0
LINE
  5
6E
330
1D
100
AcDbEntity
  8
1
100
AcDbLine
 10
0.1394165049430741
 20
-69.037706715
 30
0.0
 11
0.2687548589430742
 21
-69.01964837
 31
0.0
  0
LINE
  5
6F
330
1D
100
AcDbEntity
  8
1
100
AcDbLine
 10
0.2687548589430742
 20
-69.01964837
 30
0.0
 11
0.3549245489430741
 21
-68.995266345
 31
0.0
  0
LINE
  5
70
330
1D
100
AcDbEntity
  8
1
100
AcDbLine
 10
0.3549245489430741
 20
-68.995266345
 30
0.0
 11
0.3891040869430741
 21
-68.966844243
 31
0.0
  0
LINE
  5
71
330
1D
100
AcDbEntity
  8
1
100
AcDbLine
 10
0.3891040869430741
 20
-68.966844243
 30
0.0
 11
0.3661898269430742
 21
-68.937380922
 31
0.0
  0
LINE
  5
72
330
1D
100
AcDbEntity
  8
1
100
AcDbLine
 10
0.3661898269430742
 20
-68.937380922
 30
0.0
 11
0.2876979599430742
 21
-68.910478738
 31
0.0
  0
LINE
  5
73
330
1D
100
AcDbEntity
  8
1
100
AcDbLine
 10
0.2876979599430742
 20
-68.910478738
 30
0.0
 11
0.1631242519430741
 21
-68.889641327
 31
0.0
  0
LINE
  5
74
330
1D
100
AcDbEntity
  8
1
100
AcDbLine
 10
0.1631242519430741
 20
-68.889641327
 30
0.0
 11
0.1394165049430741
 21
-68.887011272
 31
0.0
  0
ARC
  5
75
330
1D
100
AcDbEntity
  8
1
100
AcDbCircle
 10
21.67402769094307
 20
136.855514654
 30
0.0
 40
206.867422852
100
AcDbArc
 50
263.119448591
 51
264.024735981
  0
ARC
  5
76
330
1D
100
AcDbEntity
  8
1
100
AcDbCircle
 10
-30.28749653605692
 20
136.855514654
 30
0.0
 40
206.867254261
100
AcDbArc
 50
277.5495173030001
 51
278.458072162
  0
LINE
  5
77
330
1D
100
AcDbEntity
  8
1
100
AcDbLine
 10
0.1394165049430741
 20
-67.759878126
 30
0.0
 11
0.2689187719430742
 21
-67.731927273
 31
0.0
  0
LINE
  5
78
330
1D
100
AcDbEntity
  8
1
100
AcDbLine
 10
0.2689187719430742
 20
-67.731927273
 30
0.0
 11
0.3546898549430741
 21
-67.694592413
 31
0.0
  0
LINE
  5
79
330
1D
100
AcDbEntity
  8
1
100
AcDbLine
 10
0.3546898549430741
 20
-67.694592413
 30
0.0
 11
0.3891040869430741
 21
-67.650846329
 31
0.0
  0
LINE
  5
7A
330
1D
100
AcDbEntity
  8
1
100
AcDbLine
 10
0.3891040869430741
 20
-67.650846329
 30
0.0
 11
0.3653218339430742
 21
-67.605148193
 31
0.0
  0
LINE
  5
7B
330
1D
100
AcDbEntity
  8
1
100
AcDbLine
 10
0.3653218339430742
 20
-67.605148193
 30
0.0
 11
0.2835889649430742
 21
-67.563534838
 31
0.0
  0
LINE
  5
7C
330
1D
100
AcDbEntity
  8
1
100
AcDbLine
 10
0.2835889649430742
 20
-67.563534838
 30
0.0
 11
0.1394165049430741
 21
-67.529431668
 31
0.0
  0
ARC
  5
7D
330
1D
100
AcDbEntity
  8
1
100
AcDbCircle
 10
32.06633253594308
 20
136.855514654
 30
0.0
 40
206.857463975
100
AcDbArc
 50
260.209588912
 51
261.121593957
  0
ARC
  5
7E
330
1D
100
AcDbEntity
  8
1
100
AcDbCircle
 10
-35.27022007705692
 20
106.179148696
 30
0.0
 40
175.702013587
100
AcDbArc
 50
280.54723489
 51
281.626858282
  0
LINE
  5
7F
330
1D
100
AcDbEntity
  8
1
100
AcDbLine
 10
0.1394165049430741
 20
-65.913559061
 30
0.0
 11
0.2691683659430741
 21
-65.874931526
 31
0.0
  0
LINE
  5
80
330
1D
100
AcDbEntity
  8
1
100
AcDbLine
 10
0.2691683659430741
 20
-65.874931526
 30
0.0
 11
0.3543694799430742
 21
-65.823960242
 31
0.0
  0
LINE
  5
81
330
1D
100
AcDbEntity
  8
1
100
AcDbLine
 10
0.3543694799430742
 20
-65.823960242
 30
0.0
 11
0.3891152629430741
 21
-65.76349133
 31
0.0
  0
LINE
  5
82
330
1D
100
AcDbEntity
  8
1
100
AcDbLine
 10
0.3891152629430741
 20
-65.76349133
 30
0.0
 11
0.3639024979430742
 21
-65.699366045
 31
0.0
  0
LINE
  5
83
330
1D
100
AcDbEntity
  8
1
100
AcDbLine
 10
0.3639024979430742
 20
-65.699366045
 30
0.0
 11
0.2770622559430742
 21
-65.64100751
 31
0.0
  0
LINE
  5
84
330
1D
100
AcDbEntity
  8
1
100
AcDbLine
 10
0.2770622559430742
 20
-65.64100751
 30
0.0
 11
0.1394165049430741
 21
-65.597470042
 31
0.0
  0
ARC
  5
85
330
1D
100
AcDbEntity
  8
1
100
AcDbCircle
 10
37.04905607694307
 20
106.179148695
 30
0.0
 40
175.698073168
100
AcDbArc
 50
256.787637759
 51
257.873240652
  0
ARC
  5
86
330
1D
100
AcDbEntity
  8
1
100
AcDbCircle
 10
-45.66252492205693
 20
106.179148696
 30
0.0
 40
175.699943724
100
AcDbArc
 50
284.016200883
 51
285.110300725
  0
LINE
  5
87
330
1D
100
AcDbEntity
  8
1
100
AcDbLine
 10
0.1394165049430741
 20
-63.449139831
 30
0.0
 11
0.2695297189430741
 21
-63.398617444
 31
0.0
  0
LINE
  5
88
330
1D
100
AcDbEntity
  8
1
100
AcDbLine
 10
0.2695297189430741
 20
-63.398617444
 30
0.0
 11
0.3539559729430741
 21
-63.332949889
 31
0.0
  0
LINE
  5
89
330
1D
100
AcDbEntity
  8
1
100
AcDbLine
 10
0.3539559729430741
 20
-63.332949889
 30
0.0
 11
0.3891376149430741
 21
-63.253485721
 31
0.0
  0
LINE
  5
8A
330
1D
100
AcDbEntity
  8
1
100
AcDbLine
 10
0.3891376149430741
 20
-63.253485721
 30
0.0
 11
0.3616896759430742
 21
-63.167411026
 31
0.0
  0
LINE
  5
8B
330
1D
100
AcDbEntity
  8
1
100
AcDbLine
 10
0.3616896759430742
 20
-63.167411026
 30
0.0
 11
0.2671269069430742
 21
-63.089107287
 31
0.0
  0
LINE
  5
8C
330
1D
100
AcDbEntity
  8
1
100
AcDbLine
 10
0.2671269069430742
 20
-63.089107287
 30
0.0
 11
0.1394165049430741
 21
-63.038337168
 31
0.0
  0
ARC
  5
8D
330
1D
100
AcDbEntity
  8
1
100
AcDbCircle
 10
47.44136092194307
 20
106.179148695
 30
0.0
 40
175.705828846
100
AcDbArc
 50
253.279878155
 51
254.382545966
  0
ARC
  5
8E
330
1D
100
AcDbEntity
  8
1
100
AcDbCircle
 10
-49.76704097505693
 20
85.26654901
 30
0.0
 40
153.869807625
100
AcDbArc
 50
287.65188044
 51
288.9250165479999
  0
LINE
  5
8F
330
1D
100
AcDbEntity
  8
1
100
AcDbLine
 10
8.285290870943074
 20
-74.186917518
 30
0.0
 11
8.285290870943074
 21
-82.460043144
 31
0.0
  0
LINE
  5
90
330
1D
100
AcDbEntity
  8
1
100
AcDbLine
 10
8.285290870943074
 20
-82.460043144
 30
0.0
 11
1.091339934943074
 21
-69.999716368
 31
0.0
  0
LINE
  5
91
330
1D
100
AcDbEntity
  8
1
100
AcDbLine
 10
30.08881870894307
 20
-26.413838503
 30
0.0
 11
28.08881861394308
 21
-22.949735758
 31
0.0
  0
LINE
  5
92
330
1D
100
AcDbEntity
  8
1
100
AcDbLine
 10
-3.108656656056926
 20
-61.358527404
 30
0.0
 11
-3.158657502056926
 21
-61.317336869
 31
0.0
  0
LINE
  5
93
330
1D
100
AcDbEntity
  8
1
100
AcDbLine
 10
-3.158657502056926
 20
31.276439193
 30
0.0
 11
-3.108656656056926
 21
31.318825546
 31
0.0
  0
LINE
  5
94
330
1D
100
AcDbEntity
  8
1
100
AcDbLine
 10
30.81666546194307
 20
-27.674506542
 30
0.0
 11
30.81666546194307
 21
-44.499999967
 31
0.0
  0
ARC
  5
95
330
1D
100
AcDbEntity
  8
1
100
AcDbCircle
 10
119.0225058799431
 20
-44.500001428
 30
0.0
 40
88.205840414
100
AcDbArc
 50
180.0
 51
185.344722231
  0
ARC
  5
96
330
1D
100
AcDbEntity
  8
1
100
AcDbCircle
 10
45.58224923894308
 20
-51.37059292
 30
0.0
 40
14.444900054
100
AcDbArc
 50
185.345024151
 51
192.606993773
  0
ARC
  5
97
330
1D
100
AcDbEntity
  8
1
100
AcDbCircle
 10
35.45970800594307
 20
-53.634546332
 30
0.0
 40
4.072276178
100
AcDbArc
 50
192.606993773
 51
207.00288411
  0
ARC
  5
98
330
1D
100
AcDbEntity
  8
1
100
AcDbCircle
 10
31.98069487094308
 20
-55.407413512
 30
0.0
 40
0.167587915
100
AcDbArc
 50
207.0026238010005
 51
332.9973761990005
  0
ARC
  5
9A
330
1D
100
AcDbEntity
  8
1
100
AcDbCircle
 10
28.50168173694307
 20
-53.634546332
 30
0.0
 40
4.072276178
100
AcDbArc
 50
332.99711589
 51
347.3930062269999
  0
ARC
  5
9B
330
1D
100
AcDbEntity
  8
1
100
AcDbCircle
 10
18.37914050294307
 20
-51.37059292
 30
0.0
 40
14.444900054
100
AcDbArc
 50
347.393006227
 51
354.654975849
  0
ARC
  5
9C
330
1D
100
AcDbEntity
  8
1
100
AcDbCircle
 10
-55.06111613705693
 20
-44.500001428
 30
0.0
 40
88.205840414
100
AcDbArc
 50
354.655277769
 51
0.0
  0
LINE
  5
9D
330
1D
100
AcDbEntity
  8
1
100
AcDbLine
 10
33.14472428294307
 20
-44.499999967
 30
0.0
 11
33.14472428294307
 21
-31.706820366
 31
0.0
  0
LINE
  5
9E
330
1D
100
AcDbEntity
  8
1
100
AcDbLine
 10
33.14472428294307
 20
-31.706820366
 30
0.0
 11
33.64134180094307
 21
-32.566989896
 31
0.0
  0
LINE
  5
9F
330
1D
100
AcDbEntity
  8
1
100
AcDbLine
 10
30.08881870894307
 20
-26.413838503
 30
0.0
 11
30.81666546194307
 21
-27.674506542
 31
0.0
  0
LINE
  5
A0
330
1D
100
AcDbEntity
  8
1
100
AcDbLine
 10
-3.158657502056926
 20
-62.026695472
 30
0.0
 11
-3.108656656056926
 21
-62.098103699
 31
0.0
  0
ARC
  5
A1
330
1D
100
AcDbEntity
  8
1
100
AcDbCircle
 10
-2.326922214056926
 20
-61.303038962
 30
0.0
 40
1.102480083
100
AcDbArc
 50
191.1322990219999
 51
221.0251043589999
  0
LINE
  5
A3
330
1D
100
AcDbEntity
  8
1
100
AcDbLine
 10
-3.158657502056926
 20
-61.317336869
 30
0.0
 11
-3.238773595056926
 21
-61.257495669
 31
0.0
  0
LINE
  5
A4
330
1D
100
AcDbEntity
  8
1
100
AcDbLine
 10
-3.238773595056926
 20
-61.257495669
 30
0.0
 11
-3.315678488056926
 21
-61.216454145
 31
0.0
  0
LINE
  5
A5
330
1D
100
AcDbEntity
  8
1
100
AcDbLine
 10
-3.315678488056926
 20
-61.216454145
 30
0.0
 11
-3.374035161056926
 21
-61.208761421
 31
0.0
  0
LINE
  5
A6
330
1D
100
AcDbEntity
  8
1
100
AcDbLine
 10
-3.374035161056926
 20
-61.208761421
 30
0.0
 11
-3.401732694056926
 21
-61.231651467
 31
0.0
  0
LINE
  5
A7
330
1D
100
AcDbEntity
  8
1
100
AcDbLine
 10
-3.401732694056926
 20
-61.231651467
 30
0.0
 11
-3.408658009056926
 21
-61.268822414
 31
0.0
  0
ARC
  5
A9
330
1D
100
AcDbEntity
  8
1
100
AcDbCircle
 10
-1.728399656056926
 20
31.758335666
 30
0.0
 40
1.682915908
100
AcDbArc
 50
148.1974101759999
 51
176.779637838
  0
LINE
  5
AA
330
1D
100
AcDbEntity
  8
1
100
AcDbLine
 10
-3.108656656056926
 20
32.74406946
 30
0.0
 11
-3.158657502056926
 21
32.645222607
 31
0.0
  0
LINE
  5
AB
330
1D
100
AcDbEntity
  8
1
100
AcDbLine
 10
-3.408658009056926
 20
31.373050871
 30
0.0
 11
-3.398771088056926
 21
31.282377306
 31
0.0
  0
LINE
  5
AC
330
1D
100
AcDbEntity
  8
1
100
AcDbLine
 10
-3.398771088056926
 20
31.282377306
 30
0.0
 11
-3.371937822056926
 21
31.22645324799999
 31
0.0
  0
LINE
  5
AD
330
1D
100
AcDbEntity
  8
1
100
AcDbLine
 10
-3.371937822056926
 20
31.22645324799999
 30
0.0
 11
-3.332386415056926
 21
31.201516154
 31
0.0
  0
LINE
  5
AE
330
1D
100
AcDbEntity
  8
1
100
AcDbLine
 10
-3.332386415056926
 20
31.201516154
 30
0.0
 11
-3.277401130056926
 21
31.204585794
 31
0.0
  0
LINE
  5
AF
330
1D
100
AcDbEntity
  8
1
100
AcDbLine
 10
-3.277401130056926
 20
31.204585794
 30
0.0
 11
-3.220661234056926
 21
31.230878892
 31
0.0
  0
LINE
  5
B0
330
1D
100
AcDbEntity
  8
1
100
AcDbLine
 10
-3.220661234056926
 20
31.230878892
 30
0.0
 11
-3.158657502056926
 21
31.276439193
 31
0.0
  0
LINE
  5
B2
330
1D
100
AcDbEntity
  8
1
100
AcDbLine
 10
0.3747505439430742
 20
34.961094025
 30
0.0
 11
0.3886048979430741
 21
34.833435777
 31
0.0
  0
LINE
  5
B3
330
1D
100
AcDbEntity
  8
1
100
AcDbLine
 10
0.3886048979430741
 20
34.833435777
 30
0.0
 11
0.3777903809430742
 21
34.765441778
 31
0.0
  0
LINE
  5
B4
330
1D
100
AcDbEntity
  8
1
100
AcDbLine
 10
-3.108656656056926
 20
-64.289729235
 30
0.0
 11
-3.158657502056926
 21
-64.247722861
 31
0.0
  0
LINE
  5
B5
330
1D
100
AcDbEntity
  8
1
100
AcDbLine
 10
-3.158657502056926
 20
36.690180066
 30
0.0
 11
-3.108656656056926
 21
36.73103905
 31
0.0
  0
LINE
  5
B6
330
1D
100
AcDbEntity
  8
1
100
AcDbLine
 10
-3.158657502056926
 20
-64.802444664
 30
0.0
 11
-3.108656656056926
 21
-64.868128982
 31
0.0
  0
ARC
  5
B7
330
1D
100
AcDbEntity
  8
1
100
AcDbCircle
 10
-2.238820273056926
 20
-63.995675834
 30
0.0
 40
1.223509899
100
AcDbArc
 50
197.0336991710001
 51
221.2532824170002
  0
LINE
  5
B9
330
1D
100
AcDbEntity
  8
1
100
AcDbLine
 10
-3.158657502056926
 20
-64.247722861
 30
0.0
 11
-3.247472148056926
 21
-64.179136542
 31
0.0
  0
LINE
  5
BA
330
1D
100
AcDbEntity
  8
1
100
AcDbLine
 10
-3.247472148056926
 20
-64.179136542
 30
0.0
 11
-3.325896959056926
 21
-64.133373213
 31
0.0
  0
LINE
  5
BB
330
1D
100
AcDbEntity
  8
1
100
AcDbLine
 10
-3.325896959056926
 20
-64.133373213
 30
0.0
 11
-3.382733714056926
 21
-64.121459735
 31
0.0
  0
LINE
  5
BC
330
1D
100
AcDbEntity
  8
1
100
AcDbLine
 10
-3.382733714056926
 20
-64.121459735
 30
0.0
 11
-3.406020503056926
 21
-64.142014024
 31
0.0
  0
LINE
  5
BD
330
1D
100
AcDbEntity
  8
1
100
AcDbLine
 10
-3.406020503056926
 20
-64.142014024
 30
0.0
 11
-3.408658009056926
 21
-64.160942224
 31
0.0
  0
LINE
  5
BF
330
1D
100
AcDbEntity
  8
1
100
AcDbLine
 10
-3.362371277056926
 20
37.246283951
 30
0.0
 11
-3.400585305056926
 21
37.112926009
 31
0.0
  0
LINE
  5
C0
330
1D
100
AcDbEntity
  8
1
100
AcDbLine
 10
-3.400585305056926
 20
37.112926009
 30
0.0
 11
-3.408658009056926
 21
37.038464907
 31
0.0
  0
LINE
  5
C1
330
1D
100
AcDbEntity
  8
1
100
AcDbLine
 10
-3.362371277056926
 20
37.246283951
 30
0.0
 11
-3.108656656056926
 21
37.499998572
 31
0.0
  0
LINE
  5
C2
330
1D
100
AcDbEntity
  8
1
100
AcDbLine
 10
-3.408658009056926
 20
36.701855126
 30
0.0
 11
-3.402820479056926
 21
36.652487579
 31
0.0
  0
LINE
  5
C3
330
1D
100
AcDbEntity
  8
1
100
AcDbLine
 10
-3.402820479056926
 20
36.652487579
 30
0.0
 11
-3.375216078056926
 21
36.609564784
 31
0.0
  0
LINE
  5
C4
330
1D
100
AcDbEntity
  8
1
100
AcDbLine
 10
-3.375216078056926
 20
36.609564784
 30
0.0
 11
-3.331719588056926
 21
36.598910454
 31
0.0
  0
LINE
  5
C5
330
1D
100
AcDbEntity
  8
1
100
AcDbLine
 10
-3.331719588056926
 20
36.598910454
 30
0.0
 11
-3.272830199056926
 21
36.615346435
 31
0.0
  0
LINE
  5
C6
330
1D
100
AcDbEntity
  8
1
100
AcDbLine
 10
-3.272830199056926
 20
36.615346435
 30
0.0
 11
-3.187323611056926
 21
36.667753819
 31
0.0
  0
LINE
  5
C7
330
1D
100
AcDbEntity
  8
1
100
AcDbLine
 10
-3.187323611056926
 20
36.667753819
 30
0.0
 11
-3.158657502056926
 21
36.690180066
 31
0.0
  0
LINE
  5
CA
330
1D
100
AcDbEntity
  8
1
100
AcDbLine
 10
-3.108656656056926
 20
-66.554262427
 30
0.0
 11
-3.158657502056926
 21
-66.511080724
 31
0.0
  0
LINE
  5
CB
330
1D
100
AcDbEntity
  8
1
100
AcDbLine
 10
-3.158657502056926
 20
-66.928339315
 30
0.0
 11
-3.108656656056926
 21
-66.989353982
 31
0.0
  0
ARC
  5
CC
330
1D
100
AcDbEntity
  8
1
100
AcDbCircle
 10
-2.323198869056926
 20
-66.122913982
 30
0.0
 40
1.160474513
100
AcDbArc
 50
200.713937587
 51
223.9514253879999
  0
LINE
  5
CE
330
1D
100
AcDbEntity
  8
1
100
AcDbLine
 10
-3.158657502056926
 20
-66.511080724
 30
0.0
 11
-3.255757194056926
 21
-66.432762084
 31
0.0
  0
LINE
  5
CF
330
1D
100
AcDbEntity
  8
1
100
AcDbLine
 10
-3.255757194056926
 20
-66.432762084
 30
0.0
 11
-3.335053723056926
 21
-66.381435034
 31
0.0
  0
LINE
  5
D0
330
1D
100
AcDbEntity
  8
1
100
AcDbLine
 10
-3.335053723056926
 20
-66.381435034
 30
0.0
 11
-3.389804314056926
 21
-66.364294973
 31
0.0
  0
LINE
  5
D1
330
1D
100
AcDbEntity
  8
1
100
AcDbLine
 10
-3.389804314056926
 20
-66.364294973
 30
0.0
 11
-3.408196073056926
 21
-66.381733057
 31
0.0
  0
LINE
  5
D2
330
1D
100
AcDbEntity
  8
1
100
AcDbLine
 10
-3.408196073056926
 20
-66.381733057
 30
0.0
 11
-3.408658009056926
 21
-66.388134968
 31
0.0
  0
LINE
  5
D4
330
1D
100
AcDbEntity
  8
1
100
AcDbLine
 10
-3.108656656056926
 20
-68.218548906
 30
0.0
 11
-3.158657502056926
 21
-68.173880813
 31
0.0
  0
LINE
  5
D5
330
1D
100
AcDbEntity
  8
1
100
AcDbLine
 10
-3.158657502056926
 20
-68.464945194
 30
0.0
 11
-3.108656656056926
 21
-68.522063208
 31
0.0
  0
ARC
  5
D6
330
1D
100
AcDbEntity
  8
1
100
AcDbCircle
 10
-2.380636650056926
 20
-67.642081818
 30
0.0
 40
1.132440101
100
AcDbArc
 50
204.7978602199999
 51
226.6044981400002
  0
LINE
  5
D8
330
1D
100
AcDbEntity
  8
1
100
AcDbLine
 10
-3.158657502056926
 20
-68.173880813
 30
0.0
 11
-3.263747941056926
 21
-68.084637758
 31
0.0
  0
LINE
  5
D9
330
1D
100
AcDbEntity
  8
1
100
AcDbLine
 10
-3.263747941056926
 20
-68.084637758
 30
0.0
 11
-3.343361120056926
 21
-68.026931149
 31
0.0
  0
LINE
  5
DA
330
1D
100
AcDbEntity
  8
1
100
AcDbLine
 10
-3.343361120056926
 20
-68.026931149
 30
0.0
 11
-3.389655303056926
 21
-68.00451794
 31
0.0
  0
LINE
  5
DB
330
1D
100
AcDbEntity
  8
1
100
AcDbLine
 10
-3.389655303056926
 20
-68.00451794
 30
0.0
 11
-3.408400964056926
 21
-68.012417418
 31
0.0
  0
LINE
  5
DC
330
1D
100
AcDbEntity
  8
1
100
AcDbLine
 10
-3.408400964056926
 20
-68.012417418
 30
0.0
 11
-3.408658009056926
 21
-68.015751553
 31
0.0
  0
LINE
  5
DE
330
1D
100
AcDbEntity
  8
1
100
AcDbLine
 10
-3.108656656056926
 20
-69.325831843
 30
0.0
 11
-3.158657502056926
 21
-69.279377473
 31
0.0
  0
ARC
  5
DF
330
1D
100
AcDbEntity
  8
1
100
AcDbCircle
 10
-3.648557712056926
 20
-69.654970954
 30
0.0
 40
0.617310845
100
AcDbArc
 50
37.47642411700009
 51
67.13130443199991
  0
LINE
  5
E1
330
1D
100
AcDbEntity
  8
1
100
AcDbLine
 10
-3.158657502056926
 20
-69.451381576
 30
0.0
 11
-3.108656656056926
 21
-69.50519712
 31
0.0
  0
ARC
  5
E2
330
1D
100
AcDbEntity
  8
1
100
AcDbCircle
 10
-2.219626054056926
 20
-68.427536265
 30
0.0
 40
1.389258537
100
AcDbArc
 50
211.143439821
 51
227.474152025
  0
LINE
  5
E4
330
1D
100
AcDbEntity
  8
1
100
AcDbLine
 10
-3.108656656056926
 20
-69.902585012
 30
0.0
 11
-3.158657502056926
 21
-69.854035166
 31
0.0
  0
LINE
  5
E5
330
1D
100
AcDbEntity
  8
1
100
AcDbLine
 10
30.81666546194307
 20
-27.674506542
 30
0.0
 11
33.14472428294307
 21
-31.706820366
 31
0.0
  0
LINE
  5
E6
330
1D
100
AcDbEntity
  8
1
100
AcDbLine
 10
-3.158657502056926
 20
-69.910946426
 30
0.0
 11
-3.108656656056926
 21
-69.961932612
 31
0.0
  0
ARC
  5
E7
330
1D
100
AcDbEntity
  8
1
100
AcDbCircle
 10
-0.9638054680569258
 20
-67.597749227
 30
0.0
 40
3.188770411
100
AcDbArc
 50
219.9409072680001
 51
226.5037815979999
  0
LINE
  5
E8
330
1D
100
AcDbEntity
  8
1
100
AcDbLine
 10
-3.408658009056926
 20
37.038464907
 30
0.0
 11
-3.408658009056926
 21
-69.644930896
 31
0.0
  0
ARC
  5
E9
330
1D
100
AcDbEntity
  8
1
100
AcDbCircle
 10
-4.561717593056926
 20
-71.135407168
 30
0.0
 40
1.900129424
100
AcDbArc
 50
42.40449978400004
 51
52.63920390400011
  0
LINE
  5
EB
330
1D
100
AcDbEntity
  8
1
100
AcDbLine
 10
18.11634128194308
 20
84.149534645
 30
0.0
 11
17.41536830794307
 21
84.025933704
 31
0.0
  0
LINE
  5
EC
330
1D
100
AcDbEntity
  8
1
100
AcDbLine
 10
17.41536830794307
 20
84.025933704
 30
0.0
 11
8.257014054943074
 21
82.411063899
 31
0.0
  0
ARC
  5
ED
330
1D
100
AcDbEntity
  8
1
100
AcDbCircle
 10
25.80284178894307
 20
77.894857304
 30
0.0
 40
8.0
100
AcDbArc
 50
163.906890996
 51
196.0931090040001
  0
ARC
  5
EE
330
1D
100
AcDbEntity
  8
1
100
AcDbCircle
 10
19.06098220494307
 20
69.994857304
 30
0.0
 40
2.6
100
AcDbArc
 50
139.5394113530001
 51
319.5394113529998
  0
LINE
  5
EF
330
1D
100
AcDbEntity
  8
1
100
AcDbLine
 10
21.98487364894308
 20
69.416439225
 30
0.0
 11
21.03919846194307
 21
68.307653134
 31
0.0
  0
ARC
  5
F0
330
1D
100
AcDbEntity
  8
1
100
AcDbCircle
 10
25.80284178894307
 20
77.894857304
 30
0.0
 40
8.0
100
AcDbArc
 50
263.910202961
 51
296.089797039
  0
LINE
  5
F1
330
1D
100
AcDbEntity
  8
1
100
AcDbLine
 10
33.69134177394308
 20
71.551034291
 30
0.0
 11
33.63899760394307
 21
71.541756456
 31
0.0
  0
LINE
  5
F2
330
1D
100
AcDbEntity
  8
1
100
AcDbLine
 10
33.69134177394308
 20
32.653588866
 30
0.0
 11
33.69134177394308
 21
71.551034291
 31
0.0
  0
LINE
  5
F3
330
1D
100
AcDbEntity
  8
1
100
AcDbLine
 10
17.08276507694307
 20
71.682062064
 30
0.0
 11
18.11634128194308
 21
72.893911106
 31
0.0
  0
LINE
  5
F4
330
1D
100
AcDbEntity
  8
1
100
AcDbLine
 10
33.69134177394308
 20
71.551034291
 30
0.0
 11
33.67415849394307
 21
71.566905891
 31
0.0
  0
ARC
  5
F6
330
1D
100
AcDbEntity
  8
1
100
AcDbCircle
 10
18.91634178894308
 20
84.182930922
 30
0.0
 40
0.8
100
AcDbArc
 50
100.0000000000001
 51
180.0
  0
LINE
  5
F7
330
1D
100
AcDbEntity
  8
1
100
AcDbLine
 10
33.05242323094308
 20
87.487844774
 30
0.0
 11
18.77742291594307
 21
84.97077722
 31
0.0
  0
ARC
  5
F8
330
1D
100
AcDbEntity
  8
1
100
AcDbCircle
 10
33.19134178894308
 20
86.699998571
 30
0.0
 40
0.8
100
AcDbArc
 50
0.0
 51
100.0000000000006
  0
LINE
  5
F9
330
1D
100
AcDbEntity
  8
1
100
AcDbLine
 10
33.99134178894307
 20
72.204783623
 30
0.0
 11
33.99134178894307
 21
86.699998594
 31
0.0
  0
ARC
  5
FA
330
1D
100
AcDbEntity
  8
1
100
AcDbCircle
 10
33.19134178894308
 20
72.204783687
 30
0.0
 40
0.8
100
AcDbArc
 50
279.9999999999995
 51
0.0
  0
ARC
  5
FB
330
1D
100
AcDbEntity
  8
1
100
AcDbCircle
 10
18.91634178894308
 20
69.687716037
 30
0.0
 40
0.8
100
AcDbArc
 50
180.0
 51
280.0000000000001
  0
ARC
  5
FF
330
1D
100
AcDbEntity
  8
1
100
AcDbCircle
 10
24.80458560494307
 20
76.165826875
 30
0.0
 40
0.7
100
AcDbArc
 50
3.384161805999646
 51
116.6158381939999
  0
ARC
  5
100
330
1D
100
AcDbEntity
  8
1
100
AcDbCircle
 10
25.80284178894307
 20
76.224857304
 30
0.0
 40
0.3
100
AcDbArc
 50
183.3841618060004
 51
356.6158381939996
  0
ARC
  5
101
330
1D
100
AcDbEntity
  8
1
100
AcDbCircle
 10
26.80109797194308
 20
76.165826875
 30
0.0
 40
0.7
100
AcDbArc
 50
63.38416180600031
 51
176.6158381940004
  0
ARC
  5
102
330
1D
100
AcDbEntity
  8
1
100
AcDbCircle
 10
27.24910421294307
 20
77.059857304
 30
0.0
 40
0.3
100
AcDbArc
 50
243.3841618059994
 51
56.61583819399915
  0
ARC
  5
105
330
1D
100
AcDbEntity
  8
1
100
AcDbCircle
 10
23.80632942094308
 20
77.894857304
 30
0.0
 40
0.7
100
AcDbArc
 50
303.3841618060002
 51
56.6158381939998
  0
ARC
  5
106
330
1D
100
AcDbEntity
  8
1
100
AcDbCircle
 10
24.35657936394307
 20
77.059857304
 30
0.0
 40
0.3
100
AcDbArc
 50
123.3841618060009
 51
296.6158381940006
  0
ARC
  5
107
330
1D
100
AcDbEntity
  8
1
100
AcDbCircle
 10
27.79935415594307
 20
77.894857304
 30
0.0
 40
0.7
100
AcDbArc
 50
123.3841618060002
 51
236.6158381939998
  0
ARC
  5
108
330
1D
100
AcDbEntity
  8
1
100
AcDbCircle
 10
27.24910421294307
 20
78.729857304
 30
0.0
 40
0.3
100
AcDbArc
 50
303.3841618060009
 51
116.6158381940006
  0
ARC
  5
10A
330
1D
100
AcDbEntity
  8
1
100
AcDbCircle
 10
26.80109797194308
 20
79.623887733
 30
0.0
 40
0.7
100
AcDbArc
 50
183.3841618059996
 51
296.6158381939997
  0
ARC
  5
10B
330
1D
100
AcDbEntity
  8
1
100
AcDbCircle
 10
25.80284178894307
 20
79.564857304
 30
0.0
 40
0.3
100
AcDbArc
 50
3.384161806000438
 51
176.6158381939996
  0
ARC
  5
10E
330
1D
100
AcDbEntity
  8
1
100
AcDbCircle
 10
24.80458560494307
 20
79.623887733
 30
0.0
 40
0.7
100
AcDbArc
 50
243.3841618060001
 51
356.6158381940003
  0
ARC
  5
10F
330
1D
100
AcDbEntity
  8
1
100
AcDbCircle
 10
24.35657936394307
 20
78.729857304
 30
0.0
 40
0.3
100
AcDbArc
 50
63.38416180599944
 51
236.6158381939991
  0
LINE
  5
110
330
1D
100
AcDbEntity
  8
1
100
AcDbLine
 10
18.35104947194307
 20
-84.080515555
 30
0.0
 11
18.46280818094307
 21
-84.100259361
 31
0.0
  0
LINE
  5
111
330
1D
100
AcDbEntity
  8
1
100
AcDbLine
 10
18.46280818094307
 20
-84.100259361
 30
0.0
 11
32.22690204394307
 21
-86.531745221
 31
0.0
  0
LINE
  5
112
330
1D
100
AcDbEntity
  8
1
100
AcDbLine
 10
18.35104947194307
 20
-84.224005588
 30
0.0
 11
18.35104947194307
 21
-84.080515555
 31
0.0
  0
ARC
  5
113
330
1D
100
AcDbEntity
  8
1
100
AcDbCircle
 10
18.35018268694308
 20
-82.904773836
 30
0.0
 40
1.317036658
100
AcDbArc
 50
262.5820819850001
 51
270.0
  0
LINE
  5
114
330
1D
100
AcDbEntity
  8
1
100
AcDbLine
 10
18.18014619194307
 20
-84.210788025
 30
0.0
 11
17.32190822494307
 21
-84.059456955
 31
0.0
  0
LINE
  5
115
330
1D
100
AcDbEntity
  8
1
100
AcDbLine
 10
17.32190822494307
 20
-84.059456955
 30
0.0
 11
8.066485944943075
 21
-82.427471536
 31
0.0
  0
LINE
  5
116
330
1D
100
AcDbEntity
  8
1
100
AcDbLine
 10
8.285290870943074
 20
-74.196472996
 30
0.0
 11
28.13881852894307
 21
-78.066167547
 31
0.0
  0
ARC
  5
117
330
1D
100
AcDbEntity
  8
1
100
AcDbCircle
 10
80.67854844494308
 20
2.143888773999998
 30
0.0
 40
95.885746109
100
AcDbArc
 50
236.774129964
 51
237.4739601479999
  0
LINE
  5
118
330
1D
100
AcDbEntity
  8
1
100
AcDbLine
 10
28.13881852894307
 20
-23.036341308
 30
0.0
 11
28.13881852894307
 21
-78.066167547
 31
0.0
  0
LINE
  5
119
330
1D
100
AcDbEntity
  8
1
100
AcDbLine
 10
30.13881862394307
 20
-26.500440328
 30
0.0
 11
30.13881862394307
 21
-78.340344257
 31
0.0
  0
LINE
  5
11A
330
1D
100
AcDbEntity
  8
1
100
AcDbLine
 10
30.13881862394307
 20
-78.340344257
 30
0.0
 11
30.12103664894308
 21
-78.505194871
 31
0.0
  0
LINE
  5
11B
330
1D
100
AcDbEntity
  8
1
100
AcDbLine
 10
30.12103664894308
 20
-78.505194871
 30
0.0
 11
30.06466415894307
 21
-78.652596227
 31
0.0
  0
LINE
  5
11C
330
1D
100
AcDbEntity
  8
1
100
AcDbLine
 10
30.06466415894307
 20
-78.652596227
 30
0.0
 11
29.98293501494307
 21
-78.756998419
 31
0.0
  0
LINE
  5
11D
330
1D
100
AcDbEntity
  8
1
100
AcDbLine
 10
29.98293501494307
 20
-78.756998419
 30
0.0
 11
29.84056932094308
 21
-78.845403283
 31
0.0
  0
LINE
  5
11E
330
1D
100
AcDbEntity
  8
1
100
AcDbLine
 10
29.84056932094308
 20
-78.845403283
 30
0.0
 11
29.60229090594308
 21
-78.87700492
 31
0.0
  0
LINE
  5
11F
330
1D
100
AcDbEntity
  8
1
100
AcDbLine
 10
29.60229090594308
 20
-78.87700492
 30
0.0
 11
29.21321460294308
 21
-78.755409582
 31
0.0
  0
LINE
  5
120
330
1D
100
AcDbEntity
  8
1
100
AcDbLine
 10
29.21321460294308
 20
-78.755409582
 30
0.0
 11
29.12231565694307
 21
-78.702080189
 31
0.0
  0
ARC
  5
121
330
1D
100
AcDbEntity
  8
1
100
AcDbCircle
 10
32.36372181894308
 20
-85.741066701
 30
0.0
 40
0.802110027
100
AcDbArc
 50
260.1787578599996
 51
359.4866128480002
  0
LINE
  5
122
330
1D
100
AcDbEntity
  8
1
100
AcDbLine
 10
33.69134177394308
 20
-32.653591721
 30
0.0
 11
33.69134177394308
 21
-71.551037147
 31
0.0
  0
LINE
  5
123
330
1D
100
AcDbEntity
  8
1
100
AcDbLine
 10
33.69134177394308
 20
-71.551037147
 30
0.0
 11
33.53368542294308
 21
-71.69666247
 31
0.0
  0
LINE
  5
124
330
1D
100
AcDbEntity
  8
1
100
AcDbLine
 10
33.16582060194307
 20
-71.631466164
 30
0.0
 11
33.53368542294308
 21
-71.69666247
 31
0.0
  0
LINE
  5
125
330
1D
100
AcDbEntity
  8
1
100
AcDbLine
 10
33.16582060194307
 20
-85.742464647
 30
0.0
 11
33.16582060194307
 21
-71.631466164
 31
0.0
  0
LINE
  5
126
330
1D
100
AcDbEntity
  8
1
100
AcDbLine
 10
33.16582060194307
 20
-85.742464647
 30
0.0
 11
33.16579964694307
 21
-85.748253749
 31
0.0
  0
ARC
  5
127
330
1D
100
AcDbEntity
  8
1
100
AcDbCircle
 10
32.36526227794307
 20
-85.743233543
 30
0.0
 40
0.800558693
100
AcDbArc
 50
260.0476213780002
 51
0.055029678000503
  0
ARC
  5
128
330
1D
100
AcDbEntity
  8
CUT
100
AcDbCircle
 10
33.19134178894308
 20
-72.204786542
 30
0.0
 40
0.8
100
AcDbArc
 50
0.0
 51
52.87751962799975
  0
ARC
  5
129
330
1D
100
AcDbEntity
  8
CUT
100
AcDbCircle
 10
33.19134178894308
 20
-72.204786542
 30
0.0
 40
0.117317841
100
AcDbArc
 50
0.0
 51
80.00000000000334
  0
LINE
  5
12A
330
1D
100
AcDbEntity
  8
CUT
100
AcDbLine
 10
33.99134178894307
 20
-72.204786478
 30
0.0
 11
33.99134178894307
 21
-86.70000145
 31
0.0
  0
LINE
  5
12B
330
1D
100
AcDbEntity
  8
CUT
100
AcDbLine
 10
33.30865963994307
 20
-86.70000145
 30
0.0
 11
33.30865963994307
 21
-72.204786478
 31
0.0
  0
LINE
  5
12C
330
1D
100
AcDbEntity
  8
CUT
100
AcDbLine
 10
33.05242323094308
 20
-87.487847629
 30
0.0
 11
18.77742291594307
 21
-84.970780075
 31
0.0
  0
LINE
  5
12D
330
1D
100
AcDbEntity
  8
CUT
100
AcDbLine
 10
18.89597003594307
 20
-84.298469252
 30
0.0
 11
33.17096976794308
 21
-86.815536963
 31
0.0
  0
ARC
  5
12E
330
1D
100
AcDbEntity
  8
CUT
100
AcDbCircle
 10
33.19134178894308
 20
-86.700001427
 30
0.0
 40
0.8
100
AcDbArc
 50
259.9999999999994
 51
0.0
  0
ARC
  5
12F
330
1D
100
AcDbEntity
  8
CUT
100
AcDbCircle
 10
33.19134178894308
 20
-86.700001427
 30
0.0
 40
0.117317841
100
AcDbArc
 50
259.9999999999965
 51
0.0
  0
ARC
  5
130
330
1D
100
AcDbEntity
  8
CUT
100
AcDbCircle
 10
18.91634178894308
 20
-84.182933777
 30
0.0
 40
0.8
100
AcDbArc
 50
181.2175923710005
 51
259.9999999999999
  0
ARC
  5
131
330
1D
100
AcDbEntity
  8
CUT
100
AcDbCircle
 10
18.91634178894308
 20
-84.182933777
 30
0.0
 40
0.117317841
100
AcDbArc
 50
180.0
 51
259.9999999999999
  0
LINE
  5
132
330
1D
100
AcDbEntity
  8
1
100
AcDbLine
 10
18.79902401194308
 20
-84.159653294
 30
0.0
 11
18.79902401194308
 21
-84.182933797
 31
0.0
  0
LINE
  5
133
330
1D
100
AcDbEntity
  8
1
100
AcDbLine
 10
33.21171379194307
 20
-72.089251256
 30
0.0
 11
33.16582060194307
 21
-72.081158994
 31
0.0
  0
LINE
  5
134
330
1D
100
AcDbEntity
  8
1
100
AcDbLine
 10
32.22690204394307
 20
-86.531421586
 30
0.0
 11
32.06178355694307
 21
-86.392250038
 31
0.0
  0
LINE
  5
135
330
1D
100
AcDbEntity
  8
1
100
AcDbLine
 10
32.06178355694307
 20
-86.392250038
 30
0.0
 11
31.73242051394307
 21
-86.026772749
 31
0.0
  0
LINE
  5
136
330
1D
100
AcDbEntity
  8
1
100
AcDbLine
 10
31.73242051394307
 20
-86.026772749
 30
0.0
 11
31.40422546494307
 21
-85.544860116
 31
0.0
  0
LINE
  5
137
330
1D
100
AcDbEntity
  8
1
100
AcDbLine
 10
31.40422546494307
 20
-85.544860116
 30
0.0
 11
31.01559945594308
 21
-84.819289748
 31
0.0
  0
LINE
  5
138
330
1D
100
AcDbEntity
  8
1
100
AcDbLine
 10
31.01559945594308
 20
-84.819289748
 30
0.0
 11
30.63043610394308
 21
-83.930669012
 31
0.0
  0
LINE
  5
139
330
1D
100
AcDbEntity
  8
1
100
AcDbLine
 10
30.63043610394308
 20
-83.930669012
 30
0.0
 11
30.24983273994307
 21
-82.881473596
 31
0.0
  0
LINE
  5
13A
330
1D
100
AcDbEntity
  8
1
100
AcDbLine
 10
30.24983273994307
 20
-82.881473596
 30
0.0
 11
29.86776999394307
 21
-81.650052811
 31
0.0
  0
LINE
  5
13B
330
1D
100
AcDbEntity
  8
1
100
AcDbLine
 10
29.86776999394307
 20
-81.650052811
 30
0.0
 11
29.49155944594307
 21
-80.255574672
 31
0.0
  0
LINE
  5
13C
330
1D
100
AcDbEntity
  8
1
100
AcDbLine
 10
29.49155944594307
 20
-80.255574672
 30
0.0
 11
29.12231565694307
 21
-78.702080189
 31
0.0
  0
LINE
  5
13D
330
1D
100
AcDbEntity
  8
1
100
AcDbLine
 10
32.22690204394307
 20
-86.531421586
 30
0.0
 11
32.22690204394307
 21
-86.531745221
 31
0.0
  0
ARC
  5
13E
330
1D
100
AcDbEntity
  8
1
100
AcDbCircle
 10
175.2844659189431
 20
-47.384009892
 30
0.0
 40
148.410085729
100
AcDbArc
 50
192.039527928
 51
192.474884001
  0
ARC
  5
13F
330
1D
100
AcDbEntity
  8
1
100
AcDbCircle
 10
53.19273440694307
 20
-74.394770662
 30
0.0
 40
23.339494833
100
AcDbArc
 50
192.475314839
 51
202.812008309
  0
ARC
  5
140
330
1D
100
AcDbEntity
  8
1
100
AcDbCircle
 10
39.61252446794308
 20
-80.106714703
 30
0.0
 40
8.606932032
100
AcDbArc
 50
202.8120083089999
 51
219.574065791
  0
ARC
  5
141
330
1D
100
AcDbEntity
  8
1
100
AcDbCircle
 10
33.87113902194308
 20
-84.852020288
 30
0.0
 40
1.158346129
100
AcDbArc
 50
219.5742891519997
 51
231.7971096090002
  0
LINE
  5
142
330
1D
100
AcDbEntity
  8
CUT
100
AcDbLine
 10
33.21171379194307
 20
-72.089251256
 30
0.0
 11
33.28859679894308
 21
-71.653225585
 31
0.0
  0
LINE
  5
143
330
1D
100
AcDbEntity
  8
CUT
100
AcDbLine
 10
33.30865963994307
 20
-72.204786478
 30
0.0
 11
33.99134178894307
 21
-72.204786478
 31
0.0
  0
LINE
  5
144
330
1D
100
AcDbEntity
  8
CUT
100
AcDbLine
 10
33.30865963994307
 20
-86.70000145
 30
0.0
 11
33.99134178894307
 21
-86.70000145
 31
0.0
  0
LINE
  5
145
330
1D
100
AcDbEntity
  8
CUT
100
AcDbLine
 10
33.17096976794308
 20
-86.815536963
 30
0.0
 11
33.05242323094308
 21
-87.487847629
 31
0.0
  0
LINE
  5
146
330
1D
100
AcDbEntity
  8
CUT
100
AcDbLine
 10
18.89597003594307
 20
-84.298469252
 30
0.0
 11
18.77742291594307
 21
-84.970780075
 31
0.0
  0
LINE
  5
147
330
1D
100
AcDbEntity
  8
CUT
100
AcDbLine
 10
18.79902401194308
 20
-84.182933797
 30
0.0
 11
18.35104947194307
 21
-84.182933797
 31
0.0
  0
LINE
  5
1E3
330
1D
100
AcDbEntity
  8
1
100
AcDbLine
 10
18.11634128194308
 20
72.893911106
 30
0.0
 11
18.11634128194308
 21
75.68032127753678
 31
0.0
  0
LINE
  5
1E5
330
1D
100
AcDbEntity
  8
3
100
AcDbLine
 10
18.11634178894307
 20
84.182930922
 30
0.0
 11
33.25778802798047
 21
86.91792523050867
 31
0.0
  0
LINE
  5
1E6
330
1D
100
AcDbEntity
  8
3
100
AcDbLine
 10
33.25778802798047
 20
86.91792523050867
 30
0.0
 11
33.25778802798047
 21
71.40415866219834
 31
0.0
  0
LINE
  5
1EA
330
1D
100
AcDbEntity
  8
1
100
AcDbLine
 10
18.11634178894307
 20
69.687716037
 30
0.0
 11
18.11634178894307
 21
84.182930922
 31
0.0
  0
LINE
  5
1EC
330
1D
100
AcDbEntity
  8
1
100
AcDbLine
 10
19.05526033107662
 20
68.89986983459023
 30
0.0
 11
33.33026033107662
 21
71.41693748459024
 31
0.0
  0
LINE
  5
1F1
330
1D
100
AcDbEntity
  8
NOCUT
100
AcDbLine
 10
17.29134221794308
 20
-0.0000000000000021
 30
0.0
 11
0.0
 21
0.0
 31
0.0
  0
LINE
  5
1F2
330
1D
100
AcDbEntity
  8
NOCUT
100
AcDbLine
 10
0.0
 20
0.0
 30
0.0
 11
0.0000000000000043
 21
70.13399286308606
 31
0.0
  0
LINE
  5
1F3
330
1D
100
AcDbEntity
  8
NOCUT
100
AcDbLine
 10
0.0000000000000043
 20
69.99810679718797
 30
0.0
 11
1.079493565541656
 21
69.99810679718797
 31
0.0
  0
LINE
  5
1F4
330
1D
100
AcDbEntity
  8
NOCUT
100
AcDbLine
 10
1.079493565541656
 20
69.99810679718797
 30
0.0
 11
8.285290870943074
 21
82.460040289
 31
0.0
  0
LINE
  5
1F5
330
1D
100
AcDbEntity
  8
NOCUT
100
AcDbLine
 10
8.257014054943074
 20
82.411063899
 30
0.0
 11
18.11634128194308
 21
84.149534645
 31
0.0
  0
ARC
  5
1F6
330
1D
100
AcDbEntity
  8
NOCUT
100
AcDbCircle
 10
18.91634211292041
 20
84.18293080408188
 30
0.0
 40
0.8000003239773433
100
AcDbArc
 50
100.0000435318766
 51
179.9999915547402
  0
LINE
  5
1FB
330
1D
100
AcDbEntity
  8
NOCUT
100
AcDbLine
 10
33.69134177394308
 20
71.551034291
 30
0.0
 11
33.69134177394308
 21
32.653588866
 31
0.0
  0
LINE
  5
1FC
330
1D
100
AcDbEntity
  8
NOCUT
100
AcDbLine
 10
33.69134177394308
 20
32.653588866
 30
0.0
 11
18.63108792594307
 21
6.568461718999998
 31
0.0
  0
ARC
  5
1FD
330
1D
100
AcDbEntity
  8
NOCUT
100
AcDbCircle
 10
27.29132252680409
 20
1.568467435437407
 30
0.0
 40
9.999980308861062
100
AcDbArc
 50
149.9999726818247
 51
180.0000054341567
  0
LINE
  5
1FE
330
1D
100
AcDbEntity
  8
NOCUT
100
AcDbLine
 10
17.29134178894308
 20
1.568463241999999
 30
0.0
 11
17.29134178894308
 21
0.0029106261848218
 31
0.0
  0
LWPOLYLINE
  5
205
330
1D
100
AcDbEntity
  8
INFTOTAL
100
AcDbPolyline
 90
        4
 70
     1
 43
0.0
 10
-24.69293148531736
 20
108.9820386900002
 10
-24.69293148531736
 20
-121.7605543642362
 10
85.04722585541832
 20
-121.7605543642362
 10
85.04722585541832
 20
108.9820386900002
  0
ARC
  5
226
330
1D
100
AcDbEntity
  8
CUT
100
AcDbCircle
 10
18.91634178894308
 20
84.182930922
 30
0.0
 40
0.8
100
AcDbArc
 50
99.99999999999959
 51
180.0
  0
LINE
  5
227
330
1D
100
AcDbEntity
  8
CUT
100
AcDbLine
 10
33.05242323094308
 20
87.487844774
 30
0.0
 11
18.77742291594308
 21
84.97077722
 31
0.0
  0
ARC
  5
228
330
1D
100
AcDbEntity
  8
CUT
100
AcDbCircle
 10
33.19134178894308
 20
86.699998571
 30
0.0
 40
0.8
100
AcDbArc
 50
0.0
 51
100.0000000000006
  0
LINE
  5
229
330
1D
100
AcDbEntity
  8
CUT
100
AcDbLine
 10
33.99134178894307
 20
72.204783623
 30
0.0
 11
33.99134178894307
 21
86.699998594
 31
0.0
  0
ARC
  5
22A
330
1D
100
AcDbEntity
  8
CUT
100
AcDbCircle
 10
33.19134178894308
 20
72.204783687
 30
0.0
 40
0.8
100
AcDbArc
 50
280.0000000000006
 51
0.0
  0
ARC
  5
22B
330
1D
100
AcDbEntity
  8
CUT
100
AcDbCircle
 10
18.91634178894308
 20
69.687716037
 30
0.0
 40
0.8
100
AcDbArc
 50
180.0
 51
280.0000000000006
  0
CIRCLE
  5
22C
330
1D
100
AcDbEntity
  8
1
100
AcDbCircle
 10
25.80284178894309
 20
77.894857304
 30
0.0
 40
3.797167001
  0
LINE
  5
22E
330
1D
100
AcDbEntity
  8
CUT
100
AcDbLine
 10
18.11634178894308
 20
69.687716037
 30
0.0
 11
18.11634178894308
 21
84.182930922
 31
0.0
  0
LINE
  5
22F
330
1D
100
AcDbEntity
  8
CUT
100
AcDbLine
 10
19.05526033107663
 20
68.89986983459023
 30
0.0
 11
33.33026033107663
 21
71.41693748459024
 31
0.0
  0
HATCH
  5
23A
330
1D
100
AcDbEntity
  8
7
100
AcDbHatch
 10
0.0
 20
0.0
 30
0.0
210
0.0
220
0.0
230
1.0
  2
ANSI37
 70
     0
 71
     0
 91
        2
 92
        7
 72
     1
 73
     1
 93
        8
 10
33.99134178894307
 20
72.204783671
 42
0.0
 10
33.99134178894307
 20
86.69999857674999
 42
0.466307656763304
 10
33.05242324284291
 20
87.48784477355733
 42
0.0
 10
18.77742316409291
 20
84.97077714830732
 42
0.3639701700569025
 10
18.11634178894308
 20
84.182930922
 42
0.0
 10
18.11634178894308
 20
69.687716037
 42
0.4663076581549902
 10
19.05526033107663
 20
68.89986983459023
 42
0.0
 10
33.33026033107663
 20
71.41693748459022
 42
0.363970228603773
 97
        0
 92
       22
 72
     1
 73
     1
 93
        2
 10
22.00567478794307
 20
77.894857304
 42
-0.999999999999998
 10
29.60000878994309
 20
77.894857304
 42
-0.999999999999998
 97
        0
 75
     0
 76
     1
 52
90.0
 41
5.0
 77
     0
 78
     2
 53
135.0
 43
-55.30709585167838
 44
-24.32627476836999
 45
-0.4419417382415922
 46
-0.4419417382415922
 79
     0
 53
225.0
 43
-55.30709585167838
 44
-24.32627476836999
 45
0.4419417382415922
 46
-0.4419417382415923
 79
     0
 47
0.0
 98
        2
 10
33.06811689466009
 20
79.3466207245649
 10
33.06811689466009
 20
79.3466207245649
1001
ACAD
1010
0.0
1020
0.0
1030
0.0
1001
PE_URL
1000

  0
LINE
  5
26B
330
1D
100
AcDbEntity
  8
4
100
AcDbLine
 10
38.69226620194307
 20
-0.0000000000000021
 30
0.0
 11
0.0
 21
0.0
 31
0.0
  0
ENDSEC
  0
SECTION
  2
OBJECTS
  0
DICTIONARY
  5
C
330
0
100
AcDbDictionary
281
     1
  3
ACAD_COLOR
350
24A
  3
ACAD_DETAILVIEWSTYLE
350
203
  3
ACAD_GROUP
350
D
  3
ACAD_LAYOUT
350
1A
  3
ACAD_MATERIAL
350
185
  3
ACAD_MLEADERSTYLE
350
192
  3
ACAD_MLINESTYLE
350
17
  3
ACAD_PLOTSETTINGS
350
19
  3
ACAD_PLOTSTYLENAME
350
E
  3
ACAD_SCALELIST
350
14E
  3
ACAD_SECTIONVIEWSTYLE
350
204
  3
ACAD_TABLESTYLE
350
1DB
  3
ACAD_VISUALSTYLE
350
174
  3
ACDB_RECOMPOSE_DATA
350
26F
  3
AcDbVariableDictionary
350
190
  3
APPDATA
350
1DE
  0
SUN
  5
206
330
148
100
AcDbSun
 90
        1
290
     0
 63
     7
421
 16777215
 40
1.0
291
     1
 91
  2455826
 92
 54000000
292
     0
 70
     2
 71
   256
280
     1
  0
DICTIONARY
  5
1DF
330
2
100
AcDbDictionary
280
     1
281
     1
  3
ACAD_LAYERSTATES
360
1E0
  0
DICTIONARY
  5
238
330
1D
100
AcDbDictionary
280
     1
281
     1
  3
ACAD_SORTENTS
360
239
  0
DICTIONARY
  5
24A
102
{ACAD_REACTORS
330
C
102
}
330
C
100
AcDbDictionary
281
     1
  0
DICTIONARY
  5
203
102
{ACAD_REACTORS
330
C
102
}
330
C
100
AcDbDictionary
281
     1
  0
DICTIONARY
  5
D
102
{ACAD_REACTORS
330
C
102
}
330
C
100
AcDbDictionary
281
     1
  0
DICTIONARY
  5
1A
102
{ACAD_REACTORS
330
C
102
}
330
C
100
AcDbDictionary
281
     1
  3
Layout1
350
1C
  3
Model
350
1E
  0
DICTIONARY
  5
185
102
{ACAD_REACTORS
330
C
102
}
330
C
100
AcDbDictionary
281
     1
  3
ByBlock
350
187
  3
ByLayer
350
186
  3
Global
350
188
  0
DICTIONARY
  5
192
102
{ACAD_REACTORS
330
C
102
}
330
C
100
AcDbDictionary
281
     1
  3
Standard
350
1DD
  0
DICTIONARY
  5
17
102
{ACAD_REACTORS
330
C
102
}
330
C
100
AcDbDictionary
281
     1
  3
Standard
350
18
  0
DICTIONARY
  5
19
102
{ACAD_REACTORS
330
C
102
}
330
C
100
AcDbDictionary
281
     1
  0
ACDBDICTIONARYWDFLT
  5
E
102
{ACAD_REACTORS
330
C
102
}
330
C
100
AcDbDictionary
281
     1
  3
Normal
350
F
100
AcDbDictionaryWithDefault
340
F
  0
DICTIONARY
  5
14E
102
{ACAD_REACTORS
330
C
102
}
330
C
100
AcDbDictionary
281
     1
  3
A0
350
14F
  3
A1
350
150
  3
A2
350
151
  3
A3
350
152
  3
A4
350
153
  3
A5
350
154
  3
A6
350
155
  3
A7
350
156
  3
A8
350
157
  3
A9
350
158
  3
B0
350
159
  3
B1
350
15A
  3
B2
350
15B
  3
B3
350
15C
  3
B4
350
15D
  3
B5
350
15E
  3
B6
350
15F
  3
B7
350
160
  3
B8
350
161
  3
B9
350
162
  3
C0
350
163
  3
C1
350
164
  3
C2
350
165
  3
C3
350
166
  3
C4
350
167
  3
C5
350
168
  3
C6
350
169
  3
C7
350
16A
  3
C8
350
16B
  3
C9
350
16C
  3
D0
350
16D
  3
D1
350
16E
  3
D2
350
16F
  0
DICTIONARY
  5
204
102
{ACAD_REACTORS
330
C
102
}
330
C
100
AcDbDictionary
281
     1
  0
DICTIONARY
  5
1DB
102
{ACAD_REACTORS
330
C
102
}
330
C
100
AcDbDictionary
281
     1
  3
Standard
350
1DC
  0
DICTIONARY
  5
174
102
{ACAD_REACTORS
330
C
102
}
330
C
100
AcDbDictionary
281
     1
  3
2dWireframe
350
179
  3
3D Hidden
350
17B
  3
3dWireframe
350
17A
  3
Basic
350
17C
  3
Brighten
350
180
  3
ColorChange
350
184
  3
Conceptual
350
17E
  3
Dim
350
17F
  3
EdgeColorOff
350
1D5
  3
Facepattern
350
183
  3
Flat
350
175
  3
FlatWithEdges
350
176
  3
Gouraud
350
177
  3
GouraudWithEdges
350
178
  3
Hidden
350
1D2
  3
JitterOff
350
1D3
  3
Linepattern
350
182
  3
OverhangOff
350
1D4
  3
Realistic
350
17D
  3
Shaded
350
1DA
  3
Shaded with edges
350
1D9
  3
Shades of Gray
350
1D6
  3
Sketchy
350
1D7
  3
Thicken
350
181
  3
Wireframe
350
1D1
  3
X-Ray
350
1D8
  0
XRECORD
  5
26F
102
{ACAD_REACTORS
330
C
102
}
330
C
100
AcDbXrecord
280
     1
 90
        1
330
1DC
  0
DICTIONARY
  5
190
102
{ACAD_REACTORS
330
C
102
}
330
C
100
AcDbDictionary
281
     1
  3
CANNOSCALE
350
200
  3
CMLEADERSTYLE
350
202
  3
CTABLESTYLE
350
201
  3
DIMASSOC
350
194
  3
HIDETEXT
350
195
  3
MSLTSCALE
350
193
  0
DICTIONARY
  5
1DE
102
{ACAD_REACTORS
330
C
102
}
330
C
100
AcDbDictionary
281
     1
  0
DICTIONARY
  5
1E0
102
{ACAD_REACTORS
330
1DF
102
}
330
1DF
100
AcDbDictionary
281
     1
  0
SORTENTSTABLE
  5
239
102
{ACAD_REACTORS
330
238
102
}
330
238
100
AcDbSortentsTable
330
1D
331
226
  5
228
331
227
  5
229
331
228
  5
22A
331
229
  5
22B
331
22A
  5
22C
331
22B
  5
22D
331
22C
  5
22E
331
0
  5
22F
331
22E
  5
237
331
22F
  5
23A
331
0
  5
226
331
23A
  5
227
  0
LAYOUT
  5
1C
102
{ACAD_REACTORS
330
1A
102
}
330
1A
100
AcDbPlotSettings
  1

  2
none_device
  4

  6

 40
0.0
 41
0.0
 42
0.0
 43
0.0
 44
0.0
 45
0.0
 46
0.0
 47
0.0
 48
0.0
 49
0.0
140
0.0
141
0.0
142
1.0
143
1.0
 70
   688
 72
     0
 73
     0
 74
     5
  7

 75
    16
 76
     0
 77
     2
 78
   300
147
1.0
148
0.0
149
0.0
100
AcDbLayout
  1
Layout1
 70
     1
 71
     1
 10
0.0
 20
0.0
 11
12.0
 21
9.0
 12
0.0
 22
0.0
 32
0.0
 14
1.000000000000000E+20
 24
1.000000000000000E+20
 34
1.000000000000000E+20
 15
-1.000000000000000E+20
 25
-1.000000000000000E+20
 35
-1.000000000000000E+20
146
0.0
 13
0.0
 23
0.0
 33
0.0
 16
1.0
 26
0.0
 36
0.0
 17
0.0
 27
1.0
 37
0.0
 76
     0
330
1B
  0
LAYOUT
  5
1E
102
{ACAD_REACTORS
330
1A
102
}
330
1A
100
AcDbPlotSettings
  1

  2
none_device
  4

  6

 40
0.0
 41
0.0
 42
0.0
 43
0.0
 44
0.0
 45
0.0
 46
0.0
 47
0.0
 48
0.0
 49
0.0
140
0.0
141
0.0
142
1.0
143
1.0
 70
  1712
 72
     0
 73
     0
 74
     0
  7

 75
     0
 76
     0
 77
     2
 78
   300
147
1.0
148
0.0
149
0.0
100
AcDbLayout
  1
Model
 70
     1
 71
     0
 10
0.0
 20
0.0
 11
12.0
 21
9.0
 12
0.0
 22
0.0
 32
0.0
 14
-24.69293148531736
 24
-121.7605543642362
 34
0.0
 15
85.04722585541833
 25
108.9820386900002
 35
0.0
146
0.0
 13
0.0
 23
0.0
 33
0.0
 16
1.0
 26
0.0
 36
0.0
 17
0.0
 27
1.0
 37
0.0
 76
     0
330
1D
331
148
  0
MATERIAL
  5
187
102
{ACAD_REACTORS
330
185
102
}
330
185
100
AcDbMaterial
  1
ByBlock
 72
     1
 94
      127
  0
MATERIAL
  5
186
102
{ACAD_REACTORS
330
185
102
}
330
185
100
AcDbMaterial
  1
ByLayer
 72
     1
 94
      127
  0
MATERIAL
  5
188
102
{ACAD_REACTORS
330
185
102
}
330
185
100
AcDbMaterial
  1
Global
 72
     1
 94
      127
  0
MLEADERSTYLE
  5
1DD
102
{ACAD_REACTORS
330
192
102
}
330
192
100
AcDbMLeaderStyle
179
     2
170
     2
171
     1
172
     0
 90
        2
 40
0.0
 41
0.0
173
     1
 91
-1056964608
340
14
 92
       -2
290
     1
 42
0.09
291
     1
 43
0.36
  3
Standard
341
0
 44
0.18
300

342
11
174
     1
178
     1
175
     1
176
     0
 93
-1056964608
 45
0.18
292
     0
297
     0
 46
0.18
343
0
 94
-1056964608
 47
1.0
 49
1.0
140
1.0
293
     1
141
0.0
294
     1
177
     0
142
1.0
295
     0
296
     0
143
0.125
271
     0
272
     9
273
     9
298
     0
  0
MLINESTYLE
  5
18
102
{ACAD_REACTORS
330
17
102
}
330
17
100
AcDbMlineStyle
  2
Standard
 70
     0
  3

 62
   256
 51
90.0
 52
90.0
 71
     2
 49
0.5
 62
   256
  6
BYLAYER
 49
-0.5
 62
   256
  6
BYLAYER
  0
ACDBPLACEHOLDER
  5
F
102
{ACAD_REACTORS
330
E
102
}
330
E
  0
SCALE
  5
14F
102
{ACAD_REACTORS
330
14E
102
}
330
14E
100
AcDbScale
 70
     0
300
1:1
140
1.0
141
1.0
290
     1
  0
SCALE
  5
150
102
{ACAD_REACTORS
330
14E
102
}
330
14E
100
AcDbScale
 70
     0
300
1:2
140
1.0
141
2.0
290
     0
  0
SCALE
  5
151
102
{ACAD_REACTORS
330
14E
102
}
330
14E
100
AcDbScale
 70
     0
300
1:4
140
1.0
141
4.0
290
     0
  0
SCALE
  5
152
102
{ACAD_REACTORS
330
14E
102
}
330
14E
100
AcDbScale
 70
     0
300
1:5
140
1.0
141
5.0
290
     0
  0
SCALE
  5
153
102
{ACAD_REACTORS
330
14E
102
}
330
14E
100
AcDbScale
 70
     0
300
1:8
140
1.0
141
8.0
290
     0
  0
SCALE
  5
154
102
{ACAD_REACTORS
330
14E
102
}
330
14E
100
AcDbScale
 70
     0
300
1:10
140
1.0
141
10.0
290
     0
  0
SCALE
  5
155
102
{ACAD_REACTORS
330
14E
102
}
330
14E
100
AcDbScale
 70
     0
300
1:16
140
1.0
141
16.0
290
     0
  0
SCALE
  5
156
102
{ACAD_REACTORS
330
14E
102
}
330
14E
100
AcDbScale
 70
     0
300
1:20
140
1.0
141
20.0
290
     0
  0
SCALE
  5
157
102
{ACAD_REACTORS
330
14E
102
}
330
14E
100
AcDbScale
 70
     0
300
1:30
140
1.0
141
30.0
290
     0
  0
SCALE
  5
158
102
{ACAD_REACTORS
330
14E
102
}
330
14E
100
AcDbScale
 70
     0
300
1:40
140
1.0
141
40.0
290
     0
  0
SCALE
  5
159
102
{ACAD_REACTORS
330
14E
102
}
330
14E
100
AcDbScale
 70
     0
300
1:50
140
1.0
141
50.0
290
     0
  0
SCALE
  5
15A
102
{ACAD_REACTORS
330
14E
102
}
330
14E
100
AcDbScale
 70
     0
300
1:100
140
1.0
141
100.0
290
     0
  0
SCALE
  5
15B
102
{ACAD_REACTORS
330
14E
102
}
330
14E
100
AcDbScale
 70
     0
300
2:1
140
2.0
141
1.0
290
     0
  0
SCALE
  5
15C
102
{ACAD_REACTORS
330
14E
102
}
330
14E
100
AcDbScale
 70
     0
300
4:1
140
4.0
141
1.0
290
     0
  0
SCALE
  5
15D
102
{ACAD_REACTORS
330
14E
102
}
330
14E
100
AcDbScale
 70
     0
300
8:1
140
8.0
141
1.0
290
     0
  0
SCALE
  5
15E
102
{ACAD_REACTORS
330
14E
102
}
330
14E
100
AcDbScale
 70
     0
300
10:1
140
10.0
141
1.0
290
     0
  0
SCALE
  5
15F
102
{ACAD_REACTORS
330
14E
102
}
330
14E
100
AcDbScale
 70
     0
300
100:1
140
100.0
141
1.0
290
     0
  0
SCALE
  5
160
102
{ACAD_REACTORS
330
14E
102
}
330
14E
100
AcDbScale
 70
     0
300
1/128" = 1'-0"
140
0.0078125
141
12.0
290
     0
  0
SCALE
  5
161
102
{ACAD_REACTORS
330
14E
102
}
330
14E
100
AcDbScale
 70
     0
300
1/64" = 1'-0"
140
0.015625
141
12.0
290
     0
  0
SCALE
  5
162
102
{ACAD_REACTORS
330
14E
102
}
330
14E
100
AcDbScale
 70
     0
300
1/32" = 1'-0"
140
0.03125
141
12.0
290
     0
  0
SCALE
  5
163
102
{ACAD_REACTORS
330
14E
102
}
330
14E
100
AcDbScale
 70
     0
300
1/16" = 1'-0"
140
0.0625
141
12.0
290
     0
  0
SCALE
  5
164
102
{ACAD_REACTORS
330
14E
102
}
330
14E
100
AcDbScale
 70
     0
300
3/32" = 1'-0"
140
0.09375
141
12.0
290
     0
  0
SCALE
  5
165
102
{ACAD_REACTORS
330
14E
102
}
330
14E
100
AcDbScale
 70
     0
300
1/8" = 1'-0"
140
0.125
141
12.0
290
     0
  0
SCALE
  5
166
102
{ACAD_REACTORS
330
14E
102
}
330
14E
100
AcDbScale
 70
     0
300
3/16" = 1'-0"
140
0.1875
141
12.0
290
     0
  0
SCALE
  5
167
102
{ACAD_REACTORS
330
14E
102
}
330
14E
100
AcDbScale
 70
     0
300
1/4" = 1'-0"
140
0.25
141
12.0
290
     0
  0
SCALE
  5
168
102
{ACAD_REACTORS
330
14E
102
}
330
14E
100
AcDbScale
 70
     0
300
3/8" = 1'-0"
140
0.375
141
12.0
290
     0
  0
SCALE
  5
169
102
{ACAD_REACTORS
330
14E
102
}
330
14E
100
AcDbScale
 70
     0
300
1/2" = 1'-0"
140
0.5
141
12.0
290
     0
  0
SCALE
  5
16A
102
{ACAD_REACTORS
330
14E
102
}
330
14E
100
AcDbScale
 70
     0
300
3/4" = 1'-0"
140
0.75
141
12.0
290
     0
  0
SCALE
  5
16B
102
{ACAD_REACTORS
330
14E
102
}
330
14E
100
AcDbScale
 70
     0
300
1" = 1'-0"
140
1.0
141
12.0
290
     0
  0
SCALE
  5
16C
102
{ACAD_REACTORS
330
14E
102
}
330
14E
100
AcDbScale
 70
     0
300
1-1/2" = 1'-0"
140
1.5
141
12.0
290
     0
  0
SCALE
  5
16D
102
{ACAD_REACTORS
330
14E
102
}
330
14E
100
AcDbScale
 70
     0
300
3" = 1'-0"
140
3.0
141
12.0
290
     0
  0
SCALE
  5
16E
102
{ACAD_REACTORS
330
14E
102
}
330
14E
100
AcDbScale
 70
     0
300
6" = 1'-0"
140
6.0
141
12.0
290
     0
  0
SCALE
  5
16F
102
{ACAD_REACTORS
330
14E
102
}
330
14E
100
AcDbScale
 70
     0
300
1'-0" = 1'-0"
140
12.0
141
12.0
290
     0
  0
TABLESTYLE
  5
1DC
102
{ACAD_REACTORS
330
1DB
102
}
102
{ACAD_XDICTIONARY
360
26D
102
}
330
1DB
100
AcDbTableStyle
  3
Standard
 70
     0
 71
     0
 40
0.06
 41
0.06
280
     0
281
     0
  7
Standard
140
0.18
170
     2
 62
     0
 63
   257
283
     0
 90
        4
 91
        0
  1

274
    -2
284
     1
 64
     0
275
    -2
285
     1
 65
     0
276
    -2
286
     1
 66
     0
277
    -2
287
     1
 67
     0
278
    -2
288
     1
 68
     0
279
    -2
289
     1
 69
     0
  7
Standard
140
0.25
170
     5
 62
     0
 63
   257
283
     0
 90
        4
 91
        0
  1

274
    -2
284
     1
 64
     0
275
    -2
285
     1
 65
     0
276
    -2
286
     1
 66
     0
277
    -2
287
     1
 67
     0
278
    -2
288
     1
 68
     0
279
    -2
289
     1
 69
     0
  7
Standard
140
0.18
170
     5
 62
     0
 63
   257
283
     0
 90
        4
 91
        0
  1

274
    -2
284
     1
 64
     0
275
    -2
285
     1
 65
     0
276
    -2
286
     1
 66
     0
277
    -2
287
     1
 67
     0
278
    -2
288
     1
 68
     0
279
    -2
289
     1
 69
     0
  0
VISUALSTYLE
  5
179
102
{ACAD_REACTORS
330
174
102
}
330
174
100
AcDbVisualStyle
  2
2dWireframe
 70
     4
177
     3
291
     0
 70
    58
 90
        0
176
     1
 90
        2
176
     1
 90
        0
176
     1
 90
        0
176
     1
 40
-0.6
176
     1
 40
-30.0
176
     1
 62
     7
176
     1
 90
        1
176
     1
 90
        4
176
     1
 62
     7
176
     1
 62
   257
176
     1
 90
        1
176
     1
 90
        1
176
     1
 40
1.0
176
     1
 90
        0
176
     1
 62
   257
176
     1
 40
1.0
176
     1
 90
        1
176
     1
 90
        6
176
     1
 90
        2
176
     1
 62
     7
176
     1
 90
        5
176
     1
 90
        0
176
     1
 90
        0
176
     1
290
     0
176
     1
 90
        1
176
     1
 40
0.0
176
     1
 90
        0
176
     1
290
     1
176
     1
290
     1
176
     1
290
     0
176
     1
290
     0
176
     1
290
     0
176
     1
290
     0
176
     1
290
     0
176
     1
290
     0
176
     1
290
     0
176
     1
 90
       50
176
     1
 40
0.0
176
     1
 40
1.0
176
     1
 90
        0
176
     1
 62
    18
420
        0
176
     1
 90
       50
176
     1
 90
        3
176
     1
 62
     5
420
      255
176
     1
290
     0
176
     1
 90
       50
176
     1
 90
       50
176
     1
 90
       50
176
     1
290
     0
176
     1
 90
       50
176
     1
 62
   256
176
     0
 40
1.0
176
     0
 90
        2
176
     1
  1
strokes_ogs.tif
176
     1
290
     0
176
     1
 40
1.0
176
     1
 40
1.0
176
     1
  0
VISUALSTYLE
  5
17B
102
{ACAD_REACTORS
330
174
102
}
330
174
100
AcDbVisualStyle
  2
3D Hidden
 70
     6
177
     3
291
     0
 70
    58
 90
        1
176
     1
 90
        2
176
     1
 90
        2
176
     1
 90
        0
176
     1
 40
-0.6
176
     1
 40
-30.0
176
     1
 62
     7
176
     1
 90
        2
176
     1
 90
        2
176
     1
 62
     7
176
     1
 62
   257
176
     1
 90
        2
176
     1
 90
        1
176
     1
 40
40.0
176
     1
 90
        0
176
     1
 62
   257
176
     1
 40
1.0
176
     1
 90
        1
176
     1
 90
        6
176
     1
 90
        2
176
     1
 62
     7
176
     1
 90
        3
176
     1
 90
        0
176
     1
 90
        0
176
     1
290
     0
176
     1
 90
        1
176
     1
 40
0.0
176
     1
 90
        0
176
     1
290
     0
176
     1
290
     1
176
     1
290
     1
176
     1
290
     0
176
     1
290
     0
176
     1
290
     0
176
     1
290
     0
176
     1
290
     0
176
     1
290
     0
176
     1
 90
       50
176
     1
 40
0.0
176
     1
 40
1.0
176
     1
 90
        0
176
     1
 62
    18
420
        0
176
     1
 90
       50
176
     1
 90
        3
176
     1
 62
     5
420
      255
176
     1
290
     0
176
     1
 90
       50
176
     1
 90
       50
176
     1
 90
       50
176
     1
290
     0
176
     1
 90
       50
176
     1
 62
   256
176
     0
 40
1.0
176
     0
 90
        2
176
     1
  1
strokes_ogs.tif
176
     1
290
     0
176
     1
 40
1.0
176
     1
 40
1.0
176
     1
  0
VISUALSTYLE
  5
17A
102
{ACAD_REACTORS
330
174
102
}
330
174
100
AcDbVisualStyle
  2
3dWireframe
 70
     5
177
     3
291
     0
 70
    58
 90
        0
176
     1
 90
        2
176
     1
 90
        0
176
     1
 90
        0
176
     1
 40
-0.6
176
     1
 40
-30.0
176
     1
 62
     7
176
     1
 90
        1
176
     1
 90
        4
176
     1
 62
     7
176
     1
 62
   257
176
     1
 90
        1
176
     1
 90
        1
176
     1
 40
1.0
176
     1
 90
        0
176
     1
 62
   257
176
     1
 40
1.0
176
     1
 90
        1
176
     1
 90
        6
176
     1
 90
        2
176
     1
 62
     7
176
     1
 90
        5
176
     1
 90
        0
176
     1
 90
        0
176
     1
290
     0
176
     1
 90
        1
176
     1
 40
0.0
176
     1
 90
        0
176
     1
290
     0
176
     1
290
     1
176
     1
290
     1
176
     1
290
     0
176
     1
290
     0
176
     1
290
     0
176
     1
290
     0
176
     1
290
     0
176
     1
290
     0
176
     1
 90
       50
176
     1
 40
0.0
176
     1
 40
1.0
176
     1
 90
        0
176
     1
 62
    18
420
        0
176
     1
 90
       50
176
     1
 90
        3
176
     1
 62
     5
420
      255
176
     1
290
     0
176
     1
 90
       50
176
     1
 90
       50
176
     1
 90
       50
176
     1
290
     0
176
     1
 90
       50
176
     1
 62
   256
176
     0
 40
1.0
176
     0
 90
        2
176
     1
  1
strokes_ogs.tif
176
     1
290
     0
176
     1
 40
1.0
176
     1
 40
1.0
176
     1
  0
VISUALSTYLE
  5
17C
102
{ACAD_REACTORS
330
174
102
}
330
174
100
AcDbVisualStyle
  2
Basic
 70
     7
177
     3
291
     1
 70
    58
 90
        1
176
     1
 90
        0
176
     1
 90
        1
176
     1
 90
        0
176
     1
 40
-0.6
176
     1
 40
-30.0
176
     1
 62
     7
176
     1
 90
        0
176
     1
 90
        4
176
     1
 62
     7
176
     1
 62
   257
176
     1
 90
        1
176
     1
 90
        1
176
     1
 40
1.0
176
     1
 90
        8
176
     1
 62
     7
176
     1
 40
1.0
176
     1
 90
        1
176
     1
 90
        6
176
     1
 90
        2
176
     1
 62
     7
176
     1
 90
        5
176
     1
 90
        0
176
     1
 90
        0
176
     1
290
     0
176
     1
 90
        1
176
     1
 40
0.0
176
     1
 90
        0
176
     1
290
     0
176
     1
290
     1
176
     1
290
     1
176
     1
290
     0
176
     1
290
     0
176
     1
290
     0
176
     1
290
     0
176
     1
290
     0
176
     1
290
     0
176
     1
 90
       50
176
     1
 40
0.0
176
     1
 40
1.0
176
     1
 90
        0
176
     1
 62
    18
420
        0
176
     1
 90
       50
176
     1
 90
        3
176
     1
 62
     5
420
      255
176
     1
290
     0
176
     1
 90
       50
176
     1
 90
       50
176
     1
 90
       50
176
     1
290
     0
176
     1
 90
       50
176
     1
 62
   256
176
     0
 40
1.0
176
     0
 90
        2
176
     1
  1
strokes_ogs.tif
176
     1
290
     0
176
     1
 40
1.0
176
     1
 40
1.0
176
     1
  0
VISUALSTYLE
  5
180
102
{ACAD_REACTORS
330
174
102
}
330
174
100
AcDbVisualStyle
  2
Brighten
 70
    12
177
     3
291
     1
 70
    58
 90
        2
176
     1
 90
        2
176
     1
 90
        0
176
     1
 90
        0
176
     1
 40
-0.6
176
     1
 40
-30.0
176
     1
 62
     7
176
     1
 90
        1
176
     1
 90
        4
176
     1
 62
     7
176
     1
 62
   257
176
     1
 90
        1
176
     1
 90
        1
176
     1
 40
1.0
176
     1
 90
        8
176
     1
 62
     7
176
     1
 40
1.0
176
     1
 90
        1
176
     1
 90
        6
176
     1
 90
        2
176
     1
 62
     7
176
     1
 90
        5
176
     1
 90
        0
176
     1
 90
        0
176
     1
290
     0
176
     1
 90
        1
176
     1
 40
50.0
176
     1
 90
        0
176
     1
290
     0
176
     1
290
     1
176
     1
290
     1
176
     1
290
     0
176
     1
290
     0
176
     1
290
     0
176
     1
290
     0
176
     1
290
     0
176
     1
290
     0
176
     1
 90
       50
176
     1
 40
0.0
176
     1
 40
1.0
176
     1
 90
        0
176
     1
 62
    18
420
        0
176
     1
 90
       50
176
     1
 90
        3
176
     1
 62
     5
420
      255
176
     1
290
     0
176
     1
 90
       50
176
     1
 90
       50
176
     1
 90
       50
176
     1
290
     0
176
     1
 90
       50
176
     1
 62
   256
176
     0
 40
1.0
176
     0
 90
        2
176
     1
  1
strokes_ogs.tif
176
     1
290
     0
176
     1
 40
1.0
176
     1
 40
1.0
176
     1
  0
VISUALSTYLE
  5
184
102
{ACAD_REACTORS
330
174
102
}
330
174
100
AcDbVisualStyle
  2
ColorChange
 70
    16
177
     3
291
     1
 70
    58
 90
        2
176
     1
 90
        2
176
     1
 90
        3
176
     1
 90
        0
176
     1
 40
-0.6
176
     1
 40
-30.0
176
     1
 62
     8
176
     1
 90
        1
176
     1
 90
        4
176
     1
 62
     7
176
     1
 62
   257
176
     1
 90
        1
176
     1
 90
        1
176
     1
 40
1.0
176
     1
 90
        8
176
     1
 62
     8
176
     1
 40
1.0
176
     1
 90
        1
176
     1
 90
        6
176
     1
 90
        2
176
     1
 62
     7
176
     1
 90
        5
176
     1
 90
        0
176
     1
 90
        0
176
     1
290
     0
176
     1
 90
        1
176
     1
 40
0.0
176
     1
 90
        0
176
     1
290
     0
176
     1
290
     1
176
     1
290
     1
176
     1
290
     0
176
     1
290
     0
176
     1
290
     0
176
     1
290
     0
176
     1
290
     0
176
     1
290
     0
176
     1
 90
       50
176
     1
 40
0.0
176
     1
 40
1.0
176
     1
 90
        0
176
     1
 62
    18
420
        0
176
     1
 90
       50
176
     1
 90
        3
176
     1
 62
     5
420
      255
176
     1
290
     0
176
     1
 90
       50
176
     1
 90
       50
176
     1
 90
       50
176
     1
290
     0
176
     1
 90
       50
176
     1
 62
   256
176
     0
 40
1.0
176
     0
 90
        2
176
     1
  1
strokes_ogs.tif
176
     1
290
     0
176
     1
 40
1.0
176
     1
 40
1.0
176
     1
  0
VISUALSTYLE
  5
17E
102
{ACAD_REACTORS
330
174
102
}
330
174
100
AcDbVisualStyle
  2
Conceptual
 70
     9
177
     3
291
     0
 70
    58
 90
        3
176
     1
 90
        2
176
     1
 90
        0
176
     1
 90
        0
176
     1
 40
-0.6
176
     1
 40
-30.0
176
     1
 62
     7
176
     1
 90
        2
176
     1
 90
        2
176
     1
 62
     7
176
     1
 62
   257
176
     1
 90
        1
176
     1
 90
        1
176
     1
 40
40.0
176
     1
 90
        8
176
     1
 62
     7
176
     1
 40
1.0
176
     1
 90
        1
176
     1
 90
        6
176
     1
 90
        2
176
     1
 62
     7
176
     1
 90
        3
176
     1
 90
        0
176
     1
 90
        0
176
     1
290
     0
176
     1
 90
        1
176
     1
 40
0.0
176
     1
 90
        0
176
     1
290
     0
176
     1
290
     1
176
     1
290
     1
176
     1
290
     0
176
     1
290
     0
176
     1
290
     0
176
     1
290
     0
176
     1
290
     0
176
     1
290
     0
176
     1
 90
       50
176
     1
 40
0.0
176
     1
 40
1.0
176
     1
 90
        0
176
     1
 62
    18
420
        0
176
     1
 90
       50
176
     1
 90
        3
176
     1
 62
     5
420
      255
176
     1
290
     0
176
     1
 90
       50
176
     1
 90
       50
176
     1
 90
       50
176
     1
290
     0
176
     1
 90
       50
176
     1
 62
   256
176
     0
 40
1.0
176
     0
 90
        2
176
     1
  1
strokes_ogs.tif
176
     1
290
     0
176
     1
 40
1.0
176
     1
 40
1.0
176
     1
  0
VISUALSTYLE
  5
17F
102
{ACAD_REACTORS
330
174
102
}
330
174
100
AcDbVisualStyle
  2
Dim
 70
    11
177
     3
291
     1
 70
    58
 90
        2
176
     1
 90
        2
176
     1
 90
        0
176
     1
 90
        0
176
     1
 40
-0.6
176
     1
 40
-30.0
176
     1
 62
     7
176
     1
 90
        1
176
     1
 90
        4
176
     1
 62
     7
176
     1
 62
   257
176
     1
 90
        1
176
     1
 90
        1
176
     1
 40
1.0
176
     1
 90
        8
176
     1
 62
     7
176
     1
 40
1.0
176
     1
 90
        1
176
     1
 90
        6
176
     1
 90
        2
176
     1
 62
     7
176
     1
 90
        5
176
     1
 90
        0
176
     1
 90
        0
176
     1
290
     0
176
     1
 90
        1
176
     1
 40
-50.0
176
     1
 90
        0
176
     1
290
     0
176
     1
290
     1
176
     1
290
     1
176
     1
290
     0
176
     1
290
     0
176
     1
290
     0
176
     1
290
     0
176
     1
290
     0
176
     1
290
     0
176
     1
 90
       50
176
     1
 40
0.0
176
     1
 40
1.0
176
     1
 90
        0
176
     1
 62
    18
420
        0
176
     1
 90
       50
176
     1
 90
        3
176
     1
 62
     5
420
      255
176
     1
290
     0
176
     1
 90
       50
176
     1
 90
       50
176
     1
 90
       50
176
     1
290
     0
176
     1
 90
       50
176
     1
 62
   256
176
     0
 40
1.0
176
     0
 90
        2
176
     1
  1
strokes_ogs.tif
176
     1
290
     0
176
     1
 40
1.0
176
     1
 40
1.0
176
     1
  0
VISUALSTYLE
  5
1D5
102
{ACAD_REACTORS
330
174
102
}
330
174
100
AcDbVisualStyle
  2
EdgeColorOff
 70
    22
177
     3
291
     1
 70
    58
 90
        2
176
     0
 90
        2
176
     0
 90
        0
176
     0
 90
        0
176
     0
 40
0.6
176
     0
 40
30.0
176
     0
 62
     7
420
 16777215
176
     0
 90
        1
176
     0
 90
        4
176
     0
 62
     7
176
     0
 62
   257
176
     0
 90
        1
176
     0
 90
        1
176
     0
 40
1.0
176
     0
 90
        8
176
     2
 62
     7
176
     0
 40
1.0
176
     0
 90
        1
176
     0
 90
        6
176
     0
 90
        2
176
     0
 62
     7
176
     0
 90
        5
176
     0
 90
        0
176
     0
 90
        0
176
     0
290
     0
176
     0
 90
        1
176
     0
 40
0.0
176
     0
 90
        0
176
     0
290
     0
176
     0
290
     1
176
     0
290
     1
176
     0
290
     0
176
     0
290
     0
176
     0
290
     0
176
     0
290
     0
176
     0
290
     0
176
     0
290
     0
176
     0
 90
       50
176
     0
 40
0.0
176
     0
 40
1.0
176
     0
 90
        0
176
     0
 62
    18
420
        0
176
     0
 90
       50
176
     0
 90
        3
176
     0
 62
     5
420
      255
176
     0
290
     0
176
     0
 90
       50
176
     0
 90
       50
176
     0
 90
       50
176
     0
290
     0
176
     0
 90
       50
176
     0
 62
   256
176
     0
 40
1.0
176
     0
 90
        2
176
     0
  1
strokes_ogs.tif
176
     0
290
     0
176
     0
 40
1.0
176
     0
 40
1.0
176
     0
  0
VISUALSTYLE
  5
183
102
{ACAD_REACTORS
330
174
102
}
330
174
100
AcDbVisualStyle
  2
Facepattern
 70
    15
177
     3
291
     1
 70
    58
 90
        2
176
     1
 90
        2
176
     1
 90
        0
176
     1
 90
        0
176
     1
 40
-0.6
176
     1
 40
-30.0
176
     1
 62
     7
176
     1
 90
        1
176
     1
 90
        4
176
     1
 62
     7
176
     1
 62
   257
176
     1
 90
        1
176
     1
 90
        1
176
     1
 40
1.0
176
     1
 90
        8
176
     1
 62
     7
176
     1
 40
1.0
176
     1
 90
        1
176
     1
 90
        6
176
     1
 90
        2
176
     1
 62
     7
176
     1
 90
        5
176
     1
 90
        0
176
     1
 90
        0
176
     1
290
     0
176
     1
 90
        1
176
     1
 40
0.0
176
     1
 90
        0
176
     1
290
     0
176
     1
290
     1
176
     1
290
     1
176
     1
290
     0
176
     1
290
     0
176
     1
290
     0
176
     1
290
     0
176
     1
290
     0
176
     1
290
     0
176
     1
 90
       50
176
     1
 40
0.0
176
     1
 40
1.0
176
     1
 90
        0
176
     1
 62
    18
420
        0
176
     1
 90
       50
176
     1
 90
        3
176
     1
 62
     5
420
      255
176
     1
290
     0
176
     1
 90
       50
176
     1
 90
       50
176
     1
 90
       50
176
     1
290
     0
176
     1
 90
       50
176
     1
 62
   256
176
     0
 40
1.0
176
     0
 90
        2
176
     1
  1
strokes_ogs.tif
176
     1
290
     0
176
     1
 40
1.0
176
     1
 40
1.0
176
     1
  0
VISUALSTYLE
  5
175
102
{ACAD_REACTORS
330
174
102
}
330
174
100
AcDbVisualStyle
  2
Flat
 70
     0
177
     3
291
     1
 70
    58
 90
        2
176
     1
 90
        1
176
     1
 90
        1
176
     1
 90
        2
176
     1
 40
-0.6
176
     1
 40
30.0
176
     1
 62
     7
176
     1
 90
        0
176
     1
 90
        4
176
     1
 62
     7
176
     1
 62
   257
176
     1
 90
        1
176
     1
 90
        1
176
     1
 40
1.0
176
     1
 90
        8
176
     1
 62
     7
176
     1
 40
1.0
176
     1
 90
        1
176
     1
 90
        6
176
     1
 90
        2
176
     1
 62
     7
176
     1
 90
        5
176
     1
 90
        0
176
     1
 90
        0
176
     1
290
     0
176
     1
 90
       13
176
     1
 40
0.0
176
     1
 90
        0
176
     1
290
     0
176
     1
290
     1
176
     1
290
     1
176
     1
290
     0
176
     1
290
     0
176
     1
290
     0
176
     1
290
     0
176
     1
290
     0
176
     1
290
     0
176
     1
 90
       50
176
     1
 40
0.0
176
     1
 40
1.0
176
     1
 90
        0
176
     1
 62
    18
420
        0
176
     1
 90
       50
176
     1
 90
        3
176
     1
 62
     5
420
      255
176
     1
290
     0
176
     1
 90
       50
176
     1
 90
       50
176
     1
 90
       50
176
     1
290
     0
176
     1
 90
       50
176
     1
 62
   256
176
     0
 40
1.0
176
     0
 90
        2
176
     1
  1
strokes_ogs.tif
176
     1
290
     0
176
     1
 40
1.0
176
     1
 40
1.0
176
     1
  0
VISUALSTYLE
  5
176
102
{ACAD_REACTORS
330
174
102
}
330
174
100
AcDbVisualStyle
  2
FlatWithEdges
 70
     1
177
     3
291
     1
 70
    58
 90
        2
176
     1
 90
        1
176
     1
 90
        1
176
     1
 90
        2
176
     1
 40
-0.6
176
     1
 40
30.0
176
     1
 62
     7
176
     1
 90
        1
176
     1
 90
        4
176
     1
 62
     7
176
     1
 62
   257
176
     1
 90
        1
176
     1
 90
        1
176
     1
 40
1.0
176
     1
 90
        0
176
     1
 62
   257
176
     1
 40
1.0
176
     1
 90
        1
176
     1
 90
        6
176
     1
 90
        2
176
     1
 62
     7
176
     1
 90
        5
176
     1
 90
        0
176
     1
 90
        0
176
     1
290
     0
176
     1
 90
       13
176
     1
 40
0.0
176
     1
 90
        0
176
     1
290
     0
176
     1
290
     1
176
     1
290
     1
176
     1
290
     0
176
     1
290
     0
176
     1
290
     0
176
     1
290
     0
176
     1
290
     0
176
     1
290
     0
176
     1
 90
       50
176
     1
 40
0.0
176
     1
 40
1.0
176
     1
 90
        0
176
     1
 62
    18
420
        0
176
     1
 90
       50
176
     1
 90
        3
176
     1
 62
     5
420
      255
176
     1
290
     0
176
     1
 90
       50
176
     1
 90
       50
176
     1
 90
       50
176
     1
290
     0
176
     1
 90
       50
176
     1
 62
   256
176
     0
 40
1.0
176
     0
 90
        2
176
     1
  1
strokes_ogs.tif
176
     1
290
     0
176
     1
 40
1.0
176
     1
 40
1.0
176
     1
  0
VISUALSTYLE
  5
177
102
{ACAD_REACTORS
330
174
102
}
330
174
100
AcDbVisualStyle
  2
Gouraud
 70
     2
177
     3
291
     1
 70
    58
 90
        2
176
     1
 90
        2
176
     1
 90
        1
176
     1
 90
        2
176
     1
 40
-0.6
176
     1
 40
30.0
176
     1
 62
     7
176
     1
 90
        0
176
     1
 90
        4
176
     1
 62
     7
176
     1
 62
   257
176
     1
 90
        1
176
     1
 90
        1
176
     1
 40
1.0
176
     1
 90
        0
176
     1
 62
     7
176
     1
 40
1.0
176
     1
 90
        1
176
     1
 90
        6
176
     1
 90
        2
176
     1
 62
     7
176
     1
 90
        5
176
     1
 90
        0
176
     1
 90
        0
176
     1
290
     0
176
     1
 90
       13
176
     1
 40
0.0
176
     1
 90
        0
176
     1
290
     0
176
     1
290
     1
176
     1
290
     1
176
     1
290
     0
176
     1
290
     0
176
     1
290
     0
176
     1
290
     0
176
     1
290
     0
176
     1
290
     0
176
     1
 90
       50
176
     1
 40
0.0
176
     1
 40
1.0
176
     1
 90
        0
176
     1
 62
    18
420
        0
176
     1
 90
       50
176
     1
 90
        3
176
     1
 62
     5
420
      255
176
     1
290
     0
176
     1
 90
       50
176
     1
 90
       50
176
     1
 90
       50
176
     1
290
     0
176
     1
 90
       50
176
     1
 62
   256
176
     0
 40
1.0
176
     0
 90
        2
176
     1
  1
strokes_ogs.tif
176
     1
290
     0
176
     1
 40
1.0
176
     1
 40
1.0
176
     1
  0
VISUALSTYLE
  5
178
102
{ACAD_REACTORS
330
174
102
}
330
174
100
AcDbVisualStyle
  2
GouraudWithEdges
 70
     3
177
     3
291
     1
 70
    58
 90
        2
176
     1
 90
        2
176
     1
 90
        1
176
     1
 90
        2
176
     1
 40
-0.6
176
     1
 40
30.0
176
     1
 62
     7
176
     1
 90
        1
176
     1
 90
        4
176
     1
 62
     7
176
     1
 62
   257
176
     1
 90
        1
176
     1
 90
        1
176
     1
 40
1.0
176
     1
 90
        0
176
     1
 62
   257
176
     1
 40
1.0
176
     1
 90
        1
176
     1
 90
        6
176
     1
 90
        2
176
     1
 62
     7
176
     1
 90
        5
176
     1
 90
        0
176
     1
 90
        0
176
     1
290
     0
176
     1
 90
       13
176
     1
 40
0.0
176
     1
 90
        0
176
     1
290
     0
176
     1
290
     1
176
     1
290
     1
176
     1
290
     0
176
     1
290
     0
176
     1
290
     0
176
     1
290
     0
176
     1
290
     0
176
     1
290
     0
176
     1
 90
       50
176
     1
 40
0.0
176
     1
 40
1.0
176
     1
 90
        0
176
     1
 62
    18
420
        0
176
     1
 90
       50
176
     1
 90
        3
176
     1
 62
     5
420
      255
176
     1
290
     0
176
     1
 90
       50
176
     1
 90
       50
176
     1
 90
       50
176
     1
290
     0
176
     1
 90
       50
176
     1
 62
   256
176
     0
 40
1.0
176
     0
 90
        2
176
     1
  1
strokes_ogs.tif
176
     1
290
     0
176
     1
 40
1.0
176
     1
 40
1.0
176
     1
  0
VISUALSTYLE
  5
1D2
102
{ACAD_REACTORS
330
174
102
}
330
174
100
AcDbVisualStyle
  2
Hidden
 70
     6
177
     3
291
     0
 70
    58
 90
        1
176
     1
 90
        2
176
     1
 90
        2
176
     1
 90
        0
176
     1
 40
0.6
176
     1
 40
30.0
176
     1
 62
     7
420
 16777215
176
     1
 90
        2
176
     1
 90
        2
176
     1
 62
     7
176
     1
 62
   257
176
     1
 90
        2
176
     1
 90
        1
176
     1
 40
40.0
176
     1
 90
        0
176
     1
 62
   257
176
     1
 40
1.0
176
     1
 90
        1
176
     1
 90
        6
176
     1
 90
        2
176
     1
 62
     7
176
     1
 90
        3
176
     1
 90
        0
176
     1
 90
        0
176
     1
290
     0
176
     1
 90
        1
176
     1
 40
0.0
176
     1
 90
        0
176
     1
290
     0
176
     1
290
     1
176
     1
290
     1
176
     1
290
     0
176
     1
290
     0
176
     1
290
     0
176
     1
290
     0
176
     1
290
     0
176
     1
290
     0
176
     1
 90
       50
176
     1
 40
0.0
176
     1
 40
1.0
176
     1
 90
        0
176
     1
 62
    18
420
        0
176
     1
 90
       50
176
     1
 90
        3
176
     1
 62
     5
420
      255
176
     1
290
     0
176
     1
 90
       50
176
     1
 90
       50
176
     1
 90
       50
176
     1
290
     0
176
     1
 90
       50
176
     1
 62
   256
176
     0
 40
1.0
176
     0
 90
        2
176
     1
  1
strokes_ogs.tif
176
     1
290
     0
176
     1
 40
1.0
176
     1
 40
1.0
176
     1
  0
VISUALSTYLE
  5
1D3
102
{ACAD_REACTORS
330
174
102
}
330
174
100
AcDbVisualStyle
  2
JitterOff
 70
    20
177
     3
291
     1
 70
    58
 90
        2
176
     0
 90
        2
176
     0
 90
        0
176
     0
 90
        0
176
     0
 40
0.6
176
     0
 40
30.0
176
     0
 62
     7
420
 16777215
176
     0
 90
        1
176
     0
 90
        4
176
     0
 62
     7
176
     0
 62
   257
176
     0
 90
        1
176
     0
 90
        1
176
     0
 40
1.0
176
     0
 90
       10
176
     2
 62
     7
176
     0
 40
1.0
176
     0
 90
        1
176
     0
 90
        6
176
     0
 90
        2
176
     0
 62
     7
176
     0
 90
        5
176
     0
 90
        0
176
     0
 90
        0
176
     0
290
     0
176
     0
 90
        1
176
     0
 40
0.0
176
     0
 90
        0
176
     0
290
     0
176
     0
290
     1
176
     0
290
     1
176
     0
290
     0
176
     0
290
     0
176
     0
290
     0
176
     0
290
     0
176
     0
290
     0
176
     0
290
     0
176
     0
 90
       50
176
     0
 40
0.0
176
     0
 40
1.0
176
     0
 90
        0
176
     0
 62
    18
420
        0
176
     0
 90
       50
176
     0
 90
        3
176
     0
 62
     5
420
      255
176
     0
290
     0
176
     0
 90
       50
176
     0
 90
       50
176
     0
 90
       50
176
     0
290
     0
176
     0
 90
       50
176
     0
 62
   256
176
     0
 40
1.0
176
     0
 90
        2
176
     0
  1
strokes_ogs.tif
176
     0
290
     0
176
     0
 40
1.0
176
     0
 40
1.0
176
     0
  0
VISUALSTYLE
  5
182
102
{ACAD_REACTORS
330
174
102
}
330
174
100
AcDbVisualStyle
  2
Linepattern
 70
    14
177
     3
291
     1
 70
    58
 90
        2
176
     1
 90
        2
176
     1
 90
        0
176
     1
 90
        0
176
     1
 40
-0.6
176
     1
 40
-30.0
176
     1
 62
     7
176
     1
 90
        1
176
     1
 90
        4
176
     1
 62
     7
176
     1
 62
   257
176
     1
 90
        7
176
     1
 90
        7
176
     1
 40
1.0
176
     1
 90
        8
176
     1
 62
     7
176
     1
 40
1.0
176
     1
 90
        1
176
     1
 90
        6
176
     1
 90
        2
176
     1
 62
     7
176
     1
 90
        5
176
     1
 90
        0
176
     1
 90
        0
176
     1
290
     0
176
     1
 90
        1
176
     1
 40
0.0
176
     1
 90
        0
176
     1
290
     0
176
     1
290
     1
176
     1
290
     1
176
     1
290
     0
176
     1
290
     0
176
     1
290
     0
176
     1
290
     0
176
     1
290
     0
176
     1
290
     0
176
     1
 90
       50
176
     1
 40
0.0
176
     1
 40
1.0
176
     1
 90
        0
176
     1
 62
    18
420
        0
176
     1
 90
       50
176
     1
 90
        3
176
     1
 62
     5
420
      255
176
     1
290
     0
176
     1
 90
       50
176
     1
 90
       50
176
     1
 90
       50
176
     1
290
     0
176
     1
 90
       50
176
     1
 62
   256
176
     0
 40
1.0
176
     0
 90
        2
176
     1
  1
strokes_ogs.tif
176
     1
290
     0
176
     1
 40
1.0
176
     1
 40
1.0
176
     1
  0
VISUALSTYLE
  5
1D4
102
{ACAD_REACTORS
330
174
102
}
330
174
100
AcDbVisualStyle
  2
OverhangOff
 70
    21
177
     3
291
     1
 70
    58
 90
        2
176
     0
 90
        2
176
     0
 90
        0
176
     0
 90
        0
176
     0
 40
0.6
176
     0
 40
30.0
176
     0
 62
     7
420
 16777215
176
     0
 90
        1
176
     0
 90
        4
176
     0
 62
     7
176
     0
 62
   257
176
     0
 90
        1
176
     0
 90
        1
176
     0
 40
1.0
176
     0
 90
        9
176
     2
 62
     7
176
     0
 40
1.0
176
     0
 90
        1
176
     0
 90
        6
176
     0
 90
        2
176
     0
 62
     7
176
     0
 90
        5
176
     0
 90
        0
176
     0
 90
        0
176
     0
290
     0
176
     0
 90
        1
176
     0
 40
0.0
176
     0
 90
        0
176
     0
290
     0
176
     0
290
     1
176
     0
290
     1
176
     0
290
     0
176
     0
290
     0
176
     0
290
     0
176
     0
290
     0
176
     0
290
     0
176
     0
290
     0
176
     0
 90
       50
176
     0
 40
0.0
176
     0
 40
1.0
176
     0
 90
        0
176
     0
 62
    18
420
        0
176
     0
 90
       50
176
     0
 90
        3
176
     0
 62
     5
420
      255
176
     0
290
     0
176
     0
 90
       50
176
     0
 90
       50
176
     0
 90
       50
176
     0
290
     0
176
     0
 90
       50
176
     0
 62
   256
176
     0
 40
1.0
176
     0
 90
        2
176
     0
  1
strokes_ogs.tif
176
     0
290
     0
176
     0
 40
1.0
176
     0
 40
1.0
176
     0
  0
VISUALSTYLE
  5
17D
102
{ACAD_REACTORS
330
174
102
}
330
174
100
AcDbVisualStyle
  2
Realistic
 70
     8
177
     3
291
     0
 70
    58
 90
        2
176
     1
 90
        2
176
     1
 90
        0
176
     1
 90
        0
176
     1
 40
-0.6
176
     1
 40
-30.0
176
     1
 62
     7
176
     1
 90
        1
176
     1
 90
        0
176
     1
 62
     7
176
     1
 62
   257
176
     1
 90
        1
176
     1
 90
        1
176
     1
 40
1.0
176
     1
 90
        8
176
     1
 62
     8
176
     1
 40
1.0
176
     1
 90
        1
176
     1
 90
        6
176
     1
 90
        2
176
     1
 62
     7
176
     1
 90
        5
176
     1
 90
        0
176
     1
 90
        0
176
     1
290
     0
176
     1
 90
       13
176
     1
 40
0.0
176
     1
 90
        0
176
     1
290
     0
176
     1
290
     1
176
     1
290
     1
176
     1
290
     0
176
     1
290
     0
176
     1
290
     0
176
     1
290
     0
176
     1
290
     0
176
     1
290
     0
176
     1
 90
       50
176
     1
 40
0.0
176
     1
 40
1.0
176
     1
 90
        0
176
     1
 62
    18
420
        0
176
     1
 90
       50
176
     1
 90
        3
176
     1
 62
     5
420
      255
176
     1
290
     0
176
     1
 90
       50
176
     1
 90
       50
176
     1
 90
       50
176
     1
290
     0
176
     1
 90
       50
176
     1
 62
   256
176
     0
 40
1.0
176
     0
 90
        2
176
     1
  1
strokes_ogs.tif
176
     1
290
     0
176
     1
 40
1.0
176
     1
 40
1.0
176
     1
  0
VISUALSTYLE
  5
1DA
102
{ACAD_REACTORS
330
174
102
}
330
174
100
AcDbVisualStyle
  2
Shaded
 70
    27
177
     3
291
     0
 70
    58
 90
        2
176
     1
 90
        2
176
     1
 90
        1
176
     1
 90
        2
176
     1
 40
0.6
176
     1
 40
30.0
176
     1
 62
     7
420
 16777215
176
     1
 90
        0
176
     1
 90
        4
176
     1
 62
     7
176
     1
 62
   257
176
     1
 90
        1
176
     1
 90
        1
176
     1
 40
1.0
176
     1
 90
        8
176
     1
 62
   257
176
     1
 40
1.0
176
     1
 90
        1
176
     1
 90
        6
176
     1
 90
        2
176
     1
 62
     8
420
  7895160
176
     1
 90
        3
176
     1
 90
        0
176
     1
 90
        0
176
     1
290
     0
176
     1
 90
        5
176
     1
 40
0.0
176
     1
 90
        0
176
     1
290
     0
176
     1
290
     1
176
     1
290
     1
176
     1
290
     0
176
     1
290
     0
176
     1
290
     0
176
     1
290
     0
176
     1
290
     0
176
     1
290
     0
176
     1
 90
       50
176
     1
 40
0.0
176
     1
 40
1.0
176
     1
 90
        0
176
     1
 62
    18
420
        0
176
     1
 90
       50
176
     1
 90
        3
176
     1
 62
     5
420
      255
176
     1
290
     0
176
     1
 90
       50
176
     1
 90
       50
176
     1
 90
       50
176
     1
290
     0
176
     1
 90
       50
176
     1
 62
   256
176
     0
 40
1.0
176
     0
 90
        2
176
     1
  1
strokes_ogs.tif
176
     1
290
     0
176
     1
 40
1.0
176
     1
 40
1.0
176
     1
  0
VISUALSTYLE
  5
1D9
102
{ACAD_REACTORS
330
174
102
}
330
174
100
AcDbVisualStyle
  2
Shaded with edges
 70
    26
177
     3
291
     0
 70
    58
 90
        2
176
     1
 90
        2
176
     1
 90
        1
176
     1
 90
        2
176
     1
 40
0.6
176
     1
 40
30.0
176
     1
 62
     7
420
 16777215
176
     1
 90
        1
176
     1
 90
       10
176
     1
 62
     7
176
     1
 62
   257
176
     1
 90
        2
176
     1
 90
        1
176
     1
 40
1.0
176
     1
 90
        8
176
     1
 62
   257
176
     1
 40
1.0
176
     1
 90
        1
176
     1
 90
        6
176
     1
 90
        2
176
     1
 62
     7
176
     1
 90
        3
176
     1
 90
        0
176
     1
 90
        0
176
     1
290
     0
176
     1
 90
        5
176
     1
 40
0.0
176
     1
 90
        0
176
     1
290
     0
176
     1
290
     1
176
     1
290
     1
176
     1
290
     0
176
     1
290
     0
176
     1
290
     0
176
     1
290
     0
176
     1
290
     0
176
     1
290
     0
176
     1
 90
       50
176
     1
 40
0.0
176
     1
 40
1.0
176
     1
 90
        0
176
     1
 62
    18
420
        0
176
     1
 90
       50
176
     1
 90
        3
176
     1
 62
     5
420
      255
176
     1
290
     0
176
     1
 90
       50
176
     1
 90
       50
176
     1
 90
       50
176
     1
290
     0
176
     1
 90
       50
176
     1
 62
   256
176
     0
 40
1.0
176
     0
 90
        2
176
     1
  1
strokes_ogs.tif
176
     1
290
     0
176
     1
 40
1.0
176
     1
 40
1.0
176
     1
  0
VISUALSTYLE
  5
1D6
102
{ACAD_REACTORS
330
174
102
}
330
174
100
AcDbVisualStyle
  2
Shades of Gray
 70
    23
177
     3
291
     0
 70
    58
 90
        2
176
     1
 90
        2
176
     1
 90
        3
176
     1
 90
        0
176
     1
 40
0.6
176
     1
 40
30.0
176
     1
 62
     7
420
 16777215
176
     1
 90
        2
176
     1
 90
        2
176
     1
 62
     7
176
     1
 62
     7
176
     1
 90
        1
176
     1
 90
        1
176
     1
 40
40.0
176
     1
 90
        8
176
     1
 62
     7
176
     1
 40
1.0
176
     1
 90
        1
176
     1
 90
        6
176
     1
 90
        2
176
     1
 62
     7
176
     1
 90
        3
176
     1
 90
        0
176
     1
 90
        0
176
     1
290
     0
176
     1
 90
        1
176
     1
 40
0.0
176
     1
 90
        0
176
     1
290
     0
176
     1
290
     1
176
     1
290
     1
176
     1
290
     0
176
     1
290
     0
176
     1
290
     0
176
     1
290
     0
176
     1
290
     0
176
     1
290
     0
176
     1
 90
       50
176
     1
 40
0.0
176
     1
 40
1.0
176
     1
 90
        0
176
     1
 62
    18
420
        0
176
     1
 90
       50
176
     1
 90
        3
176
     1
 62
     5
420
      255
176
     1
290
     0
176
     1
 90
       50
176
     1
 90
       50
176
     1
 90
       50
176
     1
290
     0
176
     1
 90
       50
176
     1
 62
   256
176
     0
 40
1.0
176
     0
 90
        2
176
     1
  1
strokes_ogs.tif
176
     1
290
     0
176
     1
 40
1.0
176
     1
 40
1.0
176
     1
  0
VISUALSTYLE
  5
1D7
102
{ACAD_REACTORS
330
174
102
}
330
174
100
AcDbVisualStyle
  2
Sketchy
 70
    24
177
     3
291
     0
 70
    58
 90
        1
176
     1
 90
        2
176
     1
 90
        2
176
     1
 90
        0
176
     1
 40
0.6
176
     1
 40
30.0
176
     1
 62
     7
420
 16777215
176
     1
 90
        2
176
     1
 90
        2
176
     1
 62
     7
176
     1
 62
     7
176
     1
 90
        1
176
     1
 90
        1
176
     1
 40
40.0
176
     1
 90
       11
176
     1
 62
     7
176
     1
 40
1.0
176
     1
 90
        1
176
     1
 90
        6
176
     1
 90
        2
176
     1
 62
     7
176
     1
 90
        6
176
     1
 90
        0
176
     1
 90
        0
176
     1
290
     0
176
     1
 90
        1
176
     1
 40
0.0
176
     1
 90
        0
176
     1
290
     0
176
     1
290
     1
176
     1
290
     1
176
     1
290
     0
176
     1
290
     0
176
     1
290
     0
176
     1
290
     0
176
     1
290
     0
176
     1
290
     0
176
     1
 90
       50
176
     1
 40
0.0
176
     1
 40
1.0
176
     1
 90
        0
176
     1
 62
    18
420
        0
176
     1
 90
       50
176
     1
 90
        3
176
     1
 62
     5
420
      255
176
     1
290
     0
176
     1
 90
       50
176
     1
 90
       50
176
     1
 90
       50
176
     1
290
     0
176
     1
 90
       50
176
     1
 62
   256
176
     0
 40
1.0
176
     0
 90
        2
176
     1
  1
strokes_ogs.tif
176
     1
290
     0
176
     1
 40
1.0
176
     1
 40
1.0
176
     1
  0
VISUALSTYLE
  5
181
102
{ACAD_REACTORS
330
174
102
}
330
174
100
AcDbVisualStyle
  2
Thicken
 70
    13
177
     3
291
     1
 70
    58
 90
        2
176
     1
 90
        2
176
     1
 90
        0
176
     1
 90
        0
176
     1
 40
-0.6
176
     1
 40
-30.0
176
     1
 62
     7
176
     1
 90
        1
176
     1
 90
        4
176
     1
 62
     7
176
     1
 62
   257
176
     1
 90
        1
176
     1
 90
        1
176
     1
 40
1.0
176
     1
 90
       12
176
     1
 62
     7
176
     1
 40
1.0
176
     1
 90
        1
176
     1
 90
        6
176
     1
 90
        2
176
     1
 62
     7
176
     1
 90
        5
176
     1
 90
        0
176
     1
 90
        0
176
     1
290
     0
176
     1
 90
        1
176
     1
 40
0.0
176
     1
 90
        0
176
     1
290
     0
176
     1
290
     1
176
     1
290
     1
176
     1
290
     0
176
     1
290
     0
176
     1
290
     0
176
     1
290
     0
176
     1
290
     0
176
     1
290
     0
176
     1
 90
       50
176
     1
 40
0.0
176
     1
 40
1.0
176
     1
 90
        0
176
     1
 62
    18
420
        0
176
     1
 90
       50
176
     1
 90
        3
176
     1
 62
     5
420
      255
176
     1
290
     0
176
     1
 90
       50
176
     1
 90
       50
176
     1
 90
       50
176
     1
290
     0
176
     1
 90
       50
176
     1
 62
   256
176
     0
 40
1.0
176
     0
 90
        2
176
     1
  1
strokes_ogs.tif
176
     1
290
     0
176
     1
 40
1.0
176
     1
 40
1.0
176
     1
  0
VISUALSTYLE
  5
1D1
102
{ACAD_REACTORS
330
174
102
}
330
174
100
AcDbVisualStyle
  2
Wireframe
 70
     5
177
     3
291
     0
 70
    58
 90
        0
176
     1
 90
        2
176
     1
 90
        0
176
     1
 90
        0
176
     1
 40
0.6
176
     1
 40
30.0
176
     1
 62
     7
420
 16777215
176
     1
 90
        1
176
     1
 90
        4
176
     1
 62
     7
176
     1
 62
   257
176
     1
 90
        1
176
     1
 90
        1
176
     1
 40
1.0
176
     1
 90
        0
176
     1
 62
   257
176
     1
 40
1.0
176
     1
 90
        1
176
     1
 90
        6
176
     1
 90
        2
176
     1
 62
     7
176
     1
 90
        3
176
     1
 90
        0
176
     1
 90
        0
176
     1
290
     0
176
     1
 90
        1
176
     1
 40
0.0
176
     1
 90
        0
176
     1
290
     0
176
     1
290
     1
176
     1
290
     1
176
     1
290
     0
176
     1
290
     0
176
     1
290
     0
176
     1
290
     0
176
     1
290
     0
176
     1
290
     0
176
     1
 90
       50
176
     1
 40
0.0
176
     1
 40
1.0
176
     1
 90
        0
176
     1
 62
    18
420
        0
176
     1
 90
       50
176
     1
 90
        3
176
     1
 62
     5
420
      255
176
     1
290
     0
176
     1
 90
       50
176
     1
 90
       50
176
     1
 90
       50
176
     1
290
     0
176
     1
 90
       50
176
     1
 62
   256
176
     0
 40
1.0
176
     0
 90
        2
176
     1
  1
strokes_ogs.tif
176
     1
290
     0
176
     1
 40
1.0
176
     1
 40
1.0
176
     1
  0
VISUALSTYLE
  5
1D8
102
{ACAD_REACTORS
330
174
102
}
330
174
100
AcDbVisualStyle
  2
X-Ray
 70
    25
177
     3
291
     0
 70
    58
 90
        2
176
     1
 90
        2
176
     1
 90
        1
176
     1
 90
        1
176
     1
 40
0.5
176
     1
 40
30.0
176
     1
 62
     7
420
 16777215
176
     1
 90
        1
176
     1
 90
        0
176
     1
 62
     7
176
     1
 62
   257
176
     1
 90
        1
176
     1
 90
        1
176
     1
 40
1.0
176
     1
 90
        8
176
     1
 62
     7
176
     1
 40
1.0
176
     1
 90
        1
176
     1
 90
        6
176
     1
 90
        2
176
     1
 62
     7
176
     1
 90
        3
176
     1
 90
        0
176
     1
 90
        0
176
     1
290
     0
176
     1
 90
       13
176
     1
 40
0.0
176
     1
 90
        0
176
     1
290
     0
176
     1
290
     1
176
     1
290
     1
176
     1
290
     0
176
     1
290
     0
176
     1
290
     0
176
     1
290
     0
176
     1
290
     0
176
     1
290
     0
176
     1
 90
       50
176
     1
 40
0.0
176
     1
 40
1.0
176
     1
 90
        0
176
     1
 62
    18
420
        0
176
     1
 90
       50
176
     1
 90
        3
176
     1
 62
     5
420
      255
176
     1
290
     0
176
     1
 90
       50
176
     1
 90
       50
176
     1
 90
       50
176
     1
290
     0
176
     1
 90
       50
176
     1
 62
   256
176
     0
 40
1.0
176
     0
 90
        2
176
     1
  1
strokes_ogs.tif
176
     1
290
     0
176
     1
 40
1.0
176
     1
 40
1.0
176
     1
  0
DICTIONARYVAR
  5
200
102
{ACAD_REACTORS
330
190
102
}
330
190
100
DictionaryVariables
280
     0
  1
1:1
  0
DICTIONARYVAR
  5
202
102
{ACAD_REACTORS
330
190
102
}
330
190
100
DictionaryVariables
280
     0
  1
Standard
  0
DICTIONARYVAR
  5
201
102
{ACAD_REACTORS
330
190
102
}
330
190
100
DictionaryVariables
280
     0
  1
Standard
  0
DICTIONARYVAR
  5
194
102
{ACAD_REACTORS
330
190
102
}
330
190
100
DictionaryVariables
280
     0
  1
2
  0
DICTIONARYVAR
  5
195
102
{ACAD_REACTORS
330
190
102
}
330
190
100
DictionaryVariables
280
     0
  1
1
  0
DICTIONARYVAR
  5
193
102
{ACAD_REACTORS
330
190
102
}
330
190
100
DictionaryVariables
280
     0
  1
0
  0
DICTIONARY
  5
26D
330
1DC
100
AcDbDictionary
280
     1
281
     1
  3
ACAD_ROUNDTRIP_2008_TABLESTYLE_CELLSTYLEMAP
360
26E
  0
CELLSTYLEMAP
  5
26E
102
{ACAD_REACTORS
330
26D
102
}
330
26D
100
AcDbCellStyleMap
 90
        3
300
CELLSTYLE
  1
TABLEFORMAT_BEGIN
 90
        5
170
     1
 91
        0
 92
    32768
 62
   257
 93
        1
300
CONTENTFORMAT
  1
CONTENTFORMAT_BEGIN
 90
        0
 91
        0
 92
        4
 93
        0
300

 40
0.0
140
1.0
 94
        5
 62
     0
340
11
144
0.25
309
CONTENTFORMAT_END
171
     1
301
MARGIN
  1
CELLMARGIN_BEGIN
 40
0.06
 40
0.06
 40
0.06
 40
0.06
 40
0.06
 40
0.06
309
CELLMARGIN_END
 94
        6
 95
        1
302
GRIDFORMAT
  1
GRIDFORMAT_BEGIN
 90
        0
 91
        1
 62
     0
 92
       -2
340
14
 93
        0
 40
0.045
309
GRIDFORMAT_END
 95
        2
302
GRIDFORMAT
  1
GRIDFORMAT_BEGIN
 90
        0
 91
        1
 62
     0
 92
       -2
340
14
 93
        0
 40
0.045
309
GRIDFORMAT_END
 95
        4
302
GRIDFORMAT
  1
GRIDFORMAT_BEGIN
 90
        0
 91
        1
 62
     0
 92
       -2
340
14
 93
        0
 40
0.045
309
GRIDFORMAT_END
 95
        8
302
GRIDFORMAT
  1
GRIDFORMAT_BEGIN
 90
        0
 91
        1
 62
     0
 92
       -2
340
14
 93
        0
 40
0.045
309
GRIDFORMAT_END
 95
       16
302
GRIDFORMAT
  1
GRIDFORMAT_BEGIN
 90
        0
 91
        1
 62
     0
 92
       -2
340
14
 93
        0
 40
0.045
309
GRIDFORMAT_END
 95
       32
302
GRIDFORMAT
  1
GRIDFORMAT_BEGIN
 90
        0
 91
        1
 62
     0
 92
       -2
340
14
 93
        0
 40
0.045
309
GRIDFORMAT_END
309
TABLEFORMAT_END
  1
CELLSTYLE_BEGIN
 90
        1
 91
        1
300
_TITLE
309
CELLSTYLE_END
300
CELLSTYLE
  1
TABLEFORMAT_BEGIN
 90
        5
170
     1
 91
        0
 92
        0
 62
   257
 93
        1
300
CONTENTFORMAT
  1
CONTENTFORMAT_BEGIN
 90
        0
 91
        0
 92
        4
 93
        0
300

 40
0.0
140
1.0
 94
        5
 62
     0
340
11
144
0.18
309
CONTENTFORMAT_END
171
     1
301
MARGIN
  1
CELLMARGIN_BEGIN
 40
0.06
 40
0.06
 40
0.06
 40
0.06
 40
0.06
 40
0.06
309
CELLMARGIN_END
 94
        6
 95
        1
302
GRIDFORMAT
  1
GRIDFORMAT_BEGIN
 90
        0
 91
        1
 62
     0
 92
       -2
340
14
 93
        0
 40
0.045
309
GRIDFORMAT_END
 95
        2
302
GRIDFORMAT
  1
GRIDFORMAT_BEGIN
 90
        0
 91
        1
 62
     0
 92
       -2
340
14
 93
        0
 40
0.045
309
GRIDFORMAT_END
 95
        4
302
GRIDFORMAT
  1
GRIDFORMAT_BEGIN
 90
        0
 91
        1
 62
     0
 92
       -2
340
14
 93
        0
 40
0.045
309
GRIDFORMAT_END
 95
        8
302
GRIDFORMAT
  1
GRIDFORMAT_BEGIN
 90
        0
 91
        1
 62
     0
 92
       -2
340
14
 93
        0
 40
0.045
309
GRIDFORMAT_END
 95
       16
302
GRIDFORMAT
  1
GRIDFORMAT_BEGIN
 90
        0
 91
        1
 62
     0
 92
       -2
340
14
 93
        0
 40
0.045
309
GRIDFORMAT_END
 95
       32
302
GRIDFORMAT
  1
GRIDFORMAT_BEGIN
 90
        0
 91
        1
 62
     0
 92
       -2
340
14
 93
        0
 40
0.045
309
GRIDFORMAT_END
309
TABLEFORMAT_END
  1
CELLSTYLE_BEGIN
 90
        2
 91
        1
300
_HEADER
309
CELLSTYLE_END
300
CELLSTYLE
  1
TABLEFORMAT_BEGIN
 90
        5
170
     1
 91
        0
 92
        0
 62
   257
 93
        1
300
CONTENTFORMAT
  1
CONTENTFORMAT_BEGIN
 90
        0
 91
        0
 92
        4
 93
        0
300

 40
0.0
140
1.0
 94
        2
 62
     0
340
11
144
0.18
309
CONTENTFORMAT_END
171
     1
301
MARGIN
  1
CELLMARGIN_BEGIN
 40
0.06
 40
0.06
 40
0.06
 40
0.06
 40
0.06
 40
0.06
309
CELLMARGIN_END
 94
        6
 95
        1
302
GRIDFORMAT
  1
GRIDFORMAT_BEGIN
 90
        0
 91
        1
 62
     0
 92
       -2
340
14
 93
        0
 40
0.045
309
GRIDFORMAT_END
 95
        2
302
GRIDFORMAT
  1
GRIDFORMAT_BEGIN
 90
        0
 91
        1
 62
     0
 92
       -2
340
14
 93
        0
 40
0.045
309
GRIDFORMAT_END
 95
        4
302
GRIDFORMAT
  1
GRIDFORMAT_BEGIN
 90
        0
 91
        1
 62
     0
 92
       -2
340
14
 93
        0
 40
0.045
309
GRIDFORMAT_END
 95
        8
302
GRIDFORMAT
  1
GRIDFORMAT_BEGIN
 90
        0
 91
        1
 62
     0
 92
       -2
340
14
 93
        0
 40
0.045
309
GRIDFORMAT_END
 95
       16
302
GRIDFORMAT
  1
GRIDFORMAT_BEGIN
 90
        0
 91
        1
 62
     0
 92
       -2
340
14
 93
        0
 40
0.045
309
GRIDFORMAT_END
 95
       32
302
GRIDFORMAT
  1
GRIDFORMAT_BEGIN
 90
        0
 91
        1
 62
     0
 92
       -2
340
14
 93
        0
 40
0.045
309
GRIDFORMAT_END
309
TABLEFORMAT_END
  1
CELLSTYLE_BEGIN
 90
        3
 91
        2
300
_DATA
309
CELLSTYLE_END
  0
ENDSEC
  0
EOF
