  0
SECTION
  2
HEADER
  9
$ACADVER
  1
AC1009
  9
$INSBASE
 10
0.0
 20
0.0
 30
0.0
  9
$EXTMIN
 10
-19.943800126328519
 20
-13.53248687487581
 30
0.0
  9
$EXTMAX
 10
129.2455365270468
 20
47.000000000000007
 30
0.0
  9
$LIMMIN
 10
0.0
 20
0.0
  9
$LIMMAX
 10
297.0
 20
210.0
  9
$ORTHOMODE
 70
     0
  9
$REGENMODE
 70
     1
  9
$FILLMODE
 70
     1
  9
$QTEXTMODE
 70
     0
  9
$MIRRTEXT
 70
     1
  9
$DRAGMODE
 70
     2
  9
$LTSCALE
 40
10.0
  9
$OSMODE
 70
    61
  9
$ATTMODE
 70
     1
  9
$TEXTSIZE
 40
3.0
  9
$TRACEWID
 40
1.0
  9
$TEXTSTYLE
  7
YOKO
  9
$CLAYER
  8
240
  9
$CELTYPE
  6
BYLAYER
  9
$CECOLOR
 62
   256
  9
$DIMSCALE
 40
1.0
  9
$DIMASZ
 40
2.2299999999999991
  9
$DIMEXO
 40
0.5
  9
$DIMDLI
 40
7.0
  9
$DIMRND
 40
0.0
  9
$DIMDLE
 40
0.0
  9
$DIMEXE
 40
1.0
  9
$DIMTP
 40
0.0
  9
$DIMTM
 40
0.01
  9
$DIMTXT
 40
2.7999999999999989
  9
$DIMCEN
 40
0.0
  9
$DIMTSZ
 40
0.0
  9
$DIMTOL
 70
     0
  9
$DIMLIM
 70
     0
  9
$DIMTIH
 70
     0
  9
$DIMTOH
 70
     0
  9
$DIMSE1
 70
     0
  9
$DIMSE2
 70
     0
  9
$DIMTAD
 70
     3
  9
$DIMZIN
 70
     9
  9
$DIMBLK
  1
OPEN
  9
$DIMASO
 70
     1
  9
$DIMSHO
 70
     1
  9
$DIMPOST
  1

  9
$DIMAPOST
  1

  9
$DIMALT
 70
     0
  9
$DIMALTD
 70
     2
  9
$DIMALTF
 40
25.399999999999999
  9
$DIMLFAC
 40
1.0
  9
$DIMTOFL
 70
     1
  9
$DIMTVP
 40
0.0
  9
$DIMTIX
 70
     1
  9
$DIMSOXD
 70
     0
  9
$DIMSAH
 70
     0
  9
$DIMBLK1
  1

  9
$DIMBLK2
  1

  9
$DIMSTYLE
  2
BIGT
  9
$DIMCLRD
 70
   256
  9
$DIMCLRE
 70
   256
  9
$DIMCLRT
 70
    40
  9
$DIMTFAC
 40
1.0
  9
$DIMGAP
 40
1.0
  9
$LUNITS
 70
     2
  9
$LUPREC
 70
     6
  9
$SKETCHINC
 40
1.0
  9
$FILLETRAD
 40
0.0
  9
$AUNITS
 70
     0
  9
$AUPREC
 70
     6
  9
$MENU
  1
.
  9
$ELEVATION
 40
0.0
  9
$PELEVATION
 40
0.0
  9
$THICKNESS
 40
0.0
  9
$LIMCHECK
 70
     0
  9
$BLIPMODE
 70
     0
  9
$CHAMFERA
 40
0.2
  9
$CHAMFERB
 40
0.2
  9
$SKPOLY
 70
     0
  9
$TDCREATE
 40
2459152.5465993402
  9
$TDUPDATE
 40
2459152.57424419
  9
$TDINDWG
 40
0.0101421759
  9
$TDUSRTIMER
 40
0.0101421296
  9
$USRTIMER
 70
     1
  9
$ANGBASE
 50
0.0
  9
$ANGDIR
 70
     0
  9
$PDMODE
 70
     1
  9
$PDSIZE
 40
0.0
  9
$PLINEWID
 40
0.0
  9
$COORDS
 70
     1
  9
$SPLFRAME
 70
     0
  9
$SPLINETYPE
 70
     6
  9
$SPLINESEGS
 70
     4
  9
$ATTDIA
 70
     1
  9
$ATTREQ
 70
     1
  9
$HANDLING
 70
     1
  9
$HANDSEED
  5
49D4
  9
$SURFTAB1
 70
     6
  9
$SURFTAB2
 70
     6
  9
$SURFTYPE
 70
     6
  9
$SURFU
 70
     6
  9
$SURFV
 70
     6
  9
$UCSNAME
  2

  9
$UCSORG
 10
0.0
 20
0.0
 30
0.0
  9
$UCSXDIR
 10
1.0
 20
0.0
 30
0.0
  9
$UCSYDIR
 10
0.0
 20
1.0
 30
0.0
  9
$PUCSNAME
  2

  9
$PUCSORG
 10
0.0
 20
0.0
 30
0.0
  9
$PUCSXDIR
 10
1.0
 20
0.0
 30
0.0
  9
$PUCSYDIR
 10
0.0
 20
1.0
 30
0.0
  9
$USERI1
 70
     1
  9
$USERI2
 70
     0
  9
$USERI3
 70
     0
  9
$USERI4
 70
     0
  9
$USERI5
 70
     0
  9
$USERR1
 40
0.0
  9
$USERR2
 40
0.0
  9
$USERR3
 40
0.0
  9
$USERR4
 40
0.0
  9
$USERR5
 40
0.0
  9
$WORLDVIEW
 70
     1
  9
$SHADEDGE
 70
     3
  9
$SHADEDIF
 70
    70
  9
$TILEMODE
 70
     1
  9
$MAXACTVP
 70
    16
  9
$PLIMCHECK
 70
     0
  9
$PEXTMIN
 10
1.0000000000000000E+020
 20
1.0000000000000000E+020
 30
1.0000000000000000E+020
  9
$PEXTMAX
 10
-1.0000000000000000E+020
 20
-1.0000000000000000E+020
 30
-1.0000000000000000E+020
  9
$PLIMMIN
 10
0.0
 20
0.0
  9
$PLIMMAX
 10
420.0
 20
297.0
  9
$UNITMODE
 70
     0
  9
$VISRETAIN
 70
     1
  9
$PLINEGEN
 70
     0
  9
$PSLTSCALE
 70
     1
  0
ENDSEC
  0
SECTION
  2
TABLES
  0
TABLE
  2
VPORT
 70
     1
  0
VPORT
  2
*ACTIVE
 70
     0
 10
0.0
 20
0.0
 11
1.0
 21
1.0
 12
62.454382686221841
 22
19.877379238947139
 13
0.0
 23
0.0
 14
7.0
 24
7.0
 15
7.0
 25
7.0
 16
0.0
 26
0.0
 36
1.0
 17
0.0
 27
0.0
 37
0.0
 40
140.2863753236299
 41
1.65906362545018
 42
50.0
 43
0.0
 44
0.0
 50
0.0
 51
0.0
 71
     0
 72
  2000
 73
     1
 74
     0
 75
     0
 76
     1
 77
     0
 78
     0
  0
ENDTAB
  0
TABLE
  2
LTYPE
 70
    16
  0
LTYPE
  2
CONTINUOUS
 70
     0
  3
Solid line
 72
    65
 73
     0
 40
0.0
  0
LTYPE
  2
CENTER2
 70
     0
  3
___ _ ___ _ ___ _ ___ _ ___ _ ___ _ ___ _ ___ _
 72
    65
 73
     4
 40
1.125
 49
0.75
 49
-0.125
 49
0.125
 49
-0.125
  0
LTYPE
  2
HIDDEN2
 70
     0
  3
_ _ _ _ _ _ _ _ _ _ _ _ _ _ _ _ _ _ _ _ _ _ _ _
 72
    65
 73
     2
 40
0.1875
 49
0.125
 49
-0.0625
  0
LTYPE
  2
PHANTOM2
 70
     0
  3
___ _ _ ___ _ _ ___ _ _ ___ _ _ ___ _ _ ___ _ _
 72
    65
 73
     6
 40
1.25
 49
0.625
 49
-0.125
 49
0.125
 49
-0.125
 49
0.125
 49
-0.125
  0
LTYPE
  2
AM_ISO02W050
 70
     0
  3
__ __ __ __ __ __ __ __ __ __ __ __ __ __ __
 72
    65
 73
     2
 40
7.5
 49
6.0
 49
-1.5
  0
LTYPE
  2
AMCONSTR
 70
     0
  3
_______________________
 72
    65
 73
     2
 40
9999.0
 49
9999.0
 49
0.0
  0
LTYPE
  2
ACISOWELD
 70
     0
  3
_ _ _ _ _
 72
    65
 73
     2
 40
2.0
 49
2.0
 49
-1.0
  0
LTYPE
  2
ACISOTGB
 70
     0
  3
__ . . __ . .
 72
    65
 73
     6
 40
9.0
 49
4.0
 49
-1.0
 49
1.0
 49
-1.0
 49
1.0
 49
-1.0
  0
LTYPE
  2
ACISOTGL
 70
     0
  3
_ _ _ _ _
 72
    65
 73
     2
 40
3.0
 49
2.0
 49
-1.0
  0
LTYPE
  2
ACJISTGB
 70
     0
  3
__ . . __ . .
 72
    65
 73
     6
 40
9.0
 49
4.0
 49
-1.0
 49
1.0
 49
-1.0
 49
1.0
 49
-1.0
  0
LTYPE
  2
ACJISTGL
 70
     0
  3
_ _ _ _ _
 72
    65
 73
     2
 40
3.0
 49
2.0
 49
-1.0
  0
ENDTAB
  0
TABLE
  2
LAYER
 70
     9
  0
LAYER
  2
0
 70
     0
 62
     7
  6
CONTINUOUS
  0
LAYER
  2
DEFPOINTS
 70
     0
 62
     7
  6
CONTINUOUS
  0
LAYER
  2
245
 70
     0
 62
     2
  6
CENTER2
  0
LAYER
  2
240
 70
     0
 62
     4
  6
CONTINUOUS
  0
LAYER
  2
241
 70
     0
 62
   211
  6
CONTINUOUS
  0
LAYER
  2
242
 70
     0
 62
     3
  6
CONTINUOUS
  0
LAYER
  2
246
 70
     0
 62
     3
  6
PHANTOM2
  0
LAYER
  2
247
 70
     0
 62
    60
  6
CONTINUOUS
  0
LAYER
  2
250
 70
     0
 62
     3
  6
CONTINUOUS
  0
ENDTAB
  0
TABLE
  2
STYLE
 70
     8
  0
STYLE
  2
STANDARD
 70
     0
 40
0.0
 41
1.0
 50
0.0
 71
     0
 42
3.0
  3
romans.shx
  4
extfont.shx
  0
STYLE
  2
ACISOTS
 70
     0
 40
1.0
 41
1.0
 50
0.0
 71
     0
 42
3.0
  3
amgdt.shx
  4
extfont.shx
  0
STYLE
  2
ACISOGDT
 70
     0
 40
0.0
 41
1.0
 50
0.0
 71
     0
 42
3.0
  3
amgdt.shx
  4
extfont.shx
  0
STYLE
  2
ACJISTS
 70
     0
 40
1.0
 41
1.0
 50
0.0
 71
     0
 42
3.0
  3
amgdt.shx
  4
extfont.shx
  0
STYLE
  2
ACJISGDT
 70
     0
 40
0.0
 41
1.0
 50
0.0
 71
     0
 42
3.0
  3
amgdt.shx
  4
extfont.shx
  0
STYLE
  2
YOKO
 70
     0
 40
0.0
 41
1.0
 50
0.0
 71
     0
 42
3.0
  3
romans.shx
  4
extfont.shx
  0
ENDTAB
  0
TABLE
  2
VIEW
 70
     0
  0
ENDTAB
  0
TABLE
  2
UCS
 70
     0
  0
ENDTAB
  0
TABLE
  2
APPID
 70
    42
  0
APPID
  2
ACAD
 70
     0
  0
APPID
  2
GLOBAL
 70
     0
  0
APPID
  2
DETAIL
 70
     0
  0
APPID
  2
GRPNAME
 70
     0
  0
APPID
  2
GPARA
 70
     0
  0
APPID
  2
MCAD_NO_VIS
 70
     0
  0
APPID
  2
ACAD_TEMP_GRAPHIC
 70
     0
  0
APPID
  2
ACATTRIBSERVICES
 70
     0
  0
APPID
  2
GENIUS_GENSCREG_15
 70
     0
  0
APPID
  2
GENIUS_GENODEF_13
 70
     0
  0
APPID
  2
GENIUS_GENOBJ-N-SDF_13
 70
     0
  0
APPID
  2
GENIUS_GENREC_14
 70
     0
  0
APPID
  2
GENIUS_GENOBJ-N-REC_13
 70
     0
  0
APPID
  2
GENIUS_GENDIMSH_14
 70
     0
  0
APPID
  2
GENIUS_GENOBJ-N-DIM_13
 70
     0
  0
APPID
  2
GENIUS_GENDIM_13
 70
     0
  0
APPID
  2
GENIUS_GENDTOL_13
 70
     0
  0
APPID
  2
GENIUS_GENOLIS_13
 70
     0
  0
APPID
  2
GENIUS_GENOENT_13
 70
     0
  0
APPID
  2
GENIUS_GENOBJ-F-FEM_13
 70
     0
  0
APPID
  2
GENIUS_GENOREF_13
 70
     0
  0
APPID
  2
GENIUS_GEFFEM_13
 70
     0
  0
APPID
  2
GENIUS_GEFFEMP_13
 70
     0
  0
APPID
  2
AD_DRAW
 70
     0
  0
APPID
  2
DESIGNERASSEMBLIES
 70
     0
  0
APPID
  2
ACADM_DIM_EDIT
 70
     0
  0
APPID
  2
AMDT_DM_ADJ
 70
     0
  0
APPID
  2
ITEMNAME
 70
     0
  0
APPID
  2
GENIUS_GENOBJ-N-FIL_13
 70
     0
  0
APPID
  2
GENIUS_GENFIL_13
 70
     0
  0
APPID
  2
GENIUS_GENOBJ-N-CHA_13
 70
     0
  0
APPID
  2
ACAD_NAV_VCDISPLAY
 70
     0
  0
APPID
  2
ACAD_DSTYLE_DIMBREAK
 70
     0
  0
APPID
  2
ACAD_DSTYLE_DIMJAG
 70
     0
  0
APPID
  2
ACAD_EXEMPT_FROM_CAD_STANDARDS
 70
     0
  0
APPID
  2
ACAECLAYERSTANDARD
 70
     0
  0
APPID
  2
ACAD_DSTYLE_DIMINSPECT
 70
     0
  0
APPID
  2
ACAD_MLEADERVER
 70
     0
  0
APPID
  2
ACAD_DSTYLE_DIMARC_LENGTH_
 70
     0
  0
APPID
  2
ACAD_DSTYLE_DIM_LINETYPE
 70
     0
  0
APPID
  2
ACAD_DSTYLE_DIM_EXT1_LINETYPE
 70
     0
  0
APPID
  2
ACAD_DSTYLE_DIM_EXT2_LINETYPE
 70
     0
  0
ENDTAB
  0
TABLE
  2
DIMSTYLE
 70
    29
  0
DIMSTYLE
  2
BIGT
 70
     0
  3

  4

  5
OPEN
  6

  7

 40
1.0
 41
2.2299999999999991
 42
0.5
 43
7.0
 44
1.0
 45
0.0
 46
0.0
 47
0.0
 48
0.01
140
2.7999999999999989
141
0.0
142
0.0
143
25.399999999999999
144
1.0
145
0.0
146
1.0
147
1.0
 71
     0
 72
     0
 73
     0
 74
     0
 75
     0
 76
     0
 77
     3
 78
     9
170
     0
171
     2
172
     1
173
     0
174
     1
175
     0
176
   256
177
   256
178
    40
  0
DIMSTYLE
  2
AM_ISO
 70
     0
  3

  4
"
  5

  6

  7

 40
1.0
 41
2.5
 42
1.0
 43
10.0
 44
1.0
 45
0.0
 46
0.0
 47
0.1
 48
0.1
140
3.5
141
0.0
142
0.0
143
0.0393701
144
1.0
145
0.0
146
0.71
147
1.5
 71
     0
 72
     0
 73
     0
 74
     0
 75
     0
 76
     0
 77
     1
 78
     8
170
     0
171
     2
172
     1
173
     0
174
     0
175
     0
176
   256
177
   256
178
     2
  0
DIMSTYLE
  2
AM_ISO$3
 70
     0
  3

  4
"
  5

  6

  7

 40
1.0
 41
2.5
 42
1.0
 43
10.0
 44
1.0
 45
0.0
 46
0.0
 47
0.1
 48
0.1
140
3.5
141
0.0
142
0.0
143
0.0393701
144
1.0
145
0.0
146
0.71
147
1.5
 71
     0
 72
     0
 73
     0
 74
     1
 75
     0
 76
     0
 77
     1
 78
     8
170
     0
171
     2
172
     0
173
     0
174
     0
175
     0
176
   256
177
   256
178
     2
  0
DIMSTYLE
  2
AM_ISO$4
 70
     0
  3

  4
"
  5

  6

  7

 40
1.0
 41
2.5
 42
1.0
 43
10.0
 44
1.0
 45
0.0
 46
0.0
 47
0.1
 48
0.1
140
3.5
141
0.0
142
0.0
143
0.0393701
144
1.0
145
0.0
146
0.71
147
1.5
 71
     0
 72
     0
 73
     0
 74
     1
 75
     0
 76
     0
 77
     1
 78
     8
170
     0
171
     2
172
     0
173
     0
174
     0
175
     0
176
   256
177
   256
178
     2
  0
DIMSTYLE
  2
AM_ISO$6
 70
     0
  3

  4
"
  5

  6

  7

 40
1.0
 41
2.5
 42
1.0
 43
10.0
 44
1.0
 45
0.0
 46
0.0
 47
0.1
 48
0.1
140
3.5
141
0.0
142
0.0
143
0.0393701
144
1.0
145
0.0
146
0.71
147
1.5
 71
     0
 72
     0
 73
     0
 74
     0
 75
     0
 76
     0
 77
     0
 78
     8
170
     0
171
     2
172
     1
173
     0
174
     0
175
     0
176
   256
177
   256
178
     2
  0
DIMSTYLE
  2
AM_ISO$7
 70
     0
  3

  4
"
  5

  6

  7

 40
1.0
 41
2.5
 42
1.0
 43
10.0
 44
1.0
 45
0.0
 46
0.0
 47
0.1
 48
0.1
140
5.0
141
0.0
142
0.0
143
0.0393701
144
1.0
145
0.0
146
0.71
147
1.5
 71
     0
 72
     0
 73
     0
 74
     0
 75
     0
 76
     0
 77
     1
 78
     8
170
     0
171
     2
172
     1
173
     0
174
     0
175
     0
176
   256
177
   256
178
     2
  0
DIMSTYLE
  2
AM_ISO$SF
 70
     0
  3

  4
"
  5

  6

  7

 40
1.0
 41
2.5
 42
1.0
 43
10.0
 44
1.0
 45
0.0
 46
0.0
 47
0.1
 48
0.1
140
3.5
141
0.0
142
0.0
143
0.0393701
144
1.0
145
0.0
146
0.71
147
1.5
 71
     0
 72
     0
 73
     0
 74
     0
 75
     1
 76
     1
 77
     1
 78
     8
170
     0
171
     2
172
     1
173
     0
174
     0
175
     0
176
   256
177
   256
178
     2
  0
DIMSTYLE
  2
AM_ISO$SH
 70
     0
  3

  4
"
  5

  6
GENAXEH
  7

 40
1.0
 41
2.5
 42
1.0
 43
10.0
 44
1.0
 45
0.0
 46
0.0
 47
0.1
 48
0.1
140
3.5
141
0.0
142
0.0
143
0.0393701
144
2.0
145
0.0
146
0.71
147
1.5
 71
     0
 72
     0
 73
     0
 74
     0
 75
     1
 76
     1
 77
     1
 78
     8
170
     0
171
     2
172
     1
173
     1
174
     0
175
     0
176
   256
177
   256
178
     2
  0
DIMSTYLE
  2
BIGT$2
 70
     0
  3

  4

  5
OPEN
  6

  7

 40
1.0
 41
2.2299999999999991
 42
0.5
 43
7.0
 44
1.0
 45
0.0
 46
0.0
 47
0.0
 48
0.01
140
2.7999999999999989
141
0.0
142
0.0
143
25.399999999999999
144
1.0
145
0.0
146
1.0
147
1.0
 71
     0
 72
     0
 73
     0
 74
     0
 75
     0
 76
     0
 77
     3
 78
     9
170
     0
171
     2
172
     1
173
     0
174
     0
175
     0
176
   256
177
   256
178
    40
  0
DIMSTYLE
  2
BIGT$3
 70
     0
  3

  4

  5
OPEN
  6

  7

 40
1.0
 41
2.2299999999999991
 42
0.5
 43
2.5
 44
1.0
 45
0.0
 46
0.0
 47
0.0
 48
0.01
140
2.7999999999999989
141
0.0
142
0.0
143
25.399999999999999
144
1.0
145
0.0
146
1.0
147
1.0
 71
     0
 72
     0
 73
     0
 74
     0
 75
     0
 76
     0
 77
     3
 78
     9
170
     0
171
     2
172
     1
173
     0
174
     0
175
     0
176
   256
177
   256
178
    40
  0
DIMSTYLE
  2
BIGT$7
 70
     0
  3

  4

  5
OPEN
  6

  7

 40
0.0
 41
2.2299999999999991
 42
0.5
 43
7.0
 44
1.0
 45
0.0
 46
0.0
 47
0.0
 48
0.01
140
2.7999999999999989
141
0.0
142
0.0
143
25.399999999999999
144
1.0
145
0.0
146
1.0
147
1.0
 71
     0
 72
     0
 73
     0
 74
     0
 75
     0
 76
     0
 77
     3
 78
     9
170
     0
171
     2
172
     0
173
     0
174
     0
175
     0
176
   256
177
   256
178
    40
  0
DIMSTYLE
  2
BIGT$6
 70
     0
  3

  4

  5
OPEN
  6

  7

 40
1.0
 41
2.2299999999999991
 42
0.5
 43
2.5
 44
1.0
 45
0.0
 46
0.0
 47
0.0
 48
0.01
140
2.7999999999999989
141
0.0
142
0.0
143
25.399999999999999
144
1.0
145
0.0
146
1.0
147
1.0
 71
     0
 72
     0
 73
     0
 74
     0
 75
     0
 76
     0
 77
     3
 78
     9
170
     0
171
     2
172
     1
173
     0
174
     0
175
     0
176
   256
177
   256
178
    40
  0
DIMSTYLE
  2
BIGT$0
 70
     0
  3

  4

  5
OPEN
  6

  7

 40
1.0
 41
2.2299999999999991
 42
0.5
 43
7.0
 44
1.0
 45
0.0
 46
0.0
 47
0.0
 48
0.01
140
2.7999999999999989
141
0.0
142
0.0
143
25.399999999999999
144
1.0
145
0.0
146
1.0
147
1.0
 71
     0
 72
     0
 73
     0
 74
     0
 75
     0
 76
     0
 77
     3
 78
     9
170
     0
171
     2
172
     1
173
     0
174
     1
175
     0
176
   256
177
   256
178
    40
  0
DIMSTYLE
  2
BIGT$4
 70
     0
  3

  4

  5
OPEN
  6

  7

 40
1.0
 41
2.2299999999999991
 42
0.5
 43
2.5
 44
1.0
 45
0.0
 46
0.0
 47
0.0
 48
0.01
140
2.7999999999999989
141
0.0
142
0.0
143
25.399999999999999
144
1.0
145
0.0
146
1.0
147
1.0
 71
     0
 72
     0
 73
     0
 74
     0
 75
     0
 76
     0
 77
     3
 78
     9
170
     0
171
     2
172
     1
173
     0
174
     0
175
     0
176
   256
177
   256
178
    40
  0
DIMSTYLE
  2
BIGT$SH
 70
     0
  3

  4

  5
OPEN
  6

  7

 40
1.0
 41
2.2299999999999991
 42
0.5
 43
7.0
 44
1.0
 45
0.0
 46
0.0
 47
0.0
 48
0.0
140
2.7999999999999989
141
0.0
142
0.0
143
25.399999999999999
144
1.0
145
0.0
146
1.0
147
1.0
 71
     0
 72
     0
 73
     0
 74
     0
 75
     0
 76
     0
 77
     3
 78
     9
170
     0
171
     2
172
     1
173
     0
174
     0
175
     0
176
   256
177
   256
178
    40
  0
DIMSTYLE
  2
BIGT$SF
 70
     0
  3

  4

  5
OPEN
  6

  7

 40
1.0
 41
2.2299999999999991
 42
0.5
 43
7.0
 44
1.0
 45
0.0
 46
0.0
 47
0.0
 48
0.0
140
2.7999999999999989
141
0.0
142
0.0
143
25.399999999999999
144
1.0
145
0.0
146
1.0
147
1.0
 71
     0
 72
     0
 73
     0
 74
     0
 75
     0
 76
     0
 77
     3
 78
     9
170
     0
171
     2
172
     1
173
     0
174
     0
175
     0
176
   256
177
   256
178
    40
  0
DIMSTYLE
  2
TECHNICAL_OSAKA
 70
     0
  3

  4
"
  5
OPEN30
  6

  7

 40
1.0
 41
2.5
 42
1.0
 43
10.0
 44
1.0
 45
0.0
 46
0.0
 47
0.1
 48
0.1
140
2.7999999999999989
141
0.0
142
0.0
143
0.0393701
144
1.0
145
0.0
146
0.71
147
1.5
 71
     0
 72
     0
 73
     0
 74
     0
 75
     0
 76
     0
 77
     3
 78
     8
170
     0
171
     2
172
     1
173
     0
174
     0
175
     0
176
   256
177
   256
178
    40
  0
DIMSTYLE
  2
TECHNICAL_OSAKA$3
 70
     0
  3

  4
"
  5
OPEN30
  6

  7

 40
1.0
 41
2.5
 42
1.0
 43
10.0
 44
1.0
 45
0.0
 46
0.0
 47
0.1
 48
0.1
140
2.7999999999999989
141
0.0
142
0.0
143
0.0393701
144
1.0
145
0.0
146
0.71
147
1.5
 71
     0
 72
     0
 73
     0
 74
     1
 75
     0
 76
     0
 77
     3
 78
     8
170
     0
171
     2
172
     0
173
     0
174
     0
175
     0
176
   256
177
   256
178
    40
  0
DIMSTYLE
  2
TECHNICAL_OSAKA$4
 70
     0
  3

  4
"
  5
OPEN30
  6

  7

 40
1.0
 41
2.5
 42
1.0
 43
10.0
 44
1.0
 45
0.0
 46
0.0
 47
0.1
 48
0.1
140
2.7999999999999989
141
0.0
142
0.0
143
0.0393701
144
1.0
145
0.0
146
0.71
147
1.5
 71
     0
 72
     0
 73
     0
 74
     1
 75
     0
 76
     0
 77
     3
 78
     8
170
     0
171
     2
172
     0
173
     0
174
     0
175
     0
176
   256
177
   256
178
    40
  0
DIMSTYLE
  2
TECHNICAL_OSAKA$6
 70
     0
  3

  4
"
  5
OPEN30
  6

  7

 40
1.0
 41
2.5
 42
1.0
 43
10.0
 44
1.0
 45
0.0
 46
0.0
 47
0.1
 48
0.1
140
2.7999999999999989
141
0.0
142
0.0
143
0.0393701
144
1.0
145
0.0
146
0.71
147
1.5
 71
     0
 72
     0
 73
     0
 74
     0
 75
     0
 76
     0
 77
     0
 78
     8
170
     0
171
     2
172
     1
173
     0
174
     0
175
     0
176
   256
177
   256
178
    40
  0
DIMSTYLE
  2
TECHNICAL_OSAKA$7
 70
     0
  3

  4
"
  5
OPEN30
  6

  7

 40
1.0
 41
2.5
 42
1.0
 43
10.0
 44
1.0
 45
0.0
 46
0.0
 47
0.1
 48
0.1
140
2.7999999999999989
141
0.0
142
0.0
143
0.0393701
144
1.0
145
0.0
146
0.71
147
1.5
 71
     0
 72
     0
 73
     0
 74
     0
 75
     0
 76
     0
 77
     3
 78
     8
170
     0
171
     2
172
     1
173
     0
174
     0
175
     0
176
   256
177
   256
178
    40
  0
DIMSTYLE
  2
TECHNICAL_OSAKA$SF
 70
     0
  3

  4
"
  5
OPEN30
  6
OPEN30
  7
OPEN30
 40
1.0
 41
2.5
 42
1.0
 43
10.0
 44
1.0
 45
0.0
 46
0.0
 47
0.1
 48
0.1
140
3.5
141
0.0
142
0.0
143
0.0393701
144
1.0
145
0.0
146
0.71
147
1.5
 71
     0
 72
     0
 73
     0
 74
     0
 75
     1
 76
     1
 77
     3
 78
     8
170
     0
171
     2
172
     1
173
     0
174
     0
175
     0
176
   256
177
   256
178
    40
  0
DIMSTYLE
  2
TECHNICAL_OSAKA$SH
 70
     0
  3

  4
"
  5
OPEN30
  6
GENAXEH
  7
OPEN30
 40
1.0
 41
2.5
 42
1.0
 43
10.0
 44
1.0
 45
0.0
 46
0.0
 47
0.1
 48
0.1
140
3.5
141
0.0
142
0.0
143
0.0393701
144
2.0
145
0.0
146
0.71
147
1.5
 71
     0
 72
     0
 73
     0
 74
     0
 75
     1
 76
     1
 77
     3
 78
     8
170
     0
171
     2
172
     1
173
     1
174
     0
175
     0
176
   256
177
   256
178
    40
  0
ENDTAB
  0
ENDSEC
  0
SECTION
  2
BLOCKS
  0
BLOCK
  8
0
  2
$MODEL_SPACE
 70
     0
 10
0.0
 20
0.0
 30
0.0
  3
$MODEL_SPACE
  1

  0
ENDBLK
  5
1C
  8
0
  0
BLOCK
 67
     1
  8
0
  2
$PAPER_SPACE
 70
     0
 10
0.0
 20
0.0
 30
0.0
  3
$PAPER_SPACE
  1

  0
ENDBLK
  5
19
 67
     1
  8
0
  0
BLOCK
  8
0
  2
_OPEN
 70
     0
 10
0.0
 20
0.0
 30
0.0
  3
_OPEN
  1

  0
LINE
  5
48CC
  8
0
  6
BYBLOCK
 62
     0
 10
-1.0
 20
0.1666666666666666
 30
0.0
 11
0.0
 21
0.0
 31
0.0
  0
LINE
  5
48CD
  8
0
  6
BYBLOCK
 62
     0
 10
-1.0
 20
-0.1666666666666666
 30
0.0
 11
0.0
 21
0.0
 31
0.0
  0
LINE
  5
48CE
  8
0
  6
BYBLOCK
 62
     0
 10
0.0
 20
0.0
 30
0.0
 11
-1.0
 21
0.0
 31
0.0
  0
ENDBLK
  5
48CF
  8
0
  0
BLOCK
  8
0
  2
GENAXEH
 70
     0
 10
0.0
 20
0.0
 30
0.0
  3
GENAXEH
  1

  0
LINE
  5
4907
  8
0
 10
-1.0
 20
0.0
 30
0.0
 11
1.0
 21
0.0
 31
0.0
  0
ENDBLK
  5
4908
  8
0
  0
BLOCK
  8
0
  2
_OPEN30
 70
     0
 10
0.0
 20
0.0
 30
0.0
  3
_OPEN30
  1

  0
LINE
  5
4943
  8
0
  6
BYBLOCK
 62
     0
 10
-1.0
 20
0.26794919
 30
0.0
 11
0.0
 21
0.0
 31
0.0
  0
LINE
  5
4944
  8
0
  6
BYBLOCK
 62
     0
 10
0.0
 20
0.0
 30
0.0
 11
-1.0
 21
-0.26794919
 31
0.0
  0
LINE
  5
4945
  8
0
  6
BYBLOCK
 62
     0
 10
0.0
 20
0.0
 30
0.0
 11
-1.0
 21
0.0
 31
0.0
  0
ENDBLK
  5
4946
  8
0
  0
ENDSEC
  0
SECTION
  2
ENTITIES
  0
LINE
  5
4290
  8
240
  6
CONTINUOUS
 10
80.658048391342163
 20
9.5000006031939392
 30
0.0
 11
0.0
 21
9.5000006031939392
 31
0.0
  0
LINE
  5
4291
  8
240
  6
CONTINUOUS
 10
0.0
 20
-9.4999999500116701
 30
0.0
 11
81.083416938781724
 21
-9.4999999500116701
 31
0.0
  0
CIRCLE
  5
42A2
  8
241
  6
CONTINUOUS
 10
88.699996869506037
 20
0.000000000000739
 30
0.0
 40
1.9999999999999989
  0
LINE
  5
42D6
  8
240
  6
CONTINUOUS
 10
0.0
 20
-9.4999999500116701
 30
0.0
 11
0.0
 21
-5.499999999999857
 31
0.0
  0
LINE
  5
42D7
  8
241
  6
CONTINUOUS
 10
0.0
 20
-5.499999999999857
 30
0.0
 11
0.0
 21
5.4999999999999831
 31
0.0
  0
LINE
  5
42D8
  8
240
  6
CONTINUOUS
 10
0.0
 20
5.4999999999999831
 30
0.0
 11
0.0
 21
9.5000006031939392
 31
0.0
  0
LINE
  5
42D9
  8
241
  6
CONTINUOUS
 10
78.999996185302734
 20
-0.0000000226548309
 30
0.0
 11
78.999996185302734
 21
-9.4999999500116701
 31
0.0
  0
LINE
  5
42DA
  8
241
  6
CONTINUOUS
 10
78.999996185302734
 20
9.5000006031939392
 30
0.0
 11
78.999996185302734
 21
-0.0000000226548309
 31
0.0
  0
POLYLINE
  5
42ED
  8
240
  6
CONTINUOUS
 66
     1
 10
0.0
 20
0.0
 30
0.0
 70
   128
  0
VERTEX
  5
49C5
  8
240
  6
CONTINUOUS
 10
82.199990749359131
 20
-7.4000000248900051
 30
0.0
  0
VERTEX
  5
49C6
  8
240
  6
CONTINUOUS
 10
81.808000802993774
 20
-8.1372286885282392
 30
0.0
  0
VERTEX
  5
49C7
  8
240
  6
CONTINUOUS
 10
81.495404243469224
 20
-8.7251474841734762
 30
0.0
  0
VERTEX
  5
49C8
  8
240
  6
CONTINUOUS
 10
81.267923116683946
 20
-9.1529686696133012
 30
0.0
  0
VERTEX
  5
49C9
  8
240
  6
CONTINUOUS
 10
81.129759550094604
 20
-9.4128423596969242
 30
0.0
  0
VERTEX
  5
49CA
  8
240
  6
CONTINUOUS
 10
81.083416938781724
 20
-9.4999999500116701
 30
0.0
  0
SEQEND
  5
49CB
  8
240
  6
CONTINUOUS
  0
POLYLINE
  5
42EE
  8
240
  6
CONTINUOUS
 66
     1
 10
0.0
 20
0.0
 30
0.0
 70
   128
  0
VERTEX
  5
49CC
  8
240
  6
CONTINUOUS
 10
80.658048391342163
 20
9.5000006031939392
 30
0.0
  0
VERTEX
  5
49CD
  8
240
  6
CONTINUOUS
 10
80.703169107437134
 20
9.4151030999371415
 30
0.0
  0
VERTEX
  5
49CE
  8
240
  6
CONTINUOUS
 10
80.837786197662354
 20
9.1619267833182221
 30
0.0
  0
VERTEX
  5
49CF
  8
240
  6
CONTINUOUS
 10
81.059485673904405
 20
8.7449978810498123
 30
0.0
  0
VERTEX
  5
49D0
  8
240
  6
CONTINUOUS
 10
81.364274024963365
 20
8.1717688363739853
 30
0.0
  0
VERTEX
  5
49D1
  8
240
  6
CONTINUOUS
 10
81.746727228164673
 20
7.4524841976115113
 30
0.0
  0
VERTEX
  5
49D2
  8
240
  6
CONTINUOUS
 10
82.199990749359131
 20
6.5999999415823822
 30
0.0
  0
SEQEND
  5
49D3
  8
240
  6
CONTINUOUS
  0
LINE
  5
42F2
  8
241
  6
CONTINUOUS
 10
78.999996185302763
 20
-9.4999999500116701
 30
0.0
 11
78.999996185302734
 21
9.5000006031938824
 31
0.0
  0
TEXT
  5
4408
  8
241
  6
CONTINUOUS
 10
-13.69999999999987
 20
42.0
 30
0.0
 40
5.0
  1
CK1-EWN20DP-100
  7
YOKO
 11
-13.69999999999987
 21
42.0
 31
0.0
 73
     1
  0
LINE
  5
4409
  8
245
  6
CENTER2
 10
-14.659378
 20
0.0
 30
0.0
 11
99.499730170169414
 21
0.0
 31
0.0
  0
CIRCLE
  5
440C
  8
241
  6
CONTINUOUS
 10
-5.0000000000001661
 20
0.0
 30
0.0
 40
1.978
  0
LINE
  5
440F
  8
240
  6
CONTINUOUS
 10
-13.0
 20
-5.5000000000000844
 30
0.0
 11
-13.0
 21
5.4999999999999591
 31
0.0
  0
LINE
  5
4410
  8
245
  6
CENTER2
 10
-5.0000000000001661
 20
2.7973150000000202
 30
0.0
 11
-5.0000000000001661
 21
-2.7973139999999681
 31
0.0
  0
LINE
  5
4411
  8
240
  6
CONTINUOUS
 10
-13.0
 20
-5.5000000000000844
 30
0.0
 11
0.0
 21
-5.499999999999857
 31
0.0
  0
CIRCLE
  5
4413
  8
241
  6
CONTINUOUS
 10
-5.0000000000001661
 20
0.0
 30
0.0
 40
1.5
  0
LINE
  5
4414
  8
240
  6
CONTINUOUS
 10
-13.0
 20
5.4999999999999591
 30
0.0
 11
0.0
 21
5.4999999999999831
 31
0.0
  0
LINE
  5
441A
  8
250
  6
CONTINUOUS
 10
-19.943800126328519
 20
-13.53248687487581
 30
0.0
 11
-11.9550296317052
 21
-13.53248687487581
 31
0.0
  0
LINE
  5
441B
  8
250
  6
CONTINUOUS
 10
-11.9550296317052
 20
-13.53248687487581
 30
0.0
 11
-8.6368502156753095
 21
-7.4571187910718351
 31
0.0
  0
LINE
  5
441C
  8
250
  6
CONTINUOUS
 10
-8.6368502156753095
 20
-7.4571187910718351
 30
0.0
 11
-7.5679320534042063
 21
-5.4999999999998792
 31
0.0
  0
LINE
  5
441D
  8
250
  6
CONTINUOUS
 10
-8.3791906399050671
 20
-7.5978445362234801
 30
0.0
 11
-7.5679320534042063
 21
-5.4999999999998792
 31
0.0
  0
LINE
  5
441E
  8
250
  6
CONTINUOUS
 10
-7.5679320534042063
 20
-5.4999999999998792
 30
0.0
 11
-8.8945097914455555
 21
-7.3163930459201953
 31
0.0
  0
TEXT
  5
441F
  8
250
  6
CONTINUOUS
 10
-20.343800126328521
 20
-12.1324868748758
 30
0.0
 40
2.799999999999998
  1
CK1
  7
YOKO
  0
LINE
  5
4420
  8
247
  6
CONTINUOUS
 10
3.9999999999999512
 20
-6.5000000000006271
 30
0.0
 11
4.0
 21
-2.792307692536645
 31
0.0
  0
LINE
  5
4421
  8
247
  6
CONTINUOUS
 10
2.0
 20
-5.8639147999909804
 30
0.0
 11
3.679999999932805
 21
-6.3456470480465121
 31
0.0
  0
LINE
  5
4422
  8
247
  6
CONTINUOUS
 10
2.796923076891197
 20
-5.3601211228158521
 30
0.0
 11
2.796923076891197
 21
-6.0924288150942543
 31
0.0
  0
ARC
  5
4423
  8
247
  6
CONTINUOUS
 10
2.307775253835278
 20
-5.1698107215580684
 30
0.0
 40
0.3101372647461394
 50
72.997889675292015
 51
172.92416621851231
  0
ARC
  5
4424
  8
247
  6
CONTINUOUS
 10
2.2441785048224121
 20
-5.4059820454439107
 30
0.0
 40
0.5546438372287014
 50
4.7429368522013924
 51
73.849226273266339
1001
GENIUS_GENOBJ-N-FIL_13
1002
{
1000
OWNER
1000
GEN
1002
}
1001
GENIUS_GENODEF_13
1002
{
1000
HIER
1070
     0
1002
}
1002
{
1000
MANEDIT
1070
     0
1002
}
1002
{
1000
NOSEL
1070
     0
1002
}
1002
{
1000
BEHIND
1070
     0
1002
}
1002
{
1000
OTHER
1070
     0
1002
}
1002
{
1000
REACTOR
1002
}
  0
LINE
  5
4425
  8
247
  6
CONTINUOUS
 10
3.679999999932805
 20
-5.6133393557681091
 30
0.0
 11
3.679999999932805
 21
-6.3456470480465121
 31
0.0
  0
LINE
  5
4426
  8
247
  6
CONTINUOUS
 10
2.0
 20
-5.8639147999909831
 30
0.0
 11
2.0
 21
-5.1316071077125844
 31
0.0
  0
ARC
  5
4427
  8
247
  6
CONTINUOUS
 10
3.1099335702142992
 20
-5.4026451810140861
 30
0.0
 40
0.3158858408603088
 50
65.990941652528861
 51
172.26344345906949
  0
ARC
  5
4428
  8
247
  6
CONTINUOUS
 10
3.1129602618660561
 20
-5.6699572883421521
 30
0.0
 40
0.5698593289889349
 50
5.701985164258085
 51
77.277338436822262
1001
GENIUS_GENOBJ-N-FIL_13
1002
{
1000
OWNER
1000
GEN
1002
}
1001
GENIUS_GENODEF_13
1002
{
1000
HIER
1070
     0
1002
}
1002
{
1000
MANEDIT
1070
     0
1002
}
1002
{
1000
NOSEL
1070
     0
1002
}
1002
{
1000
BEHIND
1070
     0
1002
}
1002
{
1000
OTHER
1070
     0
1002
}
1002
{
1000
REACTOR
1002
}
  0
LINE
  5
4429
  8
247
  6
CONTINUOUS
 10
3.679999999932805
 20
-4.8471855096513181
 30
0.0
 11
2.0
 21
-4.3654532615957962
 31
0.0
  0
LINE
  5
442A
  8
247
  6
CONTINUOUS
 10
2.0
 20
-3.1685301847269911
 30
0.0
 11
2.0
 21
-3.4853426914434902
 31
0.0
  0
LINE
  5
442B
  8
247
  6
CONTINUOUS
 10
3.679999999932805
 20
-3.9869917231557901
 30
0.0
 11
3.679999999932805
 21
-3.6423763385541981
 31
0.0
  0
ARC
  5
442C
  8
247
  6
CONTINUOUS
 10
3.1666396760666871
 20
-3.0054532616565921
 30
0.0
 40
1.261484046111637
 50
202.35948814152729
 51
254.993248542846
  0
ARC
  5
442D
  8
247
  6
CONTINUOUS
 10
2.452655086830509
 20
-3.3780090929072002
 30
0.0
 40
0.4987765437607558
 50
94.994589319075374
 51
155.16632895730359
1001
GENIUS_GENOBJ-N-FIL_13
1002
{
1000
OWNER
1000
GEN
1002
}
1001
GENIUS_GENODEF_13
1002
{
1000
HIER
1070
     0
1002
}
1002
{
1000
MANEDIT
1070
     0
1002
}
1002
{
1000
NOSEL
1070
     0
1002
}
1002
{
1000
BEHIND
1070
     0
1002
}
1002
{
1000
OTHER
1070
     0
1002
}
1002
{
1000
REACTOR
1002
}
  0
ARC
  5
442E
  8
247
  6
CONTINUOUS
 10
2.9296816975755511
 20
-3.855347160826843
 30
0.0
 40
0.7799577719285588
 50
15.846096555779919
 51
82.325137004169164
  0
ARC
  5
442F
  8
247
  6
CONTINUOUS
 10
3.0971763215768542
 20
-3.528169311018396
 30
0.0
 40
0.7417556510953607
 50
249.71360167049701
 51
321.78874565640962
1001
GENIUS_GENOBJ-N-FIL_13
1002
{
1000
OWNER
1000
GEN
1002
}
1001
GENIUS_GENODEF_13
1002
{
1000
HIER
1070
     0
1002
}
1002
{
1000
MANEDIT
1070
     0
1002
}
1002
{
1000
NOSEL
1070
     0
1002
}
1002
{
1000
BEHIND
1070
     0
1002
}
1002
{
1000
OTHER
1070
     0
1002
}
1002
{
1000
REACTOR
1002
}
  0
LINE
  5
4430
  8
247
  6
CONTINUOUS
 10
3.0338461538047801
 20
-3.470068646253393
 30
0.0
 11
3.0338461538047801
 21
-3.082376338576593
 31
0.0
  0
ARC
  5
4431
  8
247
  6
CONTINUOUS
 10
3.0
 20
-6.5000000000006271
 30
0.0
 40
1.0
 50
180.0
 51
0.0
  0
LINE
  5
4432
  8
247
  6
CONTINUOUS
 10
2.0
 20
-6.5000000000006271
 30
0.0
 11
2.0
 21
-6.1430769231318232
 31
0.0
  0
ARC
  5
4433
  8
247
  6
CONTINUOUS
 10
3.0
 20
-2.792307692536633
 30
0.0
 40
1.0
 50
0.0
 51
180.0
  0
LINE
  5
45D8
  8
250
  6
CONTINUOUS
 10
104.6741079556183
 20
27.737945086537142
 30
0.0
 11
129.2455365270468
 21
27.737945086537142
 31
0.0
1001
ITEMNAME
1000
LNSP2
  0
LINE
  5
45D9
  8
250
  6
CONTINUOUS
 10
100.2091987695581
 20
13.000000304838411
 30
0.0
 11
110.79999502642831
 21
13.0000003048384
 31
0.0
  0
LINE
  5
45DA
  8
250
  6
CONTINUOUS
 10
109.79999502642831
 20
10.770000304838399
 30
0.0
 11
109.79999502642831
 21
-13.000000304836931
 31
0.0
  0
TEXT
  5
45DB
  8
250
  6
CONTINUOUS
 10
109.1026793841897
 20
28.737945086537142
 30
0.0
 40
3.0
  1
ENH1-1
  7
YOKO
1001
ITEMNAME
1000
LNSP3
1001
ACAD
1000
MTEXTBEGIN
1070
    73
1070
     1
1070
    44
1040
1.0
1070
    74
1070
     0
1000
MTEXTEND
  0
LINE
  5
45DC
  8
250
  6
CONTINUOUS
 10
97.071248744703666
 20
14.56940665044004
 30
0.0
 11
104.6741079556183
 21
27.737945086537142
 31
0.0
1001
ACAD
1000
DSTYLE
1002
{
1070
     6
1000
OPEN
1070
    41
1040
2.2299999999999991
1070
    78
1070
     8
1070
    79
1070
     2
1070
   140
1040
3.0
1070
   173
1070
     1
1070
   179
1070
     3
1070
   371
1070
    -1
1070
   372
1070
    -1
1002
}
  0
LINE
  5
45DD
  8
250
  6
CONTINUOUS
 10
97.393121519776884
 20
14.3835733171067
 30
0.0
 11
95.956248744703672
 21
12.63817000000074
 31
0.0
  0
LINE
  5
45DE
  8
250
  6
CONTINUOUS
 10
96.749375969630464
 20
14.755239983773359
 30
0.0
 11
95.956248744703672
 21
12.63817000000074
 31
0.0
  0
LINE
  5
45DF
  8
250
  6
CONTINUOUS
 10
95.956248744703672
 20
12.63817000000074
 30
0.0
 11
97.071248744703666
 21
14.56940665044003
 31
0.0
  0
TEXT
  5
45E0
  8
250
  6
CONTINUOUS
 10
107.63427966391539
 20
-12.230572575965031
 30
0.0
 40
3.0
  1
(
 50
90.0
  0
TEXT
  5
45E1
  8
250
  6
CONTINUOUS
 10
107.63427966391539
 20
-10.230572575965031
 30
0.0
 40
3.0
  1
\U+2205
 50
90.0
  0
TEXT
  5
45E2
  8
250
  6
CONTINUOUS
 10
107.63427966391539
 20
-7.516286861679319
 30
0.0
 40
3.0
  1
20~
 50
90.0
  0
TEXT
  5
45E3
  8
250
  6
CONTINUOUS
 10
107.63427966391539
 20
1.912284566892106
 30
0.0
 40
3.0
  1
\U+2205
 50
90.0
  0
TEXT
  5
45E4
  8
250
  6
CONTINUOUS
 10
107.63427966391539
 20
4.6265702811778242
 30
0.0
 40
3.0
  1
26)
 50
90.0
  0
LINE
  5
45E5
  8
250
  6
CONTINUOUS
 10
109.42832835976159
 20
10.770000304838399
 30
0.0
 11
109.79999502642831
 21
13.0000003048384
 31
0.0
  0
LINE
  5
45E6
  8
250
  6
CONTINUOUS
 10
110.171661693095
 20
10.770000304838399
 30
0.0
 11
109.79999502642831
 21
13.0000003048384
 31
0.0
  0
LINE
  5
45E7
  8
250
  6
CONTINUOUS
 10
109.79999502642831
 20
13.0000003048384
 30
0.0
 11
109.79999502642831
 21
10.770000304838399
 31
0.0
  0
LINE
  5
45E8
  8
245
  6
CENTER2
 10
88.699996869506037
 20
-9.6527319999992152
 30
0.0
 11
88.699996869506037
 21
13.53795100000081
 31
0.0
  0
LINE
  5
45EA
  8
240
  6
CONTINUOUS
 10
88.699996869506037
 20
-8.4583989999991882
 30
0.0
 11
90.199996869506052
 21
-8.4583989999991882
 31
0.0
  0
LINE
  5
45EB
  8
241
  6
CONTINUOUS
 10
94.149996869506026
 20
-7.3999999999992383
 30
0.0
 11
83.249996869506063
 21
-7.3999999999992383
 31
0.0
  0
LINE
  5
45EC
  8
240
  6
CONTINUOUS
 10
83.249996869506063
 20
-7.3999999999992383
 30
0.0
 11
82.199996869506066
 21
-7.3999999999992383
 31
0.0
  0
LINE
  5
45EE
  8
240
  6
CONTINUOUS
 10
87.199996869506066
 20
-8.4583989999991882
 30
0.0
 11
83.249996869506063
 21
-7.3999999999992383
 31
0.0
  0
LINE
  5
45EF
  8
240
  6
CONTINUOUS
 10
88.699996869506037
 20
-8.4583989999991882
 30
0.0
 11
87.199996869506066
 21
-8.4583989999991882
 31
0.0
  0
LINE
  5
45F0
  8
240
  6
CONTINUOUS
 10
90.199996869506052
 20
-8.4583989999991882
 30
0.0
 11
94.149996869506026
 21
-7.3999999999992383
 31
0.0
  0
LINE
  5
45F1
  8
240
  6
CONTINUOUS
 10
96.699996869506052
 20
-7.3999999999992383
 30
0.0
 11
94.149996869506026
 21
-7.3999999999992383
 31
0.0
  0
CIRCLE
  5
45F2
  8
242
  6
CONTINUOUS
 10
88.699996869506037
 20
0.000000000000739
 30
0.0
 40
1.649999999999999
  0
LINE
  5
45F3
  8
241
  6
CONTINUOUS
 10
88.862690869506025
 20
6.6000000000007599
 30
0.0
 11
93.199996869506052
 21
5.4378220000007751
 31
0.0
  0
LINE
  5
45F5
  8
241
  6
CONTINUOUS
 10
89.915920869506053
 20
9.4717990000007717
 30
0.0
 11
87.484073869506034
 21
9.4717990000007717
 31
0.0
  0
LINE
  5
45F6
  8
241
  6
CONTINUOUS
 10
88.699996869506037
 20
1.154701000000782
 30
0.0
 11
89.699996869506066
 21
0.5773500000007629
 31
0.0
  0
LINE
  5
45F7
  8
241
  6
CONTINUOUS
 10
89.699996869506066
 20
-0.5773499999992851
 30
0.0
 11
88.699996869506037
 21
-1.1546999999992511
 31
0.0
  0
LINE
  5
45F8
  8
241
  6
CONTINUOUS
 10
87.699996869506052
 20
-0.5773499999992851
 30
0.0
 11
87.699996869506052
 21
0.5773500000007629
 31
0.0
  0
LINE
  5
45F9
  8
241
  6
CONTINUOUS
 10
87.699996869506052
 20
0.5773500000007629
 30
0.0
 11
88.699996869506037
 21
1.154701000000782
 31
0.0
  0
LINE
  5
45FA
  8
241
  6
CONTINUOUS
 10
88.699996869506037
 20
-1.1546999999992511
 30
0.0
 11
87.699996869506052
 21
-0.5773499999992851
 31
0.0
  0
LINE
  5
45FB
  8
240
  6
CONTINUOUS
 10
84.199996869506052
 20
6.6000000000007599
 30
0.0
 11
82.199990718298224
 21
6.6000000000007599
 31
0.0
  0
LINE
  5
45FC
  8
241
  6
CONTINUOUS
 10
88.862690869506025
 20
6.6000000000007599
 30
0.0
 11
84.199996869506052
 21
6.6000000000007599
 31
0.0
  0
LINE
  5
45FD
  8
240
  6
CONTINUOUS
 10
84.199996869506052
 20
6.6000000000007599
 30
0.0
 11
84.199996869506052
 21
8.1717990000007603
 31
0.0
  0
LINE
  5
45FE
  8
240
  6
CONTINUOUS
 10
84.399996869506026
 20
8.3717990000007472
 30
0.0
 11
84.199996869506052
 21
8.1717990000007603
 31
0.0
  0
LINE
  5
45FF
  8
241
  6
CONTINUOUS
 10
87.484073869506034
 20
9.4717990000007717
 30
0.0
 11
87.251064869506024
 21
9.2745420000007357
 31
0.0
  0
LINE
  5
4600
  8
241
  6
CONTINUOUS
 10
87.251064869506024
 20
9.2745420000007357
 30
0.0
 11
87.099996869506043
 21
8.3717990000007312
 31
0.0
  0
LINE
  5
4601
  8
240
  6
CONTINUOUS
 10
96.699996869506052
 20
4.5000000000007381
 30
0.0
 11
96.699996869506052
 21
-7.3999999999992383
 31
0.0
  0
LINE
  5
4602
  8
241
  6
CONTINUOUS
 10
89.699996869506066
 20
0.5773500000007629
 30
0.0
 11
89.699996869506066
 21
-0.5773499999992851
 31
0.0
  0
LINE
  5
4604
  8
240
  6
CONTINUOUS
 10
93.199996869506052
 20
5.4378220000007751
 30
0.0
 11
96.699996869506052
 21
4.5000000000007381
 31
0.0
  0
LINE
  5
4605
  8
240
  6
CONTINUOUS
 10
93.199996869506052
 20
5.4378220000007751
 30
0.0
 11
93.199996869506052
 21
8.1717990000007603
 31
0.0
  0
LINE
  5
4606
  8
241
  6
CONTINUOUS
 10
89.915920869506053
 20
9.4717990000007717
 30
0.0
 11
90.14892986950602
 21
9.2745420000007357
 31
0.0
  0
LINE
  5
4607
  8
241
  6
CONTINUOUS
 10
90.14892986950602
 20
9.2745420000007357
 30
0.0
 11
90.299996869506032
 21
8.3717990000007472
 31
0.0
  0
LINE
  5
4608
  8
240
  6
CONTINUOUS
 10
93.199996869506052
 20
8.1717990000007603
 30
0.0
 11
92.999996869506077
 21
8.3717990000007312
 31
0.0
  0
ARC
  5
4609
  8
240
  6
CONTINUOUS
 10
85.499996869506035
 20
11.27179900000076
 30
0.0
 40
1.0
 50
89.999999992281175
 51
179.99999999228189
1001
GRPNAME
1000
PASTMD0F
  0
LINE
  5
460A
  8
241
  6
CONTINUOUS
 10
84.499996869506035
 20
8.3717990000007312
 30
0.0
 11
87.099996869506043
 21
8.3717990000007312
 31
0.0
1001
GRPNAME
1000
PASTMD0F
  0
LINE
  5
460B
  8
240
  6
CONTINUOUS
 10
84.499996869506035
 20
8.3717990000007312
 30
0.0
 11
84.499996869506035
 21
11.27179900000076
 31
0.0
1001
GRPNAME
1000
PASTMD0F
  0
POLYLINE
  5
460C
  8
240
  6
CONTINUOUS
 66
     1
 10
0.0
 20
0.0
 30
0.0
 70
     8
  0
VERTEX
  5
460D
  8
240
  6
CONTINUOUS
 10
90.547936869506032
 20
12.035969000000749
 30
0.0
 70
    32
  0
VERTEX
  5
460E
  8
240
  6
CONTINUOUS
 10
90.553666869506046
 20
12.037249000000751
 30
0.0
 70
    32
  0
VERTEX
  5
460F
  8
240
  6
CONTINUOUS
 10
90.559386869506042
 20
12.03852900000075
 30
0.0
 70
    32
  0
VERTEX
  5
4610
  8
240
  6
CONTINUOUS
 10
90.565116869506056
 20
12.03979900000075
 30
0.0
 70
    32
  0
VERTEX
  5
4611
  8
240
  6
CONTINUOUS
 10
90.570846869506042
 20
12.041079000000749
 30
0.0
 70
    32
  0
VERTEX
  5
4612
  8
240
  6
CONTINUOUS
 10
90.576566869506038
 20
12.042359000000751
 30
0.0
 70
    32
  0
VERTEX
  5
4613
  8
240
  6
CONTINUOUS
 10
90.582296869506024
 20
12.04363900000075
 30
0.0
 70
    32
  0
VERTEX
  5
4614
  8
240
  6
CONTINUOUS
 10
90.588026869506038
 20
12.044919000000739
 30
0.0
 70
    32
  0
VERTEX
  5
4615
  8
240
  6
CONTINUOUS
 10
90.593746869506035
 20
12.046199000000749
 30
0.0
 70
    32
  0
VERTEX
  5
4616
  8
240
  6
CONTINUOUS
 10
90.599476869506034
 20
12.047479000000751
 30
0.0
 70
    32
  0
VERTEX
  5
4617
  8
240
  6
CONTINUOUS
 10
90.605206869506034
 20
12.04875900000075
 30
0.0
 70
    32
  0
VERTEX
  5
4618
  8
240
  6
CONTINUOUS
 10
90.610926869506045
 20
12.050049000000749
 30
0.0
 70
    32
  0
VERTEX
  5
4619
  8
240
  6
CONTINUOUS
 10
90.616656869506045
 20
12.05132900000075
 30
0.0
 70
    32
  0
VERTEX
  5
461A
  8
240
  6
CONTINUOUS
 10
90.622376869506041
 20
12.052609000000739
 30
0.0
 70
    32
  0
VERTEX
  5
461B
  8
240
  6
CONTINUOUS
 10
90.628106869506027
 20
12.053899000000751
 30
0.0
 70
    32
  0
VERTEX
  5
461C
  8
240
  6
CONTINUOUS
 10
90.633826869506024
 20
12.05517900000075
 30
0.0
 70
    32
  0
VERTEX
  5
461D
  8
240
  6
CONTINUOUS
 10
90.639556869506038
 20
12.056469000000741
 30
0.0
 70
    32
  0
VERTEX
  5
461E
  8
240
  6
CONTINUOUS
 10
90.645276869506034
 20
12.05775900000075
 30
0.0
 70
    32
  0
VERTEX
  5
461F
  8
240
  6
CONTINUOUS
 10
90.651006869506034
 20
12.059039000000739
 30
0.0
 70
    32
  0
VERTEX
  5
4620
  8
240
  6
CONTINUOUS
 10
90.656726869506045
 20
12.060329000000751
 30
0.0
 70
    32
  0
VERTEX
  5
4621
  8
240
  6
CONTINUOUS
 10
90.662446869506041
 20
12.06162900000075
 30
0.0
 70
    32
  0
VERTEX
  5
4622
  8
240
  6
CONTINUOUS
 10
90.668176869506055
 20
12.06291900000075
 30
0.0
 70
    32
  0
VERTEX
  5
4623
  8
240
  6
CONTINUOUS
 10
90.673896869506024
 20
12.06420900000075
 30
0.0
 70
    32
  0
VERTEX
  5
4624
  8
240
  6
CONTINUOUS
 10
90.679616869506035
 20
12.065509000000739
 30
0.0
 70
    32
  0
VERTEX
  5
4625
  8
240
  6
CONTINUOUS
 10
90.685346869506034
 20
12.066799000000749
 30
0.0
 70
    32
  0
VERTEX
  5
4626
  8
240
  6
CONTINUOUS
 10
90.691066869506045
 20
12.068099000000741
 30
0.0
 70
    32
  0
VERTEX
  5
4627
  8
240
  6
CONTINUOUS
 10
90.696786869506042
 20
12.06939900000075
 30
0.0
 70
    32
  0
VERTEX
  5
4628
  8
240
  6
CONTINUOUS
 10
90.702506869506038
 20
12.070699000000751
 30
0.0
 70
    32
  0
VERTEX
  5
4629
  8
240
  6
CONTINUOUS
 10
90.708226869506035
 20
12.07199900000075
 30
0.0
 70
    32
  0
VERTEX
  5
462A
  8
240
  6
CONTINUOUS
 10
90.713946869506017
 20
12.07330900000075
 30
0.0
 70
    32
  0
VERTEX
  5
462B
  8
240
  6
CONTINUOUS
 10
90.719666869506042
 20
12.07461900000075
 30
0.0
 70
    32
  0
VERTEX
  5
462C
  8
240
  6
CONTINUOUS
 10
90.725386869506039
 20
12.075929000000739
 30
0.0
 70
    32
  0
VERTEX
  5
462D
  8
240
  6
CONTINUOUS
 10
90.731106869506036
 20
12.07723900000075
 30
0.0
 70
    32
  0
VERTEX
  5
462E
  8
240
  6
CONTINUOUS
 10
90.736816869506043
 20
12.07854900000075
 30
0.0
 70
    32
  0
VERTEX
  5
462F
  8
240
  6
CONTINUOUS
 10
90.742536869506026
 20
12.07985900000075
 30
0.0
 70
    32
  0
VERTEX
  5
4630
  8
240
  6
CONTINUOUS
 10
90.748256869506037
 20
12.08117900000075
 30
0.0
 70
    32
  0
VERTEX
  5
4631
  8
240
  6
CONTINUOUS
 10
90.753966869506016
 20
12.08249900000075
 30
0.0
 70
    32
  0
VERTEX
  5
4632
  8
240
  6
CONTINUOUS
 10
90.759686869506041
 20
12.08381900000075
 30
0.0
 70
    32
  0
VERTEX
  5
4633
  8
240
  6
CONTINUOUS
 10
90.765396869506034
 20
12.085149000000751
 30
0.0
 70
    32
  0
VERTEX
  5
4634
  8
240
  6
CONTINUOUS
 10
90.771116869506045
 20
12.086469000000751
 30
0.0
 70
    32
  0
VERTEX
  5
4635
  8
240
  6
CONTINUOUS
 10
90.776826869506039
 20
12.087799000000739
 30
0.0
 70
    32
  0
VERTEX
  5
4636
  8
240
  6
CONTINUOUS
 10
90.782546869506035
 20
12.089129000000749
 30
0.0
 70
    32
  0
VERTEX
  5
4637
  8
240
  6
CONTINUOUS
 10
90.788256869506043
 20
12.09046900000074
 30
0.0
 70
    32
  0
VERTEX
  5
4638
  8
240
  6
CONTINUOUS
 10
90.793966869506036
 20
12.091809000000749
 30
0.0
 70
    32
  0
VERTEX
  5
4639
  8
240
  6
CONTINUOUS
 10
90.799676869506044
 20
12.093149000000739
 30
0.0
 70
    32
  0
VERTEX
  5
463A
  8
240
  6
CONTINUOUS
 10
90.805386869506023
 20
12.094489000000751
 30
0.0
 70
    32
  0
VERTEX
  5
463B
  8
240
  6
CONTINUOUS
 10
90.811096869506017
 20
12.09582900000075
 30
0.0
 70
    32
  0
VERTEX
  5
463C
  8
240
  6
CONTINUOUS
 10
90.816806869506024
 20
12.09717900000075
 30
0.0
 70
    32
  0
VERTEX
  5
463D
  8
240
  6
CONTINUOUS
 10
90.822506869506043
 20
12.09853900000074
 30
0.0
 70
    32
  0
VERTEX
  5
463E
  8
240
  6
CONTINUOUS
 10
90.828216869506036
 20
12.099889000000751
 30
0.0
 70
    32
  0
VERTEX
  5
463F
  8
240
  6
CONTINUOUS
 10
90.833926869506016
 20
12.101249000000751
 30
0.0
 70
    32
  0
VERTEX
  5
4640
  8
240
  6
CONTINUOUS
 10
90.839626869506034
 20
12.102609000000751
 30
0.0
 70
    32
  0
VERTEX
  5
4641
  8
240
  6
CONTINUOUS
 10
90.845336869506056
 20
12.103969000000751
 30
0.0
 70
    32
  0
VERTEX
  5
4642
  8
240
  6
CONTINUOUS
 10
90.851036869506032
 20
12.10533900000075
 30
0.0
 70
    32
  0
VERTEX
  5
4643
  8
240
  6
CONTINUOUS
 10
90.856736869506037
 20
12.10670900000075
 30
0.0
 70
    32
  0
VERTEX
  5
4644
  8
240
  6
CONTINUOUS
 10
90.862436869506041
 20
12.108089000000749
 30
0.0
 70
    32
  0
VERTEX
  5
4645
  8
240
  6
CONTINUOUS
 10
90.868146869506035
 20
12.10946900000075
 30
0.0
 70
    32
  0
VERTEX
  5
4646
  8
240
  6
CONTINUOUS
 10
90.873836869506036
 20
12.11084900000075
 30
0.0
 70
    32
  0
VERTEX
  5
4647
  8
240
  6
CONTINUOUS
 10
90.879536869506026
 20
12.11223900000075
 30
0.0
 70
    32
  0
VERTEX
  5
4648
  8
240
  6
CONTINUOUS
 10
90.885236869506031
 20
12.113629000000749
 30
0.0
 70
    32
  0
VERTEX
  5
4649
  8
240
  6
CONTINUOUS
 10
90.890936869506035
 20
12.11501900000075
 30
0.0
 70
    32
  0
VERTEX
  5
464A
  8
240
  6
CONTINUOUS
 10
90.896626869506036
 20
12.116419000000739
 30
0.0
 70
    32
  0
VERTEX
  5
464B
  8
240
  6
CONTINUOUS
 10
90.902326869506055
 20
12.11781900000075
 30
0.0
 70
    32
  0
VERTEX
  5
464C
  8
240
  6
CONTINUOUS
 10
90.908016869506028
 20
12.119219000000751
 30
0.0
 70
    32
  0
VERTEX
  5
464D
  8
240
  6
CONTINUOUS
 10
90.913706869506044
 20
12.120629000000751
 30
0.0
 70
    32
  0
VERTEX
  5
464E
  8
240
  6
CONTINUOUS
 10
90.919406869506034
 20
12.122049000000739
 30
0.0
 70
    32
  0
VERTEX
  5
464F
  8
240
  6
CONTINUOUS
 10
90.925096869506035
 20
12.12346900000075
 30
0.0
 70
    32
  0
VERTEX
  5
4650
  8
240
  6
CONTINUOUS
 10
90.930786869506036
 20
12.124889000000749
 30
0.0
 70
    32
  0
VERTEX
  5
4651
  8
240
  6
CONTINUOUS
 10
90.936466869506035
 20
12.126319000000739
 30
0.0
 70
    32
  0
VERTEX
  5
4652
  8
240
  6
CONTINUOUS
 10
90.942156869506036
 20
12.127749000000749
 30
0.0
 70
    32
  0
VERTEX
  5
4653
  8
240
  6
CONTINUOUS
 10
90.947846869506023
 20
12.12917900000074
 30
0.0
 70
    32
  0
VERTEX
  5
4654
  8
240
  6
CONTINUOUS
 10
90.953526869506035
 20
12.130619000000751
 30
0.0
 70
    32
  0
VERTEX
  5
4655
  8
240
  6
CONTINUOUS
 10
90.959206869506033
 20
12.132069000000749
 30
0.0
 70
    32
  0
VERTEX
  5
4656
  8
240
  6
CONTINUOUS
 10
90.964896869506035
 20
12.133519000000749
 30
0.0
 70
    32
  0
VERTEX
  5
4657
  8
240
  6
CONTINUOUS
 10
90.970576869506047
 20
12.13496900000075
 30
0.0
 70
    32
  0
VERTEX
  5
4658
  8
240
  6
CONTINUOUS
 10
90.976256869506045
 20
12.136429000000749
 30
0.0
 70
    32
  0
VERTEX
  5
4659
  8
240
  6
CONTINUOUS
 10
90.981936869506043
 20
12.137889000000751
 30
0.0
 70
    32
  0
VERTEX
  5
465A
  8
240
  6
CONTINUOUS
 10
90.987606869506024
 20
12.13935900000075
 30
0.0
 70
    32
  0
VERTEX
  5
465B
  8
240
  6
CONTINUOUS
 10
90.993286869506036
 20
12.140839000000749
 30
0.0
 70
    32
  0
VERTEX
  5
465C
  8
240
  6
CONTINUOUS
 10
90.998956869506031
 20
12.142319000000739
 30
0.0
 70
    32
  0
VERTEX
  5
465D
  8
240
  6
CONTINUOUS
 10
91.004636869506044
 20
12.143799000000749
 30
0.0
 70
    32
  0
VERTEX
  5
465E
  8
240
  6
CONTINUOUS
 10
91.010306869506039
 20
12.14528900000075
 30
0.0
 70
    32
  0
VERTEX
  5
465F
  8
240
  6
CONTINUOUS
 10
91.015976869506034
 20
12.146779000000739
 30
0.0
 70
    32
  0
VERTEX
  5
4660
  8
240
  6
CONTINUOUS
 10
91.021646869506043
 20
12.14827900000075
 30
0.0
 70
    32
  0
VERTEX
  5
4661
  8
240
  6
CONTINUOUS
 10
91.027316869506024
 20
12.14978900000075
 30
0.0
 70
    32
  0
VERTEX
  5
4662
  8
240
  6
CONTINUOUS
 10
91.032976869506044
 20
12.15128900000075
 30
0.0
 70
    32
  0
VERTEX
  5
4663
  8
240
  6
CONTINUOUS
 10
91.038646869506039
 20
12.152809000000749
 30
0.0
 70
    32
  0
VERTEX
  5
4664
  8
240
  6
CONTINUOUS
 10
91.044306869506045
 20
12.15432900000074
 30
0.0
 70
    32
  0
VERTEX
  5
4665
  8
240
  6
CONTINUOUS
 10
91.049966869506036
 20
12.15584900000075
 30
0.0
 70
    32
  0
VERTEX
  5
4666
  8
240
  6
CONTINUOUS
 10
91.055636869506031
 20
12.15737900000074
 30
0.0
 70
    32
  0
VERTEX
  5
4667
  8
240
  6
CONTINUOUS
 10
91.061296869506037
 20
12.158909000000749
 30
0.0
 70
    32
  0
VERTEX
  5
4668
  8
240
  6
CONTINUOUS
 10
91.066956869506043
 20
12.160449000000749
 30
0.0
 70
    32
  0
VERTEX
  5
4669
  8
240
  6
CONTINUOUS
 10
91.072606869506046
 20
12.16198900000075
 30
0.0
 70
    32
  0
VERTEX
  5
466A
  8
240
  6
CONTINUOUS
 10
91.078266869506038
 20
12.16352900000075
 30
0.0
 70
    32
  0
VERTEX
  5
466B
  8
240
  6
CONTINUOUS
 10
91.08392686950603
 20
12.165079000000739
 30
0.0
 70
    32
  0
VERTEX
  5
466C
  8
240
  6
CONTINUOUS
 10
91.089576869506033
 20
12.16662900000075
 30
0.0
 70
    32
  0
VERTEX
  5
466D
  8
240
  6
CONTINUOUS
 10
91.095236869506039
 20
12.16818900000075
 30
0.0
 70
    32
  0
VERTEX
  5
466E
  8
240
  6
CONTINUOUS
 10
91.100886869506041
 20
12.169749000000751
 30
0.0
 70
    32
  0
VERTEX
  5
466F
  8
240
  6
CONTINUOUS
 10
91.106536869506044
 20
12.171319000000739
 30
0.0
 70
    32
  0
VERTEX
  5
4670
  8
240
  6
CONTINUOUS
 10
91.112186869506047
 20
12.172889000000749
 30
0.0
 70
    32
  0
VERTEX
  5
4671
  8
240
  6
CONTINUOUS
 10
91.117836869506036
 20
12.17445900000075
 30
0.0
 70
    32
  0
VERTEX
  5
4672
  8
240
  6
CONTINUOUS
 10
91.123486869506024
 20
12.176039000000751
 30
0.0
 70
    32
  0
VERTEX
  5
4673
  8
240
  6
CONTINUOUS
 10
91.129136869506027
 20
12.17761900000075
 30
0.0
 70
    32
  0
VERTEX
  5
4674
  8
240
  6
CONTINUOUS
 10
91.13478686950603
 20
12.17919900000074
 30
0.0
 70
    32
  0
VERTEX
  5
4675
  8
240
  6
CONTINUOUS
 10
91.140426869506044
 20
12.18078900000075
 30
0.0
 70
    32
  0
VERTEX
  5
4676
  8
240
  6
CONTINUOUS
 10
91.146076869506047
 20
12.182379000000751
 30
0.0
 70
    32
  0
VERTEX
  5
4677
  8
240
  6
CONTINUOUS
 10
91.151716869506032
 20
12.18397900000075
 30
0.0
 70
    32
  0
VERTEX
  5
4678
  8
240
  6
CONTINUOUS
 10
91.157356869506032
 20
12.18557900000075
 30
0.0
 70
    32
  0
VERTEX
  5
4679
  8
240
  6
CONTINUOUS
 10
91.163006869506034
 20
12.187179000000739
 30
0.0
 70
    32
  0
VERTEX
  5
467A
  8
240
  6
CONTINUOUS
 10
91.168646869506034
 20
12.188779000000739
 30
0.0
 70
    32
  0
VERTEX
  5
467B
  8
240
  6
CONTINUOUS
 10
91.174286869506034
 20
12.190389000000749
 30
0.0
 70
    32
  0
VERTEX
  5
467C
  8
240
  6
CONTINUOUS
 10
91.179926869506033
 20
12.191999000000751
 30
0.0
 70
    32
  0
VERTEX
  5
467D
  8
240
  6
CONTINUOUS
 10
91.185566869506019
 20
12.19361900000075
 30
0.0
 70
    32
  0
VERTEX
  5
467E
  8
240
  6
CONTINUOUS
 10
91.191196869506044
 20
12.19523900000075
 30
0.0
 70
    32
  0
VERTEX
  5
467F
  8
240
  6
CONTINUOUS
 10
91.196836869506043
 20
12.19685900000075
 30
0.0
 70
    32
  0
VERTEX
  5
4680
  8
240
  6
CONTINUOUS
 10
91.202476869506029
 20
12.19847900000075
 30
0.0
 70
    32
  0
VERTEX
  5
4681
  8
240
  6
CONTINUOUS
 10
91.208106869506025
 20
12.200109000000751
 30
0.0
 70
    32
  0
VERTEX
  5
4682
  8
240
  6
CONTINUOUS
 10
91.213746869506039
 20
12.20173900000075
 30
0.0
 70
    32
  0
VERTEX
  5
4683
  8
240
  6
CONTINUOUS
 10
91.219376869506036
 20
12.203369000000739
 30
0.0
 70
    32
  0
VERTEX
  5
4684
  8
240
  6
CONTINUOUS
 10
91.225016869506035
 20
12.20499900000075
 30
0.0
 70
    32
  0
VERTEX
  5
4685
  8
240
  6
CONTINUOUS
 10
91.230646869506046
 20
12.206639000000751
 30
0.0
 70
    32
  0
VERTEX
  5
4686
  8
240
  6
CONTINUOUS
 10
91.236276869506028
 20
12.208279000000751
 30
0.0
 70
    32
  0
VERTEX
  5
4687
  8
240
  6
CONTINUOUS
 10
91.241916869506042
 20
12.209919000000751
 30
0.0
 70
    32
  0
VERTEX
  5
4688
  8
240
  6
CONTINUOUS
 10
91.247546869506039
 20
12.211559000000751
 30
0.0
 70
    32
  0
VERTEX
  5
4689
  8
240
  6
CONTINUOUS
 10
91.253176869506035
 20
12.21320900000075
 30
0.0
 70
    32
  0
VERTEX
  5
468A
  8
240
  6
CONTINUOUS
 10
91.258806869506031
 20
12.21485900000075
 30
0.0
 70
    32
  0
VERTEX
  5
468B
  8
240
  6
CONTINUOUS
 10
91.264436869506042
 20
12.21650900000075
 30
0.0
 70
    32
  0
VERTEX
  5
468C
  8
240
  6
CONTINUOUS
 10
91.270066869506039
 20
12.21815900000075
 30
0.0
 70
    32
  0
VERTEX
  5
468D
  8
240
  6
CONTINUOUS
 10
91.275686869506046
 20
12.219819000000751
 30
0.0
 70
    32
  0
VERTEX
  5
468E
  8
240
  6
CONTINUOUS
 10
91.281316869506043
 20
12.22147900000075
 30
0.0
 70
    32
  0
VERTEX
  5
468F
  8
240
  6
CONTINUOUS
 10
91.286946869506039
 20
12.223139000000749
 30
0.0
 70
    32
  0
VERTEX
  5
4690
  8
240
  6
CONTINUOUS
 10
91.292576869506036
 20
12.22479900000075
 30
0.0
 70
    32
  0
VERTEX
  5
4691
  8
240
  6
CONTINUOUS
 10
91.298196869506043
 20
12.22645900000075
 30
0.0
 70
    32
  0
VERTEX
  5
4692
  8
240
  6
CONTINUOUS
 10
91.303826869506025
 20
12.228119000000749
 30
0.0
 70
    32
  0
VERTEX
  5
4693
  8
240
  6
CONTINUOUS
 10
91.309446869506047
 20
12.22978900000075
 30
0.0
 70
    32
  0
VERTEX
  5
4694
  8
240
  6
CONTINUOUS
 10
91.315076869506029
 20
12.231459000000751
 30
0.0
 70
    32
  0
VERTEX
  5
4695
  8
240
  6
CONTINUOUS
 10
91.320696869506037
 20
12.23312900000075
 30
0.0
 70
    32
  0
VERTEX
  5
4696
  8
240
  6
CONTINUOUS
 10
91.326326869506033
 20
12.23479900000075
 30
0.0
 70
    32
  0
VERTEX
  5
4697
  8
240
  6
CONTINUOUS
 10
91.331946869506041
 20
12.236469000000749
 30
0.0
 70
    32
  0
VERTEX
  5
4698
  8
240
  6
CONTINUOUS
 10
91.337576869506037
 20
12.238139000000739
 30
0.0
 70
    32
  0
VERTEX
  5
4699
  8
240
  6
CONTINUOUS
 10
91.343196869506045
 20
12.23981900000075
 30
0.0
 70
    32
  0
VERTEX
  5
469A
  8
240
  6
CONTINUOUS
 10
91.348816869506038
 20
12.241489000000749
 30
0.0
 70
    32
  0
VERTEX
  5
469B
  8
240
  6
CONTINUOUS
 10
91.354446869506035
 20
12.24316900000075
 30
0.0
 70
    32
  0
VERTEX
  5
469C
  8
240
  6
CONTINUOUS
 10
91.360066869506042
 20
12.24484900000075
 30
0.0
 70
    32
  0
VERTEX
  5
469D
  8
240
  6
CONTINUOUS
 10
91.365686869506035
 20
12.24652900000075
 30
0.0
 70
    32
  0
VERTEX
  5
469E
  8
240
  6
CONTINUOUS
 10
91.371306869506029
 20
12.248209000000751
 30
0.0
 70
    32
  0
VERTEX
  5
469F
  8
240
  6
CONTINUOUS
 10
91.376926869506036
 20
12.249889000000749
 30
0.0
 70
    32
  0
VERTEX
  5
46A0
  8
240
  6
CONTINUOUS
 10
91.382546869506044
 20
12.25156900000075
 30
0.0
 70
    32
  0
VERTEX
  5
46A1
  8
240
  6
CONTINUOUS
 10
91.38817686950604
 20
12.253259000000741
 30
0.0
 70
    32
  0
VERTEX
  5
46A2
  8
240
  6
CONTINUOUS
 10
91.393796869506019
 20
12.254939000000739
 30
0.0
 70
    32
  0
VERTEX
  5
46A3
  8
240
  6
CONTINUOUS
 10
91.399416869506055
 20
12.25661900000075
 30
0.0
 70
    32
  0
VERTEX
  5
46A4
  8
240
  6
CONTINUOUS
 10
91.405036869506034
 20
12.25830900000074
 30
0.0
 70
    32
  0
VERTEX
  5
46A5
  8
240
  6
CONTINUOUS
 10
91.410656869506042
 20
12.259989000000751
 30
0.0
 70
    32
  0
VERTEX
  5
46A6
  8
240
  6
CONTINUOUS
 10
91.416276869506035
 20
12.261679000000751
 30
0.0
 70
    32
  0
VERTEX
  5
46A7
  8
240
  6
CONTINUOUS
 10
91.421896869506043
 20
12.26336900000075
 30
0.0
 70
    32
  0
VERTEX
  5
46A8
  8
240
  6
CONTINUOUS
 10
91.427516869506036
 20
12.265049000000751
 30
0.0
 70
    32
  0
VERTEX
  5
46A9
  8
240
  6
CONTINUOUS
 10
91.433136869506029
 20
12.266739000000751
 30
0.0
 70
    32
  0
VERTEX
  5
46AA
  8
240
  6
CONTINUOUS
 10
91.438756869506037
 20
12.268429000000751
 30
0.0
 70
    32
  0
VERTEX
  5
46AB
  8
240
  6
CONTINUOUS
 10
91.444376869506044
 20
12.270109000000749
 30
0.0
 70
    32
  0
VERTEX
  5
46AC
  8
240
  6
CONTINUOUS
 10
91.449996869506023
 20
12.271799000000749
 30
0.0
 70
    32
  0
SEQEND
  5
46AD
  8
240
  6
CONTINUOUS
  0
LINE
  5
46AE
  8
240
  6
CONTINUOUS
 10
93.299996869506032
 20
8.3717990000007312
 30
0.0
 11
92.999996869506077
 21
8.3717990000007312
 31
0.0
1001
GRPNAME
1000
PASTMD0F
  0
LINE
  5
46AF
  8
241
  6
CONTINUOUS
 10
87.250605217679322
 20
9.6217990000007312
 30
0.0
 11
90.149388521332725
 21
9.6217990000007312
 31
0.0
1001
GRPNAME
1000
PASTMD2Q
  0
LINE
  5
46B0
  8
241
  6
CONTINUOUS
 10
86.850199652230486
 20
8.3717990000007312
 30
0.0
 11
87.150199652230484
 21
8.6717990000006875
 31
0.0
1001
GRPNAME
1000
PASTMD2Q
  0
LINE
  5
46B1
  8
241
  6
CONTINUOUS
 10
87.150199652230484
 20
8.6717990000006875
 30
0.0
 11
87.250605217679322
 21
9.2717990000007102
 31
0.0
1001
GRPNAME
1000
PASTMD2Q
  0
LINE
  5
46B2
  8
241
  6
CONTINUOUS
 10
87.250605217679322
 20
9.2717990000007102
 30
0.0
 11
87.250605217679322
 21
9.6217990000007312
 31
0.0
1001
GRPNAME
1000
PASTMD2Q
  0
LINE
  5
46B3
  8
241
  6
CONTINUOUS
 10
90.549794086781588
 20
8.3717990000007312
 30
0.0
 11
90.249794086781606
 21
8.6717990000006875
 31
0.0
1001
GRPNAME
1000
PASTMD2Q
  0
LINE
  5
46B4
  8
241
  6
CONTINUOUS
 10
90.249794086781577
 20
8.6717990000006875
 30
0.0
 11
90.149388521332725
 21
9.2717990000007102
 31
0.0
1001
GRPNAME
1000
PASTMD2Q
  0
LINE
  5
46B5
  8
241
  6
CONTINUOUS
 10
90.149388521332725
 20
9.2717990000007102
 30
0.0
 11
90.149388521332725
 21
9.6217990000007312
 31
0.0
1001
GRPNAME
1000
PASTMD2Q
  0
LINE
  5
46B6
  8
240
  6
CONTINUOUS
 10
87.499996869506049
 20
12.27179900000076
 30
0.0
 11
89.811833379151722
 21
12.27179900000082
 31
0.0
1001
GRPNAME
1000
PASTMD0I
  0
LINE
  5
46B7
  8
240
  6
CONTINUOUS
 10
87.499996869506049
 20
12.27179900000076
 30
0.0
 11
86.852055797652497
 21
12.035967736287519
 31
0.0
1001
GRPNAME
1000
PASTMD0I
  0
POLYLINE
  5
46B8
  8
240
  6
CONTINUOUS
 66
     1
 10
0.0
 20
0.0
 30
0.0
 70
     8
  0
VERTEX
  5
46B9
  8
240
  6
CONTINUOUS
 10
85.949996869506037
 20
12.271799000000749
 30
0.0
 70
    32
  0
VERTEX
  5
46BA
  8
240
  6
CONTINUOUS
 10
85.955616869506031
 20
12.270109000000749
 30
0.0
 70
    32
  0
VERTEX
  5
46BB
  8
240
  6
CONTINUOUS
 10
85.961236869506024
 20
12.268429000000751
 30
0.0
 70
    32
  0
VERTEX
  5
46BC
  8
240
  6
CONTINUOUS
 10
85.966856869506046
 20
12.266739000000751
 30
0.0
 70
    32
  0
VERTEX
  5
46BD
  8
240
  6
CONTINUOUS
 10
85.972476869506039
 20
12.265049000000751
 30
0.0
 70
    32
  0
VERTEX
  5
46BE
  8
240
  6
CONTINUOUS
 10
85.978096869506018
 20
12.26336900000075
 30
0.0
 70
    32
  0
VERTEX
  5
46BF
  8
240
  6
CONTINUOUS
 10
85.983716869506026
 20
12.261679000000751
 30
0.0
 70
    32
  0
VERTEX
  5
46C0
  8
240
  6
CONTINUOUS
 10
85.989336869506033
 20
12.259989000000751
 30
0.0
 70
    32
  0
VERTEX
  5
46C1
  8
240
  6
CONTINUOUS
 10
85.994956869506041
 20
12.25830900000074
 30
0.0
 70
    32
  0
VERTEX
  5
46C2
  8
240
  6
CONTINUOUS
 10
86.000576869506034
 20
12.25661900000075
 30
0.0
 70
    32
  0
VERTEX
  5
46C3
  8
240
  6
CONTINUOUS
 10
86.006196869506041
 20
12.254939000000739
 30
0.0
 70
    32
  0
VERTEX
  5
46C4
  8
240
  6
CONTINUOUS
 10
86.011816869506035
 20
12.253259000000741
 30
0.0
 70
    32
  0
VERTEX
  5
46C5
  8
240
  6
CONTINUOUS
 10
86.017446869506031
 20
12.25156900000075
 30
0.0
 70
    32
  0
VERTEX
  5
46C6
  8
240
  6
CONTINUOUS
 10
86.023066869506025
 20
12.249889000000749
 30
0.0
 70
    32
  0
VERTEX
  5
46C7
  8
240
  6
CONTINUOUS
 10
86.028686869506046
 20
12.248209000000751
 30
0.0
 70
    32
  0
VERTEX
  5
46C8
  8
240
  6
CONTINUOUS
 10
86.03430686950604
 20
12.24652900000075
 30
0.0
 70
    32
  0
VERTEX
  5
46C9
  8
240
  6
CONTINUOUS
 10
86.039926869506019
 20
12.24484900000075
 30
0.0
 70
    32
  0
VERTEX
  5
46CA
  8
240
  6
CONTINUOUS
 10
86.045546869506055
 20
12.24316900000075
 30
0.0
 70
    32
  0
VERTEX
  5
46CB
  8
240
  6
CONTINUOUS
 10
86.051176869506037
 20
12.241489000000749
 30
0.0
 70
    32
  0
VERTEX
  5
46CC
  8
240
  6
CONTINUOUS
 10
86.05679686950603
 20
12.23981900000075
 30
0.0
 70
    32
  0
VERTEX
  5
46CD
  8
240
  6
CONTINUOUS
 10
86.062416869506023
 20
12.238139000000739
 30
0.0
 70
    32
  0
VERTEX
  5
46CE
  8
240
  6
CONTINUOUS
 10
86.068046869506034
 20
12.236469000000749
 30
0.0
 70
    32
  0
VERTEX
  5
46CF
  8
240
  6
CONTINUOUS
 10
86.073666869506013
 20
12.23479900000075
 30
0.0
 70
    32
  0
VERTEX
  5
46D0
  8
240
  6
CONTINUOUS
 10
86.07929686950601
 20
12.23312900000075
 30
0.0
 70
    32
  0
VERTEX
  5
46D1
  8
240
  6
CONTINUOUS
 10
86.084916869506031
 20
12.231459000000751
 30
0.0
 70
    32
  0
VERTEX
  5
46D2
  8
240
  6
CONTINUOUS
 10
86.090546869506028
 20
12.22978900000075
 30
0.0
 70
    32
  0
VERTEX
  5
46D3
  8
240
  6
CONTINUOUS
 10
86.09616686950605
 20
12.228119000000749
 30
0.0
 70
    32
  0
VERTEX
  5
46D4
  8
240
  6
CONTINUOUS
 10
86.101796869506046
 20
12.22645900000075
 30
0.0
 70
    32
  0
VERTEX
  5
46D5
  8
240
  6
CONTINUOUS
 10
86.107416869506025
 20
12.22479900000075
 30
0.0
 70
    32
  0
VERTEX
  5
46D6
  8
240
  6
CONTINUOUS
 10
86.113046869506036
 20
12.223139000000749
 30
0.0
 70
    32
  0
VERTEX
  5
46D7
  8
240
  6
CONTINUOUS
 10
86.118676869506032
 20
12.22147900000075
 30
0.0
 70
    32
  0
VERTEX
  5
46D8
  8
240
  6
CONTINUOUS
 10
86.124306869506043
 20
12.219819000000751
 30
0.0
 70
    32
  0
VERTEX
  5
46D9
  8
240
  6
CONTINUOUS
 10
86.129926869506036
 20
12.21815900000075
 30
0.0
 70
    32
  0
VERTEX
  5
46DA
  8
240
  6
CONTINUOUS
 10
86.135556869506047
 20
12.21650900000075
 30
0.0
 70
    32
  0
VERTEX
  5
46DB
  8
240
  6
CONTINUOUS
 10
86.141186869506043
 20
12.21485900000075
 30
0.0
 70
    32
  0
VERTEX
  5
46DC
  8
240
  6
CONTINUOUS
 10
86.146816869506026
 20
12.21320900000075
 30
0.0
 70
    32
  0
VERTEX
  5
46DD
  8
240
  6
CONTINUOUS
 10
86.152446869506036
 20
12.211559000000751
 30
0.0
 70
    32
  0
VERTEX
  5
46DE
  8
240
  6
CONTINUOUS
 10
86.158076869506033
 20
12.209919000000751
 30
0.0
 70
    32
  0
VERTEX
  5
46DF
  8
240
  6
CONTINUOUS
 10
86.163716869506032
 20
12.208279000000751
 30
0.0
 70
    32
  0
VERTEX
  5
46E0
  8
240
  6
CONTINUOUS
 10
86.169346869506043
 20
12.206639000000751
 30
0.0
 70
    32
  0
VERTEX
  5
46E1
  8
240
  6
CONTINUOUS
 10
86.174976869506025
 20
12.20499900000075
 30
0.0
 70
    32
  0
VERTEX
  5
46E2
  8
240
  6
CONTINUOUS
 10
86.180616869506025
 20
12.203369000000739
 30
0.0
 70
    32
  0
VERTEX
  5
46E3
  8
240
  6
CONTINUOUS
 10
86.186246869506036
 20
12.20173900000075
 30
0.0
 70
    32
  0
VERTEX
  5
46E4
  8
240
  6
CONTINUOUS
 10
86.191886869506064
 20
12.200109000000751
 30
0.0
 70
    32
  0
VERTEX
  5
46E5
  8
240
  6
CONTINUOUS
 10
86.197516869506046
 20
12.19847900000075
 30
0.0
 70
    32
  0
VERTEX
  5
46E6
  8
240
  6
CONTINUOUS
 10
86.203156869506046
 20
12.19685900000075
 30
0.0
 70
    32
  0
VERTEX
  5
46E7
  8
240
  6
CONTINUOUS
 10
86.208796869506031
 20
12.19523900000075
 30
0.0
 70
    32
  0
VERTEX
  5
46E8
  8
240
  6
CONTINUOUS
 10
86.214426869506028
 20
12.19361900000075
 30
0.0
 70
    32
  0
VERTEX
  5
46E9
  8
240
  6
CONTINUOUS
 10
86.220066869506027
 20
12.191999000000751
 30
0.0
 70
    32
  0
VERTEX
  5
46EA
  8
240
  6
CONTINUOUS
 10
86.225706869506041
 20
12.190389000000749
 30
0.0
 70
    32
  0
VERTEX
  5
46EB
  8
240
  6
CONTINUOUS
 10
86.231346869506055
 20
12.188779000000739
 30
0.0
 70
    32
  0
VERTEX
  5
46EC
  8
240
  6
CONTINUOUS
 10
86.23698686950604
 20
12.187179000000739
 30
0.0
 70
    32
  0
VERTEX
  5
46ED
  8
240
  6
CONTINUOUS
 10
86.242636869506029
 20
12.18557900000075
 30
0.0
 70
    32
  0
VERTEX
  5
46EE
  8
240
  6
CONTINUOUS
 10
86.248276869506043
 20
12.18397900000075
 30
0.0
 70
    32
  0
VERTEX
  5
46EF
  8
240
  6
CONTINUOUS
 10
86.253916869506057
 20
12.182379000000751
 30
0.0
 70
    32
  0
VERTEX
  5
46F0
  8
240
  6
CONTINUOUS
 10
86.259566869506031
 20
12.18078900000075
 30
0.0
 70
    32
  0
VERTEX
  5
46F1
  8
240
  6
CONTINUOUS
 10
86.265206869506045
 20
12.17919900000074
 30
0.0
 70
    32
  0
VERTEX
  5
46F2
  8
240
  6
CONTINUOUS
 10
86.270856869506034
 20
12.17761900000075
 30
0.0
 70
    32
  0
VERTEX
  5
46F3
  8
240
  6
CONTINUOUS
 10
86.276506869506036
 20
12.176039000000751
 30
0.0
 70
    32
  0
VERTEX
  5
46F4
  8
240
  6
CONTINUOUS
 10
86.282156869506025
 20
12.17445900000075
 30
0.0
 70
    32
  0
VERTEX
  5
46F5
  8
240
  6
CONTINUOUS
 10
86.287806869506028
 20
12.172889000000749
 30
0.0
 70
    32
  0
VERTEX
  5
46F6
  8
240
  6
CONTINUOUS
 10
86.293456869506031
 20
12.171319000000739
 30
0.0
 70
    32
  0
VERTEX
  5
46F7
  8
240
  6
CONTINUOUS
 10
86.299106869506033
 20
12.169749000000751
 30
0.0
 70
    32
  0
VERTEX
  5
46F8
  8
240
  6
CONTINUOUS
 10
86.304756869506036
 20
12.16818900000075
 30
0.0
 70
    32
  0
VERTEX
  5
46F9
  8
240
  6
CONTINUOUS
 10
86.310416869506042
 20
12.16662900000075
 30
0.0
 70
    32
  0
VERTEX
  5
46FA
  8
240
  6
CONTINUOUS
 10
86.316066869506017
 20
12.165079000000739
 30
0.0
 70
    32
  0
VERTEX
  5
46FB
  8
240
  6
CONTINUOUS
 10
86.321726869506037
 20
12.16352900000075
 30
0.0
 70
    32
  0
VERTEX
  5
46FC
  8
240
  6
CONTINUOUS
 10
86.327386869506043
 20
12.16198900000075
 30
0.0
 70
    32
  0
VERTEX
  5
46FD
  8
240
  6
CONTINUOUS
 10
86.333036869506017
 20
12.160449000000749
 30
0.0
 70
    32
  0
VERTEX
  5
46FE
  8
240
  6
CONTINUOUS
 10
86.338696869506023
 20
12.158909000000749
 30
0.0
 70
    32
  0
VERTEX
  5
46FF
  8
240
  6
CONTINUOUS
 10
86.344356869506043
 20
12.15737900000074
 30
0.0
 70
    32
  0
VERTEX
  5
4700
  8
240
  6
CONTINUOUS
 10
86.350026869506024
 20
12.15584900000075
 30
0.0
 70
    32
  0
VERTEX
  5
4701
  8
240
  6
CONTINUOUS
 10
86.355686869506044
 20
12.15432900000074
 30
0.0
 70
    32
  0
VERTEX
  5
4702
  8
240
  6
CONTINUOUS
 10
86.361346869506036
 20
12.152809000000749
 30
0.0
 70
    32
  0
VERTEX
  5
4703
  8
240
  6
CONTINUOUS
 10
86.367016869506031
 20
12.15128900000075
 30
0.0
 70
    32
  0
VERTEX
  5
4704
  8
240
  6
CONTINUOUS
 10
86.372676869506037
 20
12.14978900000075
 30
0.0
 70
    32
  0
VERTEX
  5
4705
  8
240
  6
CONTINUOUS
 10
86.378346869506018
 20
12.14827900000075
 30
0.0
 70
    32
  0
VERTEX
  5
4706
  8
240
  6
CONTINUOUS
 10
86.384016869506041
 20
12.146779000000739
 30
0.0
 70
    32
  0
VERTEX
  5
4707
  8
240
  6
CONTINUOUS
 10
86.389686869506036
 20
12.14528900000075
 30
0.0
 70
    32
  0
VERTEX
  5
4708
  8
240
  6
CONTINUOUS
 10
86.395356869506031
 20
12.143799000000749
 30
0.0
 70
    32
  0
VERTEX
  5
4709
  8
240
  6
CONTINUOUS
 10
86.401036869506044
 20
12.142319000000739
 30
0.0
 70
    32
  0
VERTEX
  5
470A
  8
240
  6
CONTINUOUS
 10
86.406706869506024
 20
12.140839000000749
 30
0.0
 70
    32
  0
VERTEX
  5
470B
  8
240
  6
CONTINUOUS
 10
86.412386869506037
 20
12.13935900000075
 30
0.0
 70
    32
  0
VERTEX
  5
470C
  8
240
  6
CONTINUOUS
 10
86.418056869506046
 20
12.137889000000751
 30
0.0
 70
    32
  0
VERTEX
  5
470D
  8
240
  6
CONTINUOUS
 10
86.423736869506044
 20
12.136429000000749
 30
0.0
 70
    32
  0
VERTEX
  5
470E
  8
240
  6
CONTINUOUS
 10
86.429416869506056
 20
12.13496900000075
 30
0.0
 70
    32
  0
VERTEX
  5
470F
  8
240
  6
CONTINUOUS
 10
86.43509686950604
 20
12.133519000000749
 30
0.0
 70
    32
  0
VERTEX
  5
4710
  8
240
  6
CONTINUOUS
 10
86.440786869506056
 20
12.132069000000749
 30
0.0
 70
    32
  0
VERTEX
  5
4711
  8
240
  6
CONTINUOUS
 10
86.44646686950604
 20
12.130619000000751
 30
0.0
 70
    32
  0
VERTEX
  5
4712
  8
240
  6
CONTINUOUS
 10
86.452146869506038
 20
12.12917900000074
 30
0.0
 70
    32
  0
VERTEX
  5
4713
  8
240
  6
CONTINUOUS
 10
86.457836869506039
 20
12.127749000000749
 30
0.0
 70
    32
  0
VERTEX
  5
4714
  8
240
  6
CONTINUOUS
 10
86.463526869506055
 20
12.126319000000739
 30
0.0
 70
    32
  0
VERTEX
  5
4715
  8
240
  6
CONTINUOUS
 10
86.469206869506039
 20
12.124889000000749
 30
0.0
 70
    32
  0
VERTEX
  5
4716
  8
240
  6
CONTINUOUS
 10
86.474896869506026
 20
12.12346900000075
 30
0.0
 70
    32
  0
VERTEX
  5
4717
  8
240
  6
CONTINUOUS
 10
86.480586869506027
 20
12.122049000000739
 30
0.0
 70
    32
  0
VERTEX
  5
4718
  8
240
  6
CONTINUOUS
 10
86.486286869506031
 20
12.120629000000751
 30
0.0
 70
    32
  0
VERTEX
  5
4719
  8
240
  6
CONTINUOUS
 10
86.491976869506033
 20
12.119219000000751
 30
0.0
 70
    32
  0
VERTEX
  5
471A
  8
240
  6
CONTINUOUS
 10
86.497666869506034
 20
12.11781900000075
 30
0.0
 70
    32
  0
VERTEX
  5
471B
  8
240
  6
CONTINUOUS
 10
86.503366869506038
 20
12.116419000000739
 30
0.0
 70
    32
  0
VERTEX
  5
471C
  8
240
  6
CONTINUOUS
 10
86.50905686950604
 20
12.11501900000075
 30
0.0
 70
    32
  0
VERTEX
  5
471D
  8
240
  6
CONTINUOUS
 10
86.514756869506044
 20
12.113629000000749
 30
0.0
 70
    32
  0
VERTEX
  5
471E
  8
240
  6
CONTINUOUS
 10
86.52045686950602
 20
12.11223900000075
 30
0.0
 70
    32
  0
VERTEX
  5
471F
  8
240
  6
CONTINUOUS
 10
86.526156869506025
 20
12.11084900000075
 30
0.0
 70
    32
  0
VERTEX
  5
4720
  8
240
  6
CONTINUOUS
 10
86.53184686950604
 20
12.10946900000075
 30
0.0
 70
    32
  0
VERTEX
  5
4721
  8
240
  6
CONTINUOUS
 10
86.537556869506034
 20
12.108089000000749
 30
0.0
 70
    32
  0
VERTEX
  5
4722
  8
240
  6
CONTINUOUS
 10
86.543256869506024
 20
12.10670900000075
 30
0.0
 70
    32
  0
VERTEX
  5
4723
  8
240
  6
CONTINUOUS
 10
86.548956869506043
 20
12.10533900000075
 30
0.0
 70
    32
  0
VERTEX
  5
4724
  8
240
  6
CONTINUOUS
 10
86.554656869506033
 20
12.103969000000751
 30
0.0
 70
    32
  0
VERTEX
  5
4725
  8
240
  6
CONTINUOUS
 10
86.560366869506055
 20
12.102609000000751
 30
0.0
 70
    32
  0
VERTEX
  5
4726
  8
240
  6
CONTINUOUS
 10
86.566066869506017
 20
12.101249000000751
 30
0.0
 70
    32
  0
VERTEX
  5
4727
  8
240
  6
CONTINUOUS
 10
86.571776869506024
 20
12.099889000000751
 30
0.0
 70
    32
  0
VERTEX
  5
4728
  8
240
  6
CONTINUOUS
 10
86.577486869506046
 20
12.09853900000074
 30
0.0
 70
    32
  0
VERTEX
  5
4729
  8
240
  6
CONTINUOUS
 10
86.583186869506036
 20
12.09717900000075
 30
0.0
 70
    32
  0
VERTEX
  5
472A
  8
240
  6
CONTINUOUS
 10
86.588896869506044
 20
12.09582900000075
 30
0.0
 70
    32
  0
VERTEX
  5
472B
  8
240
  6
CONTINUOUS
 10
86.594606869506038
 20
12.094489000000751
 30
0.0
 70
    32
  0
VERTEX
  5
472C
  8
240
  6
CONTINUOUS
 10
86.600316869506017
 20
12.093149000000739
 30
0.0
 70
    32
  0
VERTEX
  5
472D
  8
240
  6
CONTINUOUS
 10
86.606026869506024
 20
12.091809000000749
 30
0.0
 70
    32
  0
VERTEX
  5
472E
  8
240
  6
CONTINUOUS
 10
86.611736869506046
 20
12.09046900000074
 30
0.0
 70
    32
  0
VERTEX
  5
472F
  8
240
  6
CONTINUOUS
 10
86.617446869506026
 20
12.089129000000749
 30
0.0
 70
    32
  0
VERTEX
  5
4730
  8
240
  6
CONTINUOUS
 10
86.623166869506036
 20
12.087799000000739
 30
0.0
 70
    32
  0
VERTEX
  5
4731
  8
240
  6
CONTINUOUS
 10
86.628876869506016
 20
12.086469000000751
 30
0.0
 70
    32
  0
VERTEX
  5
4732
  8
240
  6
CONTINUOUS
 10
86.634596869506041
 20
12.085149000000751
 30
0.0
 70
    32
  0
VERTEX
  5
4733
  8
240
  6
CONTINUOUS
 10
86.640306869506034
 20
12.08381900000075
 30
0.0
 70
    32
  0
VERTEX
  5
4734
  8
240
  6
CONTINUOUS
 10
86.646026869506045
 20
12.08249900000075
 30
0.0
 70
    32
  0
VERTEX
  5
4735
  8
240
  6
CONTINUOUS
 10
86.651736869506038
 20
12.08117900000075
 30
0.0
 70
    32
  0
VERTEX
  5
4736
  8
240
  6
CONTINUOUS
 10
86.657456869506035
 20
12.07985900000075
 30
0.0
 70
    32
  0
VERTEX
  5
4737
  8
240
  6
CONTINUOUS
 10
86.663176869506046
 20
12.07854900000075
 30
0.0
 70
    32
  0
VERTEX
  5
4738
  8
240
  6
CONTINUOUS
 10
86.668886869506025
 20
12.07723900000075
 30
0.0
 70
    32
  0
VERTEX
  5
4739
  8
240
  6
CONTINUOUS
 10
86.674606869506036
 20
12.075929000000739
 30
0.0
 70
    32
  0
VERTEX
  5
473A
  8
240
  6
CONTINUOUS
 10
86.680326869506032
 20
12.07461900000075
 30
0.0
 70
    32
  0
VERTEX
  5
473B
  8
240
  6
CONTINUOUS
 10
86.686046869506029
 20
12.07330900000075
 30
0.0
 70
    32
  0
VERTEX
  5
473C
  8
240
  6
CONTINUOUS
 10
86.691766869506054
 20
12.07199900000075
 30
0.0
 70
    32
  0
VERTEX
  5
473D
  8
240
  6
CONTINUOUS
 10
86.697486869506037
 20
12.070699000000751
 30
0.0
 70
    32
  0
VERTEX
  5
473E
  8
240
  6
CONTINUOUS
 10
86.703206869506033
 20
12.06939900000075
 30
0.0
 70
    32
  0
VERTEX
  5
473F
  8
240
  6
CONTINUOUS
 10
86.70892686950603
 20
12.068099000000741
 30
0.0
 70
    32
  0
VERTEX
  5
4740
  8
240
  6
CONTINUOUS
 10
86.714646869506055
 20
12.066799000000749
 30
0.0
 70
    32
  0
VERTEX
  5
4741
  8
240
  6
CONTINUOUS
 10
86.72037686950604
 20
12.065509000000739
 30
0.0
 70
    32
  0
VERTEX
  5
4742
  8
240
  6
CONTINUOUS
 10
86.726096869506037
 20
12.06420900000075
 30
0.0
 70
    32
  0
VERTEX
  5
4743
  8
240
  6
CONTINUOUS
 10
86.731816869506034
 20
12.06291900000075
 30
0.0
 70
    32
  0
VERTEX
  5
4744
  8
240
  6
CONTINUOUS
 10
86.737546869506033
 20
12.06162900000075
 30
0.0
 70
    32
  0
VERTEX
  5
4745
  8
240
  6
CONTINUOUS
 10
86.743266869506044
 20
12.060329000000751
 30
0.0
 70
    32
  0
VERTEX
  5
4746
  8
240
  6
CONTINUOUS
 10
86.748986869506027
 20
12.059039000000739
 30
0.0
 70
    32
  0
VERTEX
  5
4747
  8
240
  6
CONTINUOUS
 10
86.754716869506041
 20
12.05775900000075
 30
0.0
 70
    32
  0
VERTEX
  5
4748
  8
240
  6
CONTINUOUS
 10
86.760436869506037
 20
12.056469000000741
 30
0.0
 70
    32
  0
VERTEX
  5
4749
  8
240
  6
CONTINUOUS
 10
86.766166869506037
 20
12.05517900000075
 30
0.0
 70
    32
  0
VERTEX
  5
474A
  8
240
  6
CONTINUOUS
 10
86.771886869506034
 20
12.053899000000751
 30
0.0
 70
    32
  0
VERTEX
  5
474B
  8
240
  6
CONTINUOUS
 10
86.777616869506033
 20
12.052609000000739
 30
0.0
 70
    32
  0
VERTEX
  5
474C
  8
240
  6
CONTINUOUS
 10
86.78333686950603
 20
12.05132900000075
 30
0.0
 70
    32
  0
VERTEX
  5
474D
  8
240
  6
CONTINUOUS
 10
86.789066869506016
 20
12.050049000000749
 30
0.0
 70
    32
  0
VERTEX
  5
474E
  8
240
  6
CONTINUOUS
 10
86.794786869506041
 20
12.04875900000075
 30
0.0
 70
    32
  0
VERTEX
  5
474F
  8
240
  6
CONTINUOUS
 10
86.800516869506026
 20
12.047479000000751
 30
0.0
 70
    32
  0
VERTEX
  5
4750
  8
240
  6
CONTINUOUS
 10
86.80624686950604
 20
12.046199000000749
 30
0.0
 70
    32
  0
VERTEX
  5
4751
  8
240
  6
CONTINUOUS
 10
86.811966869506037
 20
12.044919000000739
 30
0.0
 70
    32
  0
VERTEX
  5
4752
  8
240
  6
CONTINUOUS
 10
86.817696869506037
 20
12.04363900000075
 30
0.0
 70
    32
  0
VERTEX
  5
4753
  8
240
  6
CONTINUOUS
 10
86.823426869506036
 20
12.042359000000751
 30
0.0
 70
    32
  0
VERTEX
  5
4754
  8
240
  6
CONTINUOUS
 10
86.829146869506033
 20
12.041079000000749
 30
0.0
 70
    32
  0
VERTEX
  5
4755
  8
240
  6
CONTINUOUS
 10
86.834876869506033
 20
12.03979900000075
 30
0.0
 70
    32
  0
VERTEX
  5
4756
  8
240
  6
CONTINUOUS
 10
86.840606869506047
 20
12.03852900000075
 30
0.0
 70
    32
  0
VERTEX
  5
4757
  8
240
  6
CONTINUOUS
 10
86.846326869506044
 20
12.037249000000751
 30
0.0
 70
    32
  0
VERTEX
  5
4758
  8
240
  6
CONTINUOUS
 10
86.852056869506043
 20
12.035969000000749
 30
0.0
 70
    32
  0
SEQEND
  5
4759
  8
240
  6
CONTINUOUS
  0
LINE
  5
475A
  8
240
  6
CONTINUOUS
 10
85.499996869506035
 20
12.27179900000076
 30
0.0
 11
85.949996869506037
 21
12.27179900000076
 31
0.0
1001
GRPNAME
1000
PASTMD0F
  0
ARC
  5
475B
  8
240
  6
CONTINUOUS
 10
89.811833379151722
 20
11.77179900000082
 30
0.0
 40
0.5000000000000157
 50
70.000000050553695
 51
90.000000050556665
1001
GRPNAME
1000
PASTMD0I
  0
LINE
  5
475C
  8
240
  6
CONTINUOUS
 10
89.982843450814585
 20
12.241645310393761
 30
0.0
 11
90.547937941359635
 21
12.035967736287519
 31
0.0
1001
GRPNAME
1000
PASTMD0I
  0
LINE
  5
475D
  8
241
  6
CONTINUOUS
 10
92.899996869505472
 20
9.4965280734559645
 30
0.0
 11
92.899996869504037
 21
11.27179900000076
 31
0.0
1001
GRPNAME
1000
PASTMD0F
  0
LINE
  5
475E
  8
241
  6
CONTINUOUS
 10
92.899996869506083
 20
8.3717990000007312
 30
0.0
 11
92.899996869505657
 21
9.2902321065451652
 31
0.0
1001
GRPNAME
1000
PASTMD0F
  0
ARC
  5
475F
  8
241
  6
CONTINUOUS
 10
91.899996869506083
 20
11.27179900000076
 30
0.0
 40
0.9999999999999616
 50
0.0
 51
89.999999888622554
1001
GRPNAME
1000
PASTMD0F
  0
LINE
  5
4760
  8
241
  6
CONTINUOUS
 10
92.980547809506035
 20
9.5715814000007313
 30
0.0
 11
99.709198768630685
 21
13.00000030171873
 31
0.0
1001
GRPNAME
1000
PASTMD01
  0
LINE
  5
4761
  8
240
  6
CONTINUOUS
 10
98.562426519506033
 20
5.2645185200007312
 30
0.0
 11
93.299996869506032
 21
7.718429770000732
 31
0.0
  0
LINE
  5
4762
  8
240
  6
CONTINUOUS
 10
93.534570859506033
 20
12.63817046000073
 30
0.0
 11
98.999067719506044
 21
12.63817046000073
 31
0.0
1001
GRPNAME
1000
PASTMD01
  0
LINE
  5
4763
  8
240
  6
CONTINUOUS
 10
91.449996869506023
 20
12.27179900000073
 30
0.0
 11
92.89999686950604
 21
12.27179900000073
 31
0.0
  0
LINE
  5
4764
  8
240
  6
CONTINUOUS
 10
92.89999686950604
 20
12.27179900000073
 30
0.0
 11
93.534570859506033
 21
12.63817046000073
 31
0.0
  0
LINE
  5
4765
  8
240
  6
CONTINUOUS
 10
93.299996869506032
 20
7.718429770000732
 30
0.0
 11
93.299996869506032
 21
8.3717990000007312
 31
0.0
  0
ARC
  5
4766
  8
241
  6
CONTINUOUS
 10
93.071345909506036
 20
9.3933800900007292
 30
0.0
 40
0.1999999999999927
 50
117.00000005999981
 51
237.00000005999971
1001
GRPNAME
1000
PASTMD01
  0
LINE
  5
4767
  8
241
  6
CONTINUOUS
 10
99.999722779506044
 20
12.811331810000731
 30
0.0
 11
99.604495159506044
 21
5.2699396900007311
 31
0.0
1001
GRPNAME
1000
PASTMD01
  0
ARC
  5
4768
  8
240
  6
CONTINUOUS
 10
98.773735649506051
 20
5.7176724100007297
 30
0.0
 40
0.4999999999999939
 50
244.99999999999949
 51
300.50801137000002
  0
LINE
  5
4769
  8
241
  6
CONTINUOUS
 10
99.295841449506042
 20
5.1126727600007271
 30
0.0
 11
92.962377983372676
 21
9.2256721719366261
 31
0.0
1001
GRPNAME
1000
PASTMD01
  0
ARC
  5
476A
  8
241
  6
CONTINUOUS
 10
99.404769259506054
 20
5.2804068800007311
 30
0.0
 40
0.1999999999999987
 50
236.99999998000061
 51
356.99999997999993
1001
GRPNAME
1000
PASTMD01
  0
ARC
  5
476B
  8
241
  6
CONTINUOUS
 10
99.79999686950606
 20
12.82179900000073
 30
0.0
 40
0.1999999999999948
 50
356.99999992000011
 51
116.9999999199994
1001
GRPNAME
1000
PASTMD01
  0
CIRCLE
  5
476C
  8
246
  6
PHANTOM2
 10
97.425370698003775
 20
9.1651953553018757
 30
0.0
 40
2.379999980356382
  0
ARC
  5
476D
  8
241
  6
CONTINUOUS
 10
88.699996869506037
 20
20.75274251660985
 30
0.0
 40
8.9105007032970835
 50
258.03061418127021
 51
281.96938581872911
  0
LINE
  5
476E
  8
241
  6
CONTINUOUS
 10
92.999996869506077
 20
8.3717990000007312
 30
0.0
 11
90.299996869506032
 21
8.3717990000007472
 31
0.0
  0
LINE
  5
476F
  8
240
  6
CONTINUOUS
 10
84.499996869506035
 20
8.3717990000007312
 30
0.0
 11
84.399996869506026
 21
8.3717990000007312
 31
0.0
  0
LINE
  5
47F3
  8
250
  6
CONTINUOUS
 10
0.0
 20
10.000000603193939
 30
0.0
 11
0.0000000000000012
 21
29.0
 31
0.0
  0
LINE
  5
47F4
  8
250
  6
CONTINUOUS
 10
99.999996869506035
 20
13.32179900000073
 30
0.0
 11
99.999996869506035
 21
29.0
 31
0.0
  0
LINE
  5
47F5
  8
250
  6
CONTINUOUS
 10
2.2300000000000009
 20
28.0
 30
0.0
 11
97.769996869506031
 21
28.0
 31
0.0
  0
TEXT
  5
47F9
  8
250
  6
CONTINUOUS
 10
45.799998434753007
 20
29.0
 30
0.0
 40
2.7999999999999989
  1
100
  0
LINE
  5
47FA
  8
250
  6
CONTINUOUS
 10
97.769996869506031
 20
28.371666666666659
 30
0.0
 11
99.999996869506035
 21
28.0
 31
0.0
  0
LINE
  5
47FB
  8
250
  6
CONTINUOUS
 10
97.769996869506031
 20
27.62833333333333
 30
0.0
 11
99.999996869506035
 21
28.0
 31
0.0
  0
LINE
  5
47FC
  8
250
  6
CONTINUOUS
 10
99.999996869506035
 20
28.0
 30
0.0
 11
97.769996869506031
 21
28.0
 31
0.0
  0
LINE
  5
47FD
  8
250
  6
CONTINUOUS
 10
2.2300000000000009
 20
27.62833333333333
 30
0.0
 11
0.0000000000000011
 21
28.0
 31
0.0
  0
LINE
  5
47FE
  8
250
  6
CONTINUOUS
 10
2.2300000000000009
 20
28.371666666666659
 30
0.0
 11
0.0000000000000011
 21
28.0
 31
0.0
  0
LINE
  5
47FF
  8
250
  6
CONTINUOUS
 10
0.0000000000000011
 20
28.0
 30
0.0
 11
2.2300000000000009
 21
28.0
 31
0.0
  0
VIEWPORT
  5
22
 67
     1
  8
0
 10
261.51769911504419
 20
148.5
 30
0.0
 40
523.0353982300885
 41
297.0
 68
     1
 69
     1
1001
ACAD
1000
MVIEW
1002
{
1070
    16
1010
0.0
1020
0.0
1030
0.0
1010
0.0
1020
0.0
1030
1.0
1040
0.0
1040
297.0
1040
261.51769911504419
1040
148.5
1040
50.0
1040
0.0
1040
0.0
1070
     0
1070
   100
1070
     1
1070
     1
1070
     0
1070
     0
1070
     0
1070
     0
1040
0.0
1040
0.0
1040
0.0
1040
1.0
1040
1.0
1040
10.0
1040
10.0
1070
     0
1002
{
1002
}
1002
}
1001
GENIUS_GENODEF_13
1002
{
1000
HIER
1070
     0
1002
}
1002
{
1000
MANEDIT
1070
     0
1002
}
1002
{
1000
NOSEL
1070
     0
1002
}
1002
{
1000
BEHIND
1070
     0
1002
}
1002
{
1000
OTHER
1070
     0
1002
}
1002
{
1000
REACTOR
1002
}
1001
GENIUS_GENOBJ-N-SDF_13
1002
{
1000
OWNER
1000
GEN
1002
}
1001
GENIUS_GENSCREG_15
1000
PF
1040
1.0
1000
DF
1040
1.0
1000
MIN
1011
0.0
1021
0.0
1031
0.0
1021
0.0
1031
0.0
1000
MAX
1011
523.0353982300885
1021
0.0
1031
0.0
1021
297.0
1031
0.0
1000
FLAGS
1070
     4
  0
ENDSEC
  0
EOF
