ISO-10303-21;
HEADER;
FILE_DESCRIPTION((''),'1');
FILE_NAME('U:/Translate/02_3D_Field-HP\X2\FF71FF6FFF8CFF9F5916\X0\2013/02_Step_Field-HP\X2\FF71FF6FFF8CFF9F5916\X0\2013/71_\X2\5207524A5DE55177\X0\/ST16-C1520-45B-50.stp','2016-05-31T02:52:57',(''),(''),'Spatial Interop R21 SP3','Kubotek KeyCreator 2011 V10.0.2 (22737)',' ');
FILE_SCHEMA(('automotive_design'));
ENDSEC;
DATA;
#1=MECHANICAL_DESIGN_GEOMETRIC_PRESENTATION_REPRESENTATION(' ',(#10,#11,#12,#13,#14,#15,#16,#17,#18,#19,#20,#21,#22,#23,#24,#25,#26,#27),#6);
#2=PRODUCT_DEFINITION_CONTEXT('',#28,'design');
#3=APPLICATION_PROTOCOL_DEFINITION('INTERNATIONAL STANDARD','automotive_design',1994,#28);
#4=PRODUCT_CATEGORY_RELATIONSHIP('NONE','NONE',#29,#30);
#5=SHAPE_DEFINITION_REPRESENTATION(#31,#32);
#6= (GEOMETRIC_REPRESENTATION_CONTEXT(3)GLOBAL_UNCERTAINTY_ASSIGNED_CONTEXT((#35))GLOBAL_UNIT_ASSIGNED_CONTEXT((#37,#38,#39))REPRESENTATION_CONTEXT('NONE','WORKSPACE'));
#10=STYLED_ITEM('',(#41),#42);
#11=STYLED_ITEM('',(#43,#44),#45);
#12=STYLED_ITEM('',(#46,#47),#48);
#13=STYLED_ITEM('',(#49),#50);
#14=STYLED_ITEM('',(#51),#52);
#15=STYLED_ITEM('',(#53,#54),#55);
#16=STYLED_ITEM('',(#56),#57);
#17=STYLED_ITEM('',(#58,#59),#60);
#18=STYLED_ITEM('',(#61),#62);
#19=STYLED_ITEM('',(#63),#64);
#20=STYLED_ITEM('',(#65,#66),#67);
#21=STYLED_ITEM('',(#68,#69),#70);
#22=STYLED_ITEM('',(#71,#72),#73);
#23=STYLED_ITEM('',(#74,#75),#76);
#24=STYLED_ITEM('',(#77,#78),#79);
#25=STYLED_ITEM('',(#80,#81),#82);
#26=STYLED_ITEM('',(#83),#84);
#27=STYLED_ITEM('',(#85),#86);
#28=APPLICATION_CONTEXT(' ');
#29=PRODUCT_CATEGORY('part','NONE');
#30=PRODUCT_RELATED_PRODUCT_CATEGORY('detail',' ',(#87));
#31=PRODUCT_DEFINITION_SHAPE('NONE','NONE',#88);
#32=ADVANCED_BREP_SHAPE_REPRESENTATION('Unnamed[1]',(#55,#89),#6);
#35=UNCERTAINTY_MEASURE_WITH_UNIT(LENGTH_MEASURE(1.0E-006),#37,'','');
#37= (CONVERSION_BASED_UNIT('MILLIMETRE',#92)LENGTH_UNIT()NAMED_UNIT(#95));
#38= (NAMED_UNIT(#97)PLANE_ANGLE_UNIT()SI_UNIT($,.RADIAN.));
#39= (NAMED_UNIT(#97)SOLID_ANGLE_UNIT()SI_UNIT($,.STERADIAN.));
#41=PRESENTATION_STYLE_ASSIGNMENT((#103));
#42=EDGE_CURVE('Unnamed[1]',#104,#104,#105,.T.);
#43=PRESENTATION_STYLE_ASSIGNMENT((#106));
#44=PRESENTATION_STYLE_ASSIGNMENT((#107));
#45=ADVANCED_FACE('Unnamed[1]',(#108,#109),#110,.T.);
#46=PRESENTATION_STYLE_ASSIGNMENT((#111));
#47=PRESENTATION_STYLE_ASSIGNMENT((#112));
#48=ADVANCED_FACE('Unnamed[1]',(#113,#114),#115,.T.);
#49=PRESENTATION_STYLE_ASSIGNMENT((#116));
#50=EDGE_CURVE('Unnamed[1]',#117,#117,#118,.T.);
#51=PRESENTATION_STYLE_ASSIGNMENT((#119));
#52=EDGE_CURVE('Unnamed[1]',#120,#120,#121,.T.);
#53=PRESENTATION_STYLE_ASSIGNMENT((#122));
#54=PRESENTATION_STYLE_ASSIGNMENT((#123));
#55=MANIFOLD_SOLID_BREP('Unnamed[1]',#124);
#56=PRESENTATION_STYLE_ASSIGNMENT((#125));
#57=EDGE_CURVE('Unnamed[1]',#126,#126,#127,.T.);
#58=PRESENTATION_STYLE_ASSIGNMENT((#128));
#59=PRESENTATION_STYLE_ASSIGNMENT((#129));
#60=ADVANCED_FACE('Unnamed[1]',(#130,#131),#132,.T.);
#61=PRESENTATION_STYLE_ASSIGNMENT((#133));
#62=EDGE_CURVE('Unnamed[1]',#134,#134,#135,.T.);
#63=PRESENTATION_STYLE_ASSIGNMENT((#136));
#64=EDGE_CURVE('Unnamed[1]',#137,#137,#138,.T.);
#65=PRESENTATION_STYLE_ASSIGNMENT((#139));
#66=PRESENTATION_STYLE_ASSIGNMENT((#140));
#67=ADVANCED_FACE('Unnamed[1]',(#141,#142),#143,.T.);
#68=PRESENTATION_STYLE_ASSIGNMENT((#144));
#69=PRESENTATION_STYLE_ASSIGNMENT((#145));
#70=ADVANCED_FACE('Unnamed[1]',(#146,#147),#148,.T.);
#71=PRESENTATION_STYLE_ASSIGNMENT((#149));
#72=PRESENTATION_STYLE_ASSIGNMENT((#150));
#73=ADVANCED_FACE('Unnamed[1]',(#151,#152),#153,.T.);
#74=PRESENTATION_STYLE_ASSIGNMENT((#154));
#75=PRESENTATION_STYLE_ASSIGNMENT((#155));
#76=ADVANCED_FACE('Unnamed[1]',(#156),#157,.T.);
#77=PRESENTATION_STYLE_ASSIGNMENT((#158));
#78=PRESENTATION_STYLE_ASSIGNMENT((#159));
#79=ADVANCED_FACE('Unnamed[1]',(#160),#161,.T.);
#80=PRESENTATION_STYLE_ASSIGNMENT((#162));
#81=PRESENTATION_STYLE_ASSIGNMENT((#163));
#82=ADVANCED_FACE('Unnamed[1]',(#164,#165),#166,.T.);
#83=PRESENTATION_STYLE_ASSIGNMENT((#167));
#84=EDGE_CURVE('Unnamed[1]',#168,#168,#169,.T.);
#85=PRESENTATION_STYLE_ASSIGNMENT((#170));
#86=EDGE_CURVE('Unnamed[1]',#171,#171,#172,.T.);
#87=PRODUCT('Unnamed[1]','Unnamed[1]','PART-Unnamed[1]-DESC',(#173));
#88=PRODUCT_DEFINITION('NONE','NONE',#174,#2);
#89=AXIS2_PLACEMENT_3D('',#175,#176,#177);
#92=LENGTH_MEASURE_WITH_UNIT(LENGTH_MEASURE(1.0),#178);
#95=DIMENSIONAL_EXPONENTS(1.0,0.0,0.0,0.0,0.0,0.0,0.0);
#97=DIMENSIONAL_EXPONENTS(0.0,0.0,0.0,0.0,0.0,0.0,0.0);
#103=CURVE_STYLE('',#179,POSITIVE_LENGTH_MEASURE(1000.0),#180);
#104=VERTEX_POINT('',#181);
#105=CIRCLE('',#182,10.2387007387623);
#106=SURFACE_STYLE_USAGE(.BOTH.,#183);
#107=CURVE_STYLE('',#184,POSITIVE_LENGTH_MEASURE(1000.0),#185);
#108=FACE_OUTER_BOUND('',#186,.T.);
#109=FACE_BOUND('',#187,.T.);
#110=PLANE('',#188);
#111=SURFACE_STYLE_USAGE(.BOTH.,#189);
#112=CURVE_STYLE('',#190,POSITIVE_LENGTH_MEASURE(1000.0),#191);
#113=FACE_BOUND('',#192,.T.);
#114=FACE_BOUND('',#193,.T.);
#115=CYLINDRICAL_SURFACE('',#194,6.59999996423721);
#116=CURVE_STYLE('',#195,POSITIVE_LENGTH_MEASURE(1000.0),#196);
#117=VERTEX_POINT('',#197);
#118=CIRCLE('',#198,7.99999991431832);
#119=CURVE_STYLE('',#199,POSITIVE_LENGTH_MEASURE(1000.0),#200);
#120=VERTEX_POINT('',#201);
#121=CIRCLE('',#202,10.238700819721);
#122=SURFACE_STYLE_USAGE(.BOTH.,#203);
#123=CURVE_STYLE('',#204,POSITIVE_LENGTH_MEASURE(1000.0),#205);
#124=CLOSED_SHELL('',(#79,#67,#70,#48,#45,#82,#60,#73,#76));
#125=CURVE_STYLE('',#206,POSITIVE_LENGTH_MEASURE(1000.0),#207);
#126=VERTEX_POINT('',#208);
#127=CIRCLE('',#209,6.59999996423721);
#128=SURFACE_STYLE_USAGE(.BOTH.,#210);
#129=CURVE_STYLE('',#211,POSITIVE_LENGTH_MEASURE(1000.0),#212);
#130=FACE_BOUND('',#213,.T.);
#131=FACE_BOUND('',#214,.T.);
#132=TOROIDAL_SURFACE('',#215,10.0972794286961,0.2);
#133=CURVE_STYLE('',#216,POSITIVE_LENGTH_MEASURE(1000.0),#217);
#134=VERTEX_POINT('',#218);
#135=CIRCLE('',#219,6.92743118036518);
#136=CURVE_STYLE('',#220,POSITIVE_LENGTH_MEASURE(1000.0),#221);
#137=VERTEX_POINT('',#222);
#138=CIRCLE('',#223,7.99999991431832);
#139=SURFACE_STYLE_USAGE(.BOTH.,#224);
#140=CURVE_STYLE('',#225,POSITIVE_LENGTH_MEASURE(1000.0),#226);
#141=FACE_BOUND('',#227,.T.);
#142=FACE_BOUND('',#228,.T.);
#143=CYLINDRICAL_SURFACE('',#229,7.99999991431832);
#144=SURFACE_STYLE_USAGE(.BOTH.,#230);
#145=CURVE_STYLE('',#231,POSITIVE_LENGTH_MEASURE(1000.0),#232);
#146=FACE_BOUND('',#233,.T.);
#147=FACE_BOUND('',#234,.T.);
#148=CONICAL_SURFACE('',#235,7.29999993927777,0.487181397565275);
#149=SURFACE_STYLE_USAGE(.BOTH.,#236);
#150=CURVE_STYLE('',#237,POSITIVE_LENGTH_MEASURE(1000.0),#238);
#151=FACE_BOUND('',#239,.T.);
#152=FACE_BOUND('',#240,.T.);
#153=CONICAL_SURFACE('',#241,8.5830660000431,0.785397917415198);
#154=SURFACE_STYLE_USAGE(.BOTH.,#242);
#155=CURVE_STYLE('',#243,POSITIVE_LENGTH_MEASURE(1000.0),#244);
#156=FACE_OUTER_BOUND('',#245,.T.);
#157=PLANE('',#246);
#158=SURFACE_STYLE_USAGE(.BOTH.,#247);
#159=CURVE_STYLE('',#248,POSITIVE_LENGTH_MEASURE(1000.0),#249);
#160=FACE_OUTER_BOUND('',#250,.T.);
#161=PLANE('',#251);
#162=SURFACE_STYLE_USAGE(.BOTH.,#252);
#163=CURVE_STYLE('',#253,POSITIVE_LENGTH_MEASURE(1000.0),#254);
#164=FACE_BOUND('',#255,.T.);
#165=FACE_BOUND('',#256,.T.);
#166=CONICAL_SURFACE('',#257,8.58306592577514,0.785398489876687);
#167=CURVE_STYLE('',#258,POSITIVE_LENGTH_MEASURE(1000.0),#259);
#168=VERTEX_POINT('',#260);
#169=CIRCLE('',#261,6.92743111278799);
#170=CURVE_STYLE('',#262,POSITIVE_LENGTH_MEASURE(1000.0),#263);
#171=VERTEX_POINT('',#264);
#172=CIRCLE('',#265,6.59999996423721);
#173=PRODUCT_CONTEXT('',#28,'mechanical');
#174=PRODUCT_DEFINITION_FORMATION_WITH_SPECIFIED_SOURCE(' ','NONE',#87,.NOT_KNOWN.);
#175=CARTESIAN_POINT('',(0.0,0.0,0.0));
#176=DIRECTION('',(0.0,0.0,1.0));
#177=DIRECTION('',(1.0,0.0,0.0));
#178= (NAMED_UNIT(#95)LENGTH_UNIT()SI_UNIT(.MILLI.,.METRE.));
#179=DRAUGHTING_PRE_DEFINED_CURVE_FONT('continuous');
#180=COLOUR_RGB('',0.0,1.0,0.0);
#181=CARTESIAN_POINT('',(-2.20076009818464E-016,10.2387007387623,3.5941139922415));
#182=AXIS2_PLACEMENT_3D('',#267,#268,#269);
#183=SURFACE_SIDE_STYLE('',(#270));
#184=DRAUGHTING_PRE_DEFINED_CURVE_FONT('continuous');
#185=COLOUR_RGB('',0.0,1.0,0.0);
#186=EDGE_LOOP('',(#271));
#187=EDGE_LOOP('',(#272));
#188=AXIS2_PLACEMENT_3D('',#273,#274,#275);
#189=SURFACE_SIDE_STYLE('',(#276));
#190=DRAUGHTING_PRE_DEFINED_CURVE_FONT('continuous');
#191=COLOUR_RGB('',0.0,1.0,0.0);
#192=EDGE_LOOP('',(#277));
#193=EDGE_LOOP('',(#278));
#194=AXIS2_PLACEMENT_3D('',#279,#280,#281);
#195=DRAUGHTING_PRE_DEFINED_CURVE_FONT('continuous');
#196=COLOUR_RGB('',0.0,1.0,0.0);
#197=CARTESIAN_POINT('',(-3.22404747307667E-015,7.99999991431832,52.6526909688798));
#198=AXIS2_PLACEMENT_3D('',#282,#283,#284);
#199=DRAUGHTING_PRE_DEFINED_CURVE_FONT('continuous');
#200=COLOUR_RGB('',0.0,1.0,0.0);
#201=CARTESIAN_POINT('',(-2.02756887996714E-016,10.238700819721,3.31127126838336));
#202=AXIS2_PLACEMENT_3D('',#285,#286,#287);
#203=SURFACE_SIDE_STYLE('',(#288));
#204=DRAUGHTING_PRE_DEFINED_CURVE_FONT('continuous');
#205=COLOUR_RGB('',0.0,1.0,0.0);
#206=DRAUGHTING_PRE_DEFINED_CURVE_FONT('continuous');
#207=COLOUR_RGB('',0.0,1.0,0.0);
#208=CARTESIAN_POINT('',(-4.22832664854907E-016,6.59999996423721,6.90538145609493));
#209=AXIS2_PLACEMENT_3D('',#289,#290,#291);
#210=SURFACE_SIDE_STYLE('',(#292));
#211=DRAUGHTING_PRE_DEFINED_CURVE_FONT('continuous');
#212=COLOUR_RGB('',0.0,1.0,0.0);
#213=EDGE_LOOP('',(#293));
#214=EDGE_LOOP('',(#294));
#215=AXIS2_PLACEMENT_3D('',#295,#296,#297);
#216=DRAUGHTING_PRE_DEFINED_CURVE_FONT('continuous');
#217=COLOUR_RGB('',0.0,1.0,0.0);
#218=CARTESIAN_POINT('',(-8.53849003781929E-032,6.92743118036518,8.48388199969907E-016));
#219=AXIS2_PLACEMENT_3D('',#298,#299,#300);
#220=DRAUGHTING_PRE_DEFINED_CURVE_FONT('continuous');
#221=COLOUR_RGB('',0.0,1.0,0.0);
#222=CARTESIAN_POINT('',(-7.51031106023282E-015,7.99999991431831,122.652687541613));
#223=AXIS2_PLACEMENT_3D('',#301,#302,#303);
#224=SURFACE_SIDE_STYLE('',(#304));
#225=DRAUGHTING_PRE_DEFINED_CURVE_FONT('continuous');
#226=COLOUR_RGB('',0.0,1.0,0.0);
#227=EDGE_LOOP('',(#305));
#228=EDGE_LOOP('',(#306));
#229=AXIS2_PLACEMENT_3D('',#307,#308,#309);
#230=SURFACE_SIDE_STYLE('',(#310));
#231=DRAUGHTING_PRE_DEFINED_CURVE_FONT('continuous');
#232=COLOUR_RGB('',0.0,1.0,0.0);
#233=EDGE_LOOP('',(#311));
#234=EDGE_LOOP('',(#312));
#235=AXIS2_PLACEMENT_3D('',#313,#314,#315);
#236=SURFACE_SIDE_STYLE('',(#316));
#237=DRAUGHTING_PRE_DEFINED_CURVE_FONT('continuous');
#238=COLOUR_RGB('',0.0,1.0,0.0);
#239=EDGE_LOOP('',(#317));
#240=EDGE_LOOP('',(#318));
#241=AXIS2_PLACEMENT_3D('',#319,#320,#321);
#242=SURFACE_SIDE_STYLE('',(#322));
#243=DRAUGHTING_PRE_DEFINED_CURVE_FONT('continuous');
#244=COLOUR_RGB('',0.0,1.0,0.0);
#245=EDGE_LOOP('',(#323));
#246=AXIS2_PLACEMENT_3D('',#324,#325,#326);
#247=SURFACE_SIDE_STYLE('',(#327));
#248=DRAUGHTING_PRE_DEFINED_CURVE_FONT('continuous');
#249=COLOUR_RGB('',0.0,1.0,0.0);
#250=EDGE_LOOP('',(#328));
#251=AXIS2_PLACEMENT_3D('',#329,#330,#331);
#252=SURFACE_SIDE_STYLE('',(#332));
#253=DRAUGHTING_PRE_DEFINED_CURVE_FONT('continuous');
#254=COLOUR_RGB('',0.0,1.0,0.0);
#255=EDGE_LOOP('',(#333));
#256=EDGE_LOOP('',(#334));
#257=AXIS2_PLACEMENT_3D('',#335,#336,#337);
#258=DRAUGHTING_PRE_DEFINED_CURVE_FONT('continuous');
#259=COLOUR_RGB('',0.0,1.0,0.0);
#260=CARTESIAN_POINT('',(-4.22832664854907E-016,6.92743111278799,6.90538145609493));
#261=AXIS2_PLACEMENT_3D('',#338,#339,#340);
#262=DRAUGHTING_PRE_DEFINED_CURVE_FONT('continuous');
#263=COLOUR_RGB('',0.0,1.0,0.0);
#264=CARTESIAN_POINT('',(-3.0622323905324E-015,6.59999996423721,50.0100501248923));
#265=AXIS2_PLACEMENT_3D('',#341,#342,#343);
#267=CARTESIAN_POINT('',(-2.20076009818463E-016,-4.40152019636927E-016,3.5941139922415));
#268=DIRECTION('',(6.12323399573677E-017,1.22464679914725E-016,-1.0));
#269=DIRECTION('',(-1.23259516440785E-032,1.0,1.22464679914725E-016));
#270=SURFACE_STYLE_FILL_AREA(#344);
#271=ORIENTED_EDGE('',*,*,#84,.F.);
#272=ORIENTED_EDGE('',*,*,#57,.T.);
#273=CARTESIAN_POINT('',(-4.22832664854907E-016,6.7637155385126,6.90538145609493));
#274=DIRECTION('',(-6.12323399573677E-017,-1.22464679914735E-016,1.0));
#275=DIRECTION('',(1.23259516440783E-032,-1.0,-1.22464679914735E-016));
#276=SURFACE_STYLE_FILL_AREA(#345);
#277=ORIENTED_EDGE('',*,*,#57,.F.);
#278=ORIENTED_EDGE('',*,*,#86,.T.);
#279=CARTESIAN_POINT('',(-1.74253252769366E-015,-3.48506505538731E-015,28.4577157904936));
#280=DIRECTION('',(6.12323399573677E-017,1.22464679914752E-016,-1.0));
#281=DIRECTION('',(-1.23259516440783E-032,1.0,1.22464679914752E-016));
#282=CARTESIAN_POINT('',(-3.22404747307667E-015,-6.44809494615333E-015,52.6526909688798));
#283=DIRECTION('',(6.12323399573677E-017,1.22464679914728E-016,-1.0));
#284=DIRECTION('',(-1.23259516440783E-032,1.0,1.22464679914728E-016));
#285=CARTESIAN_POINT('',(-2.02756887996714E-016,-4.05513775993427E-016,3.31127126838336));
#286=DIRECTION('',(6.12323399573677E-017,1.22464679914752E-016,-1.0));
#287=DIRECTION('',(-1.23259516440795E-032,1.0,1.22464679914752E-016));
#288=SURFACE_STYLE_FILL_AREA(#346);
#289=CARTESIAN_POINT('',(-4.22832664854907E-016,-8.45665329709815E-016,6.90538145609493));
#290=DIRECTION('',(6.12323399573677E-017,1.22464679914752E-016,-1.0));
#291=DIRECTION('',(-1.23259516440783E-032,1.0,1.22464679914752E-016));
#292=SURFACE_STYLE_FILL_AREA(#347);
#293=ORIENTED_EDGE('',*,*,#52,.F.);
#294=ORIENTED_EDGE('',*,*,#42,.T.);
#295=CARTESIAN_POINT('',(-2.11416446428942E-016,-4.22832892857884E-016,3.45269258983306));
#296=DIRECTION('',(6.12323399573677E-017,1.22464679914735E-016,-1.0));
#297=DIRECTION('',(-1.0,-4.82715273076902E-033,-6.12323399573677E-017));
#298=CARTESIAN_POINT('',(0.0,0.0,0.0));
#299=DIRECTION('',(6.12323399573677E-017,1.22464679914713E-016,-1.0));
#300=DIRECTION('',(-1.23259516440791E-032,1.0,1.22464679914713E-016));
#301=CARTESIAN_POINT('',(-7.51031106023282E-015,-1.50206221204656E-014,122.652687541613));
#302=DIRECTION('',(6.12323399573677E-017,1.22464679914728E-016,-1.0));
#303=DIRECTION('',(-1.23259516440783E-032,1.0,1.22464679914728E-016));
#304=SURFACE_STYLE_FILL_AREA(#348);
#305=ORIENTED_EDGE('',*,*,#50,.F.);
#306=ORIENTED_EDGE('',*,*,#64,.T.);
#307=CARTESIAN_POINT('',(-5.36717926665475E-015,-1.07343585333095E-014,87.6526892552462));
#308=DIRECTION('',(6.12323399573677E-017,1.22464679914728E-016,-1.0));
#309=DIRECTION('',(-1.23259516440783E-032,1.0,1.22464679914728E-016));
#310=SURFACE_STYLE_FILL_AREA(#349);
#311=ORIENTED_EDGE('',*,*,#86,.F.);
#312=ORIENTED_EDGE('',*,*,#50,.T.);
#313=CARTESIAN_POINT('',(-3.14313993180454E-015,-6.28627986360907E-015,51.331370546886));
#314=DIRECTION('',(-6.12323399573677E-017,-1.22464679914711E-016,1.0));
#315=DIRECTION('',(-1.23259516440783E-032,1.0,1.22464679914711E-016));
#316=SURFACE_STYLE_FILL_AREA(#350);
#317=ORIENTED_EDGE('',*,*,#62,.F.);
#318=ORIENTED_EDGE('',*,*,#52,.T.);
#319=CARTESIAN_POINT('',(-1.01378443998357E-016,-2.02756887996714E-016,1.65563563419168));
#320=DIRECTION('',(-6.12323399573677E-017,-1.22464679914713E-016,1.0));
#321=DIRECTION('',(-1.2325951644078E-032,1.0,1.22464679914713E-016));
#322=SURFACE_STYLE_FILL_AREA(#351);
#323=ORIENTED_EDGE('',*,*,#62,.T.);
#324=CARTESIAN_POINT('',(-4.29061080423019E-032,3.46371559018259,4.27663546936907E-016));
#325=DIRECTION('',(6.12323399573677E-017,1.21463025228713E-016,-1.0));
#326=DIRECTION('',(-1.22646179838239E-032,1.0,1.21463025228713E-016));
#327=SURFACE_STYLE_FILL_AREA(#352);
#328=ORIENTED_EDGE('',*,*,#64,.F.);
#329=CARTESIAN_POINT('',(-7.51031106023282E-015,3.99999995715915,122.652687541613));
#330=DIRECTION('',(-6.12323399573677E-017,-1.22464679914735E-016,1.0));
#331=DIRECTION('',(1.23259516440783E-032,-1.0,-1.22464679914735E-016));
#332=SURFACE_STYLE_FILL_AREA(#353);
#333=ORIENTED_EDGE('',*,*,#42,.F.);
#334=ORIENTED_EDGE('',*,*,#84,.T.);
#335=CARTESIAN_POINT('',(-3.21454337336685E-016,-6.42908674673371E-016,5.24974772416822));
#336=DIRECTION('',(6.12323399573676E-017,1.22464679914742E-016,-1.0));
#337=DIRECTION('',(-1.23259516440786E-032,1.0,1.22464679914742E-016));
#338=CARTESIAN_POINT('',(-4.22832664854907E-016,-8.45665329709815E-016,6.90538145609493));
#339=DIRECTION('',(6.12323399573677E-017,1.22464679914709E-016,-1.0));
#340=DIRECTION('',(-1.23259516440789E-032,1.0,1.22464679914709E-016));
#341=CARTESIAN_POINT('',(-3.0622323905324E-015,-6.1244647810648E-015,50.0100501248923));
#342=DIRECTION('',(6.12323399573677E-017,1.22464679914752E-016,-1.0));
#343=DIRECTION('',(-1.23259516440783E-032,1.0,1.22464679914752E-016));
#344=FILL_AREA_STYLE('',(#354));
#345=FILL_AREA_STYLE('',(#355));
#346=FILL_AREA_STYLE('',(#356));
#347=FILL_AREA_STYLE('',(#357));
#348=FILL_AREA_STYLE('',(#358));
#349=FILL_AREA_STYLE('',(#359));
#350=FILL_AREA_STYLE('',(#360));
#351=FILL_AREA_STYLE('',(#361));
#352=FILL_AREA_STYLE('',(#362));
#353=FILL_AREA_STYLE('',(#363));
#354=FILL_AREA_STYLE_COLOUR('',#364);
#355=FILL_AREA_STYLE_COLOUR('',#365);
#356=FILL_AREA_STYLE_COLOUR('',#366);
#357=FILL_AREA_STYLE_COLOUR('',#367);
#358=FILL_AREA_STYLE_COLOUR('',#368);
#359=FILL_AREA_STYLE_COLOUR('',#369);
#360=FILL_AREA_STYLE_COLOUR('',#370);
#361=FILL_AREA_STYLE_COLOUR('',#371);
#362=FILL_AREA_STYLE_COLOUR('',#372);
#363=FILL_AREA_STYLE_COLOUR('',#373);
#364=COLOUR_RGB('',0.0,1.0,0.0);
#365=COLOUR_RGB('',0.0,1.0,0.0);
#366=COLOUR_RGB('',0.0,1.0,0.0);
#367=COLOUR_RGB('',0.0,1.0,0.0);
#368=COLOUR_RGB('',0.0,1.0,0.0);
#369=COLOUR_RGB('',0.0,1.0,0.0);
#370=COLOUR_RGB('',0.0,1.0,0.0);
#371=COLOUR_RGB('',0.0,1.0,0.0);
#372=COLOUR_RGB('',0.0,1.0,0.0);
#373=COLOUR_RGB('',0.0,1.0,0.0);
ENDSEC;
END-ISO-10303-21;
